  0
SECTION
  2
HEADER
  9
$ACADVER
  1
AC1009
  9
$INSBASE
 10
0
 20
0
 30
0
  9
$EXTMIN
 10
0
 20
0
  9
$EXTMAX
 10
420
 20
297
  9
$LIMMIN
 10
0
 20
0
  9
$LIMMAX
 10
420
 20
297
  9
$LTSCALE
 40
1
  0
ENDSEC
  0
SECTION
  2
TABLES
  0
TABLE
  2
LTYPE
 70
     9
  0
LTYPE
  2
CONTINUOUS
 70
    64
  3
実線
 72
    65
 73
     0
 40
0.0
  0
LTYPE
  2
DASHED1
 70
    64
  3
--  --  --  --  --  --  --  --  
 72
    65
 73
     2
 40
2.5
 49
1.25
 49
-1.25
  0
LTYPE
  2
DASHED2
 70
    64
  3
----    ----    ----    ----    
 72
    65
 73
     2
 40
5.0
 49
2.5
 49
-2.5
  0
LTYPE
  2
DASHED3
 70
    64
  3
------  ------  ------  ------  
 72
    65
 73
     2
 40
5.0
 49
3.75
 49
-1.25
  0
LTYPE
  2
CENTER1
 70
    64
  3
----- - ----- - ----- - ----- - 
 72
    65
 73
     4
 40
10.0
 49
6.25
 49
-1.25
 49
1.25
 49
-1.25
  0
LTYPE
  2
CENTER2
 70
    64
  3
----------  --  ----------  --  
 72
    65
 73
     4
 40
20.0
 49
12.5
 49
-2.5
 49
2.5
 49
-2.5
  0
LTYPE
  2
PHANTOM1
 70
    64
  3
--- - - --- - - --- - - --- - - 
 72
    65
 73
     6
 40
10.0
 49
3.25
 49
-1.25
 49
1.25
 49
-1.25
 49
1.25
 49
-1.25
  0
LTYPE
  2
PHANTOM2
 70
    64
  3
--------  -  -  --------  -  -  
 72
    65
 73
     6
 40
20.0
 49
10.0
 49
-2.5
 49
1.25
 49
-2.5
 49
1.25
 49
-2.5
  0
LTYPE
  2
DOT
 70
    64
  3
-   -   -   -   -   -   -   -   
 72
    65
 73
     2
 40
2.5
 49
0.625
 49
-1.875
  0
LTYPE
  2
DUMMY
 70
    64
  3
ダミー
 72
    65
 73
     0
 40
0.0
  0
LTYPE
  2
RAND1
 70
    64
  3
ランダム線1
 72
    65
 73
     4
 40
10.0
 49
1.0
 49
-2.0
 49
3.0
 49
-4.0
  0
LTYPE
  2
RAND2
 70
    64
  3
ランダム線2
 72
    65
 73
     4
 40
14.0
 49
2.0
 49
-3.0
 49
4.0
 49
-5.0
  0
LTYPE
  2
RAND3
 70
    64
  3
ランダム線3
 72
    65
 73
     4
 40
18.0
 49
3.0
 49
-4.0
 49
5.0
 49
-6.0
  0
LTYPE
  2
RAND4
 70
    64
  3
ランダム線4
 72
    65
 73
     4
 40
22.0
 49
4.0
 49
-5.0
 49
6.0
 49
-7.0
  0
LTYPE
  2
RAND5
 70
    64
  3
ランダム線5
 72
    65
 73
     4
 40
26.0
 49
5.0
 49
-6.0
 49
7.0
 49
-8.0
  0
LTYPE
  2
LONG1
 70
    64
  3
----------  --  ----------  --  
 72
    65
 73
     4
 40
40.0
 49
32.5
 49
-2.5
 49
2.5
 49
-2.5
  0
LTYPE
  2
LONG2
 70
    64
  3
--------  -  -  --------  -  -  
 72
    65
 73
     6
 40
40.0
 49
30.0
 49
-2.5
 49
1.25
 49
-2.5
 49
1.25
 49
-2.5
  0
LTYPE
  2
LONG3
 70
    64
  3
+++++++++++++++..+++++++++++++++
 72
    65
 73
     2
 40
40.0
 49
37.5
 49
-2.5
  0
LTYPE
  2
LONG4
 70
    64
  3
+++++++++++++++..+++++++++++++++
 72
    65
 73
     2
 40
80.0
 49
75.0
 49
-5.0
  0
LTYPE
  2
LONG5
 70
    64
  3
----------  --  ----------  --  
 72
    65
 73
     4
 40
60.0
 49
37.5
 49
-7.5
 49
7.5
 49
-7.5
  0
LTYPE
  2
dashed
 70
   64
  3
-------   -------------   ------
 72
   65
 73
    2
 40
7.5
 49
6
 49
-1.5
  0
LTYPE
  2
dashed_spaced
 70
   64
  3
----        --------        ----
 72
   65
 73
    2
 40
12
 49
6
 49
-6
  0
LTYPE
  2
long_dashed_dotted
 70
   64
  3
------------- --- --------------
 72
   65
 73
    4
 40
15.25
 49
12
 49
-1.5
 49
0.25
 49
-1.5
  0
LTYPE
  2
long_dashed_double-dotted
 70
   64
  3
----------- --- --- ------------
 72
   65
 73
    6
 40
17
 49
12
 49
-1.5
 49
0.25
 49
-1.5
 49
0.25
 49
-1.5
  0
LTYPE
  2
long_dashed_triplicate-dotted
 70
   64
  3
--------- --- --- --- ----------
 72
   65
 73
    8
 40
18.75
 49
12
 49
-1.5
 49
0.25
 49
-1.5
 49
0.25
 49
-1.5
 49
0.25
 49
-1.5
  0
LTYPE
  2
dotted
 70
   64
  3
   -       -       -       -    
 72
   65
 73
    2
 40
1.75
 49
0.25
 49
-1.5
  0
LTYPE
  2
chain
 70
   64
  3
-------------- -- --------------
 72
   65
 73
    4
 40
18.5
 49
12
 49
-1.5
 49
3.5
 49
-1.5
  0
LTYPE
  2
chain_double_dash
 70
   64
  3
------------ -- -- -------------
 72
   65
 73
    6
 40
23.5
 49
12
 49
-1.5
 49
3.5
 49
-1.5
 49
3.5
 49
-1.5
  0
LTYPE
  2
dashed_dotted
 70
   64
  3
-----------     -     ----------
 72
   65
 73
    4
 40
9.25
 49
6
 49
-1.5
 49
0.25
 49
-1.5
  0
LTYPE
  2
double-dashed_dotted
 70
   64
  3
------   -----------   -   -----
 72
   65
 73
    6
 40
16.75
 49
6
 49
-1.5
 49
6
 49
-1.5
 49
0.25
 49
-1.5
  0
LTYPE
  2
dashed_double-dotted
 70
   64
  3
---------    -    -    ---------
 72
   65
 73
    6
 40
11
 49
6
 49
-1.5
 49
0.25
 49
-1.5
 49
0.25
 49
-1.5
  0
LTYPE
  2
double-dashed_double-dotted
 70
   64
  3
-----   ---------   -   -   ----
 72
   65
 73
    8
 40
18.5
 49
6
 49
-1.5
 49
6
 49
-1.5
 49
0.25
 49
-1.5
 49
0.25
 49
-1.5
  0
LTYPE
  2
dashed_triplicate-dotted
 70
   64
  3
-------    -    -    -    ------
 72
   65
 73
    8
 40
12.75
 49
6
 49
-1.5
 49
0.25
 49
-1.5
 49
0.25
 49
-1.5
 49
0.25
 49
-1.5
  0
LTYPE
  2
double-dashed_triplicate-dotted
 70
   64
  3
-----  ---------  -  -  -  -----
 72
   65
 73
   10
 40
20.25
 49
6
 49
-1.5
 49
6
 49
-1.5
 49
0.25
 49
-1.5
 49
0.25
 49
-1.5
 49
0.25
 49
-1.5
  0
LTYPE
  2
undefined
 70
   64
  3
--------------------------------
 72
   65
 73
    0
 40
0
  0
LTYPE
  2
_
 70
   64
  3
                                
 72
   65
 73
    0
 40
0
  0
LTYPE
  2
__18
 70
   64
  3
                                
 72
   65
 73
    0
 40
0
  0
LTYPE
  2
__19
 70
   64
  3
                                
 72
   65
 73
    0
 40
0
  0
LTYPE
  2
__20
 70
   64
  3
                                
 72
   65
 73
    0
 40
0
  0
LTYPE
  2
__21
 70
   64
  3
                                
 72
   65
 73
    0
 40
0
  0
LTYPE
  2
__22
 70
   64
  3
                                
 72
   65
 73
    0
 40
0
  0
LTYPE
  2
__23
 70
   64
  3
                                
 72
   65
 73
    0
 40
0
  0
LTYPE
  2
__24
 70
   64
  3
                                
 72
   65
 73
    0
 40
0
  0
LTYPE
  2
__25
 70
   64
  3
                                
 72
   65
 73
    0
 40
0
  0
LTYPE
  2
__26
 70
   64
  3
                                
 72
   65
 73
    0
 40
0
  0
LTYPE
  2
__27
 70
   64
  3
                                
 72
   65
 73
    0
 40
0
  0
LTYPE
  2
__28
 70
   64
  3
                                
 72
   65
 73
    0
 40
0
  0
LTYPE
  2
__29
 70
   64
  3
                                
 72
   65
 73
    0
 40
0
  0
LTYPE
  2
__30
 70
   64
  3
                                
 72
   65
 73
    0
 40
0
  0
LTYPE
  2
__31
 70
   64
  3
                                
 72
   65
 73
    0
 40
0
  0
LTYPE
  2
__32
 70
   64
  3
                                
 72
   65
 73
    0
 40
0
  0
ENDTAB
  0
TABLE
  2
STYLE
  5
3
100
AcDbSymbolTable
 70
     1
  0
STYLE
  5
10
100
AcDbSymbolTableRecord
100
AcDbTextStyleTableRecord
  2
STANDARD
 70
     0
 40
0.0
 41
1.0
 50
0.0
 71
     0
 42
0.2
  3
txt
  4
bigfont.shx
  0
STYLE
  5
26
100
AcDbSymbolTableRecord
100
AcDbTextStyleTableRecord
  2
TATEGAKI
 70
    68
 40
0.0
 41
1.0
 50
0.0
 71
     0
 42
1.0
  3
txt
  4
bigfont.shx
  0
ENDTAB
  0
TABLE
  2
LAYER
 70
    6
  0
LAYER
  2
_0-0_
 70
   64
 62
    7
  6
CONTINUOUS
  0
LAYER
  2
_0-1_
 70
   64
 62
    7
  6
CONTINUOUS
  0
LAYER
  2
_0-2_
 70
   64
 62
    7
  6
CONTINUOUS
  0
LAYER
  2
_0-f_
 70
   64
 62
    7
  6
CONTINUOUS
  0
LAYER
  2
_1-3_ADD_LINE
 70
   64
 62
    7
  6
CONTINUOUS
  0
LAYER
  2
ADD_LINE
 70
   64
 62
    7
  6
CONTINUOUS
  0
ENDTAB
  0
ENDSEC
  0
SECTION
  2
BLOCKS
  0
ENDSEC
  0
SECTION
  2
ENTITIES
  0
LINE
  8
_0-f_
  6
CONTINUOUS
 62
    7
 10
383.38661436286725
 20
68.499651517554526
 11
383.38661436286725
 21
42.499684647556364
  0
LINE
  8
_0-f_
  6
CONTINUOUS
 62
    7
 10
418.88661436286725
 20
42.499651517554412
 11
418.88661436286725
 21
319.49965151755447
  0
LINE
  8
_0-f_
  6
CONTINUOUS
 62
    7
 10
347.88661436286725
 20
319.49965151755447
 11
347.88661436286725
 21
42.499651517554412
  0
LINE
  8
_0-f_
  6
CONTINUOUS
 62
    7
 10
347.88661436286725
 20
304.49965151755435
 11
418.88661436286725
 21
304.49965151755435
  0
LINE
  8
_0-f_
  6
CONTINUOUS
 62
    7
 10
347.88661436286725
 20
289.49965151755435
 11
418.88661436286725
 21
289.49965151755435
  0
LINE
  8
_0-f_
  6
CONTINUOUS
 62
    7
 10
347.88661436286725
 20
274.49965151755441
 11
418.88661436286725
 21
274.49965151755441
  0
LINE
  8
_0-f_
  6
CONTINUOUS
 62
    7
 10
347.88661436286725
 20
55.499651517554526
 11
418.88661436286725
 21
55.499651517554526
  0
LINE
  8
_0-f_
  6
CONTINUOUS
 62
    7
 10
347.88661436286725
 20
68.499651517554526
 11
418.88661436286725
 21
68.499651517554526
  0
LINE
  8
_0-f_
  6
CONTINUOUS
 62
    7
 10
347.88661436286725
 20
88.499651517554526
 11
418.88661436286725
 21
88.499651517554526
  0
TEXT
  8
_0-f_
 62
    7
 10
348.88661436286725
 20
301.49965151755435
 40
2
 41
1
 50
0
  1
品　名　：
  0
TEXT
  8
_0-f_
 62
    7
 10
348.88661436286725
 20
286.49965151755435
 40
2
 41
1
 50
0
  1
形　式　：
  0
TEXT
  8
_0-f_
 62
    7
 10
348.88661436286725
 20
271.49965151755441
 40
2
 41
1
 50
0
  1
仕　様　：
  0
TEXT
  8
_0-f_
 62
    7
 10
348.88661436286725
 20
85.499651517554526
 40
2
 41
1
 50
0
  1
図面名称　：
  0
TEXT
  8
_0-f_
 62
    7
 10
348.88661436286725
 20
65.499651517554526
 40
2
 41
1
 50
0
  1
尺　度　：
  0
TEXT
  8
_0-f_
 62
    7
 10
348.88661436286725
 20
52.499651517554469
 40
2
 41
1
 50
0
  1
サイズ　：
  0
TEXT
  8
_0-f_
 62
    7
 10
384.38661436286725
 20
65.499651517554526
 40
2
 41
1
 50
0
  1
作成日
  0
TEXT
  8
_0-f_
 62
    7
 10
384.38661436286725
 20
52.499651517554469
 40
2
 41
1
 50
0
  1
File Name ：
  0
TEXT
  8
_0-f_
 62
    7
 10
364.38661436286725
 20
47.749651517554469
 40
2.5
 41
1
 50
0
  1
A3
  0
TEXT
  8
_0-f_
 62
    7
 10
363.76161436286725
 20
60.749651517554526
 40
2.5
 41
1
 50
0
  1
1/5
  0
LINE
  8
_0-f_
  6
CONTINUOUS
 62
    7
 10
18.886614362867249
 20
42.499651517554412
 11
418.88661436286725
 21
42.499651517554412
  0
LINE
  8
_0-f_
  6
CONTINUOUS
 62
    7
 10
418.88661436286725
 20
319.49965151755447
 11
18.886614362867249
 21
319.49965151755447
  0
LINE
  8
_0-f_
  6
CONTINUOUS
 62
    7
 10
18.886614362867249
 20
319.49965151755447
 11
18.886614362867249
 21
42.499651517554412
  0
TEXT
  8
_0-f_
 62
    7
 10
348.88661436286725
 20
267.49965151755441
 40
3
 41
1
 50
0
  1
①本体　ｽﾁｰﾙ　t1.2　ﾎﾟﾘｯｼｭﾎﾜｲﾄ　焼付塗装
  0
TEXT
  8
_0-f_
 62
    7
 10
360.50890141669333
 20
293.89234691075927
 40
5
 41
1
 50
0
  1
NDX-220　ﾍﾞﾙ付
  0
TEXT
  8
_0-f_
 62
    7
 10
348.78718883863053
 20
259.69747898090679
 40
3
 41
1
 50
0
  1
③ｱｸﾘﾙﾌﾟﾚｰﾄ　t5.0　ｸﾘｱ
  0
TEXT
  8
_0-f_
 62
    7
 10
348.90840560788047
 20
255.69608017589132
 40
3
 41
1
 50
0
  1
④新角ﾍﾞﾙ　ｾﾞﾝﾏｲ式
  0
LINE
  8
_0-0_
  6
CONTINUOUS
 62
    7
 10
317.49347221773888
 20
183.51382311825915
 11
286.49351036471148
 21
183.51382311825915
  0
LINE
  8
_0-0_
  6
CONTINUOUS
 62
    7
 10
284.73352348727008
 20
186.27392443661853
 11
286.49351036471148
 21
186.27392443661853
  0
LINE
  8
_0-0_
  6
CONTINUOUS
 62
    7
 10
286.49351036471148
 20
115.03393420224353
 11
317.49347221773888
 21
115.03393420224353
  0
LINE
  8
_0-0_
  6
CONTINUOUS
 62
    7
 10
286.49351036471148
 20
112.27394732480212
 11
284.73352348727008
 21
112.27394732480212
  0
LINE
  8
_0-0_
  6
CONTINUOUS
 62
    7
 10
286.49351036471148
 20
112.273916807224
 11
286.49351036471148
 21
186.27392443661853
  0
LINE
  8
_0-0_
  6
CONTINUOUS
 62
    7
 10
317.49347221773888
 20
115.03393420224353
 11
317.49347221773888
 21
183.51382311825915
  0
LINE
  8
_0-0_
  6
CONTINUOUS
 62
    7
 10
284.49351036471148
 20
186.0339036846654
 11
284.49351036471148
 21
112.51393755917712
  0
ARC
  8
_0-0_
  6
CONTINUOUS
 62
    7
 10
284.73352348727008
 20
186.0339036846654
 40
0.240000009536743
 50
90
 51
180
  0
ARC
  8
_0-0_
  6
CONTINUOUS
 62
    7
 10
284.73352348727008
 20
112.51393755917712
 40
0.240000009536743
 50
180
 51
270
  0
LINE
  8
_0-0_
  6
CENTER1
 62
    7
 10
316.5601097177389
 20
173.27382311825914
 11
318.42683471773887
 21
173.27382311825914
  0
LINE
  8
_0-0_
  6
CENTER1
 62
    7
 10
316.5601097177389
 20
125.27382311825914
 11
318.42683471773887
 21
125.27382311825914
  0
LINE
  8
_0-1_
  6
CONTINUOUS
 62
    7
 10
284.49351036471154
 20
196.27390917782935
 11
286.49351036471154
 21
196.27390917782935
  0
LINE
  8
_0-1_
  6
CONTINUOUS
 62
    7
 10
284.49351036471154
 20
196.27390917782935
 11
284.49351036471154
 21
189.27390917782935
  0
LINE
  8
_0-1_
  6
CONTINUOUS
 62
    7
 10
286.49351036471154
 20
196.27390917782935
 11
286.49351036471154
 21
189.27390917782935
  0
LINE
  8
_0-1_
  6
CONTINUOUS
 62
    7
 10
286.49351036471154
 20
196.27390917782935
 11
317.49347221773888
 21
196.27390917782935
  0
LINE
  8
_0-1_
  6
CONTINUOUS
 62
    7
 10
317.49347221773888
 20
196.27390917782935
 11
317.49347221773888
 21
189.27390917782935
  0
LINE
  8
_0-1_
  6
CONTINUOUS
 62
    7
 10
284.49351036471154
 20
203.49989184384498
 11
317.49347221773888
 21
203.49989184384498
  0
LINE
  8
_0-1_
  6
CONTINUOUS
 62
    7
 10
284.49351036471154
 20
203.49989184384498
 11
284.49351036471154
 21
189.27390917782935
  0
LINE
  8
_0-1_
  6
CONTINUOUS
 62
    7
 10
317.49347221773888
 20
203.49989184384498
 11
317.49347221773888
 21
189.27390917782935
  0
POINT
  8
_0-1_
 62
    7
 10
284.49351036471154
 20
196.27390917782935
  0
POINT
  8
_0-1_
 62
    7
 10
286.49351036471154
 20
196.27390917782935
  0
POINT
  8
_0-1_
 62
    7
 10
317.49347221773888
 20
196.27390917782935
  0
POINT
  8
_0-1_
 62
    7
 10
284.49351036471154
 20
203.49989184384498
  0
POINT
  8
_0-1_
 62
    7
 10
317.49347221773888
 20
203.49989184384498
  0
TEXT
  8
_0-1_
 62
    7
 10
297.49575971498217
 20
203.72374337379154
 40
5
 41
1
 50
0
  1
165
  0
TEXT
  8
_0-1_
 62
    7
 10
297.20802128983092
 20
196.38641353243457
 40
5
 41
1
 50
0
  1
155
  0
TEXT
  8
_0-1_
 62
    7
 10
278.79276208015068
 20
196.38641353243457
 40
5
 41
1
 50
0
  1
10
  0
POINT
  8
_0-1_
 62
    7
 10
330.8193408862308
 20
115.03393420224359
  0
LINE
  8
_0-1_
  6
CONTINUOUS
 62
    7
 10
330.8193408862308
 20
115.03393420224359
 11
324.35273134080069
 21
115.03393420224359
  0
POINT
  8
_0-1_
 62
    7
 10
330.8193408862308
 20
183.51382311825915
  0
LINE
  8
_0-1_
  6
CONTINUOUS
 62
    7
 10
330.8193408862308
 20
183.51382311825915
 11
324.35273134080069
 21
183.51382311825915
  0
POINT
  8
_0-1_
 62
    7
 10
330.8193408862308
 20
173.27382311825914
  0
LINE
  8
_0-1_
  6
CONTINUOUS
 62
    7
 10
330.8193408862308
 20
173.27382311825914
 11
324.35273134080069
 21
173.27382311825914
  0
LINE
  8
_0-1_
  6
CONTINUOUS
 62
    7
 10
330.8193408862308
 20
173.27382311825914
 11
330.8193408862308
 21
183.51382311825915
  0
POINT
  8
_0-1_
 62
    7
 10
330.8193408862308
 20
125.2738231182592
  0
LINE
  8
_0-1_
  6
CONTINUOUS
 62
    7
 10
330.8193408862308
 20
125.2738231182592
 11
324.35273134080069
 21
125.2738231182592
  0
LINE
  8
_0-1_
  6
CONTINUOUS
 62
    7
 10
330.8193408862308
 20
115.03393420224359
 11
330.8193408862308
 21
125.2738231182592
  0
LINE
  8
_0-1_
  6
CONTINUOUS
 62
    7
 10
330.8193408862308
 20
125.2738231182592
 11
330.8193408862308
 21
173.27382311825914
  0
TEXT
  8
_0-1_
 62
    7
 10
330.37644544366373
 20
173.32488906320162
 40
5
 41
1
 50
90
  1
51.2
  0
TEXT
  8
_0-1_
 62
    7
 10
329.70477064336438
 20
115.36824036009199
 40
5
 41
1
 50
90
  1
51.2
  0
TEXT
  8
_0-1_
 62
    7
 10
330.20611995547659
 20
143.85857960682847
 40
5
 41
1
 50
90
  1
240
  0
POINT
  8
_0-1_
 62
    7
 10
340.12213406854954
 20
186.27392443661853
  0
TEXT
  8
_0-1_
 62
    7
 10
339.61757962621817
 20
186.45943786471645
 40
5
 41
1
 50
90
  1
13.8
  0
LINE
  8
_0-1_
  6
CONTINUOUS
 62
    7
 10
340.12213406854954
 20
186.27392443661853
 11
340.12213406854954
 21
183.51385363583728
  0
POINT
  8
_0-1_
 62
    7
 10
340.12213406854954
 20
183.51385363583728
  0
LINE
  8
_0-1_
  6
CONTINUOUS
 62
    7
 10
340.12213406854954
 20
183.27386340146228
 11
340.12213406854954
 21
112.27394732480218
  0
POINT
  8
_0-1_
 62
    7
 10
340.12213406854954
 20
112.27394732480218
  0
POINT
  8
_0-1_
 62
    7
 10
340.12213406854954
 20
115.03393420224359
  0
LINE
  8
_0-1_
  6
CONTINUOUS
 62
    7
 10
324.35273134080069
 20
112.27394732480218
 11
340.12213406854954
 21
112.27394732480218
  0
LINE
  8
_0-1_
  6
CONTINUOUS
 62
    7
 10
324.35273134080069
 20
115.03393420224359
 11
340.12213406854954
 21
115.03393420224359
  0
LINE
  8
_0-1_
  6
CONTINUOUS
 62
    7
 10
324.35273134080069
 20
183.51382311825915
 11
340.12213406854954
 21
183.51382311825915
  0
LINE
  8
_0-1_
  6
CONTINUOUS
 62
    7
 10
324.35273134080069
 20
186.27392443661853
 11
340.12213406854954
 21
186.27392443661853
  0
TEXT
  8
_0-1_
 62
    7
 10
339.86323843525292
 20
144.1207231644816
 40
5
 41
1
 50
90
  1
342.4
  0
TEXT
  8
_0-1_
 62
    7
 10
341.53903057347492
 20
101.31349922982719
 40
5
 41
1
 50
90
  1
13.8
  0
LINE
  8
_0-1_
  6
CONTINUOUS
 62
    7
 10
312.02688191408026
 20
175.75958358412328
 11
291.83702121126976
 21
175.75958358412328
  0
TEXT
  8
_0-1_
 62
    7
 10
291.23964575489265
 20
175.98150141755372
 40
3
 41
1
 50
0
  1
５ｘ８取付穴
  0
LINE
  8
_0-1_
  6
CONTINUOUS
 62
    7
 10
317.49347221773888
 20
173.12305858022495
 11
312.02688191408026
 21
175.75958358412328
  0
TEXT
  8
_0-1_
 62
    7
 10
291.23964575489265
 20
128.13226595558797
 40
3
 41
1
 50
0
  1
５ｘ８取付穴
  0
LINE
  8
_0-1_
  6
CONTINUOUS
 62
    7
 10
312.02688191408026
 20
127.91034812215753
 11
291.83702121126976
 21
127.91034812215753
  0
LINE
  8
_0-1_
  6
CONTINUOUS
 62
    7
 10
317.49347221773888
 20
125.2738231182592
 11
312.02688191408026
 21
127.91034812215753
  0
LINE
  8
_0-1_
  6
CONTINUOUS
 62
    7
 10
281.49354851168414
 20
186.27392443661853
 11
274.49357139986773
 21
186.27392443661853
  0
LINE
  8
_0-1_
  6
CONTINUOUS
 62
    7
 10
281.49354851168414
 20
112.27394732480218
 11
274.49357139986773
 21
112.27394732480218
  0
LINE
  8
_0-1_
  6
CONTINUOUS
 62
    7
 10
274.49357139986773
 20
186.27392443661853
 11
274.49357139986773
 21
112.27391680722405
  0
POINT
  8
_0-1_
 62
    7
 10
274.49357139986773
 20
186.27392443661853
  0
POINT
  8
_0-1_
 62
    7
 10
274.49357139986773
 20
112.27391680722405
  0
TEXT
  8
_0-1_
 62
    7
 10
274.18894727773056
 20
144.01802015490654
 40
5
 41
1
 50
90
  1
370
  0
CIRCLE
  8
_0-2_
  6
CONTINUOUS
 62
    7
 10
135.65384055814945
 20
188.59803153075131
 40
3.4095973463431131
  0
TEXT
  8
_0-2_
 62
    7
 10
133.67426368766633
 20
186.8401407997755
 40
4
 41
1
 50
0
  1
２
  0
LINE
  8
_0-2_
  6
CONTINUOUS
 62
    7
 10
132.70981960233115
 20
186.87812029004942
 11
116.52646354177176
 21
170.69476422949003
  0
LINE
  8
_0-0_
  6
CENTER2
 62
    7
 10
85.882959733979817
 20
195.20899828915759
 11
85.882959733979817
 21
102.27974947934314
  0
LINE
  8
_0-0_
  6
CONTINUOUS
 62
    7
 10
48.882990251557885
 20
186.27392443661853
 11
122.88302839853054
 21
186.27392443661853
  0
LINE
  8
_0-0_
  6
CONTINUOUS
 62
    7
 10
122.88302839853054
 20
186.27392443661853
 11
122.88302839853054
 21
112.273916807224
  0
LINE
  8
_0-0_
  6
CONTINUOUS
 62
    7
 10
48.882990251557885
 20
186.27392443661853
 11
48.882990251557885
 21
112.273916807224
  0
LINE
  8
_0-0_
  6
CONTINUOUS
 62
    7
 10
48.882990251557885
 20
112.273916807224
 11
122.88302839853054
 21
112.273916807224
  0
LINE
  8
_0-0_
  6
CONTINUOUS
 62
    7
 10
51.882944475190698
 20
183.27390917782947
 11
119.88297499276882
 21
183.27390917782947
  0
LINE
  8
_0-0_
  6
CONTINUOUS
 62
    7
 10
119.88297499276882
 20
183.27390917782947
 11
119.88297499276882
 21
115.27390154843494
  0
LINE
  8
_0-0_
  6
CONTINUOUS
 62
    7
 10
51.882944475190698
 20
183.27390917782947
 11
51.882944475190698
 21
115.27390154843494
  0
LINE
  8
_0-0_
  6
CONTINUOUS
 62
    7
 10
51.882944475190698
 20
115.27390154843494
 11
119.88297499276882
 21
115.27390154843494
  0
LINE
  8
_0-0_
  6
CONTINUOUS
 62
    7
 10
52.48293531991726
 20
115.6739183331029
 11
119.28297651864773
 21
115.6739183331029
  0
LINE
  8
_0-0_
  6
CONTINUOUS
 62
    7
 10
52.48293531991726
 20
182.87393054013415
 11
52.48293531991726
 21
115.6739183331029
  0
LINE
  8
_0-0_
  6
CONTINUOUS
 62
    7
 10
52.48293531991726
 20
182.87393054013415
 11
119.28297651864773
 21
182.87393054013415
  0
LINE
  8
_0-0_
  6
CONTINUOUS
 62
    7
 10
119.28297651864773
 20
182.87393054013415
 11
119.28297651864773
 21
115.6739183331029
  0
LINE
  8
_0-0_
  6
CENTER2
 62
    7
 10
117.28297651864773
 20
184.80645617489978
 11
117.28297651864773
 21
179.47390612607165
  0
LINE
  8
_0-0_
  6
LONG3
 62
    7
 10
117.88296736337429
 20
183.47392138486072
 11
117.83297957040554
 21
183.27390917782947
  0
LINE
  8
_0-0_
  6
LONG3
 62
    7
 10
116.68297804452664
 20
183.47392138486072
 11
117.88296736337429
 21
183.47392138486072
  0
LINE
  8
_0-0_
  6
LONG3
 62
    7
 10
116.68297804452664
 20
183.47392138486072
 11
116.73296583749539
 21
183.27390917782947
  0
LINE
  8
_0-0_
  6
LONG3
 62
    7
 10
116.96298445321804
 20
179.47390612607165
 11
117.60296095468289
 21
179.47390612607165
  0
LINE
  8
_0-0_
  6
LONG3
 62
    7
 10
117.60296095468289
 20
179.47390612607165
 11
117.68303145028835
 21
179.55390795712634
  0
LINE
  8
_0-0_
  6
LONG3
 62
    7
 10
116.88301313974148
 20
179.55390795712634
 11
116.96298445321804
 21
179.47390612607165
  0
LINE
  8
_0-0_
  6
CONTINUOUS
 62
    7
 10
116.88301313974148
 20
182.87393054013415
 11
116.88301313974148
 21
183.27390917782947
  0
LINE
  8
_0-0_
  6
CONTINUOUS
 62
    7
 10
117.68303145028835
 20
182.87393054013415
 11
117.68303145028835
 21
183.27390917782947
  0
LINE
  8
_0-0_
  6
LONG3
 62
    7
 10
117.68303145028835
 20
182.87393054013415
 11
117.68303145028835
 21
179.55390795712634
  0
LINE
  8
_0-0_
  6
LONG3
 62
    7
 10
116.88301313974148
 20
182.87393054013415
 11
116.88301313974148
 21
179.55390795712634
  0
LINE
  8
_0-0_
  6
CENTER2
 62
    7
 10
117.28297651864773
 20
113.74136218075915
 11
117.28297651864773
 21
117.87390002255603
  0
LINE
  8
_0-0_
  6
LONG3
 62
    7
 10
117.68303145028835
 20
114.07391985898181
 11
117.68303145028835
 21
115.27390154843494
  0
LINE
  8
_0-0_
  6
LONG3
 62
    7
 10
116.88301313974148
 20
114.07391985898181
 11
116.88301313974148
 21
115.27390154843494
  0
LINE
  8
_0-0_
  6
LONG3
 62
    7
 10
116.88301313974148
 20
114.07391985898181
 11
117.68303145028835
 21
114.07391985898181
  0
LINE
  8
_0-0_
  6
CONTINUOUS
 62
    7
 10
117.88296736337429
 20
115.27390154843494
 11
117.88296736337429
 21
115.67388781552478
  0
LINE
  8
_0-0_
  6
CONTINUOUS
 62
    7
 10
116.68297804452664
 20
115.27390154843494
 11
116.68297804452664
 21
115.67388781552478
  0
LINE
  8
_0-0_
  6
LONG3
 62
    7
 10
116.88301313974148
 20
115.67388781552478
 11
116.88301313974148
 21
117.773916807224
  0
LINE
  8
_0-0_
  6
LONG3
 62
    7
 10
117.68303145028835
 20
115.67388781552478
 11
117.68303145028835
 21
117.773916807224
  0
ARC
  8
_0-0_
  6
LONG3
 62
    7
 10
117.28297651864773
 20
117.02392443661853
 40
0.8500000834465023
 50
61.927505493164055
 51
118.07247924804687
  0
LINE
  8
_0-0_
  6
CONTINUOUS
 62
    7
 10
51.64309156991726
 20
269.74786527380991
 11
51.64309156991726
 21
238.74790342078256
  0
LINE
  8
_0-0_
  6
CONTINUOUS
 62
    7
 10
48.882990251557885
 20
236.98791654334116
 11
48.882990251557885
 21
238.74790342078256
  0
LINE
  8
_0-0_
  6
CONTINUOUS
 62
    7
 10
120.12298048593289
 20
238.74790342078256
 11
120.12298048593289
 21
269.74786527380991
  0
LINE
  8
_0-0_
  6
CONTINUOUS
 62
    7
 10
122.88296736337429
 20
238.74790342078256
 11
122.88296736337429
 21
236.98791654334116
  0
LINE
  8
_0-0_
  6
CONTINUOUS
 62
    7
 10
122.88299788095242
 20
238.74790342078256
 11
48.882990251557885
 21
238.74790342078256
  0
LINE
  8
_0-0_
  6
CONTINUOUS
 62
    7
 10
120.12298048593289
 20
269.74786527380991
 11
51.64309156991726
 21
269.74786527380991
  0
LINE
  8
_0-0_
  6
CONTINUOUS
 62
    7
 10
49.12301100351101
 20
236.74790342078256
 11
122.64297712899929
 21
236.74790342078256
  0
ARC
  8
_0-0_
  6
CONTINUOUS
 62
    7
 10
49.12301100351101
 20
236.98791654334116
 40
0.240000009536743
 50
180
 51
270
  0
ARC
  8
_0-0_
  6
CONTINUOUS
 62
    7
 10
122.64297712899929
 20
236.98791654334116
 40
0.240000009536743
 50
270
 51
0
  0
LINE
  8
_0-0_
  6
CONTINUOUS
 62
    7
 10
67.883005510346948
 20
167.27392443661853
 11
67.883005510346948
 21
131.27390917782947
  0
LINE
  8
_0-0_
  6
CONTINUOUS
 62
    7
 10
67.883005510346948
 20
167.27392443661853
 11
103.88302076913601
 21
167.27392443661853
  0
LINE
  8
_0-0_
  6
CONTINUOUS
 62
    7
 10
103.88302076913601
 20
167.27392443661853
 11
103.88302076913601
 21
131.27390917782947
  0
LINE
  8
_0-0_
  6
CONTINUOUS
 62
    7
 10
55.582956682221948
 20
159.77390154843494
 11
62.38289869882351
 21
159.77390154843494
  0
LINE
  8
_0-0_
  6
CONTINUOUS
 62
    7
 10
57.082941423432885
 20
158.17391070370837
 11
60.882929216401635
 21
158.17391070370837
  0
LINE
  8
_0-0_
  6
CONTINUOUS
 62
    7
 10
61.082956682221948
 20
157.97390612607165
 11
61.082956682221948
 21
140.57391222958728
  0
LINE
  8
_0-0_
  6
CONTINUOUS
 62
    7
 10
62.98299635507351
 20
139.37390002255603
 11
62.98299635507351
 21
159.17391070370837
  0
LINE
  8
_0-0_
  6
CONTINUOUS
 62
    7
 10
62.38289869882351
 20
138.77390917782947
 11
55.582956682221948
 21
138.77390917782947
  0
LINE
  8
_0-0_
  6
CONTINUOUS
 62
    7
 10
57.08126295663601
 20
140.37390002255603
 11
60.882929216401635
 21
140.37390002255603
  0
LINE
  8
_0-0_
  6
CONTINUOUS
 62
    7
 10
56.882913957612573
 20
140.57391222958728
 11
56.882913957612573
 21
157.97610339169665
  0
LINE
  8
_0-0_
  6
CONTINUOUS
 62
    7
 10
54.982965837495385
 20
139.37390002255603
 11
54.982965837495385
 21
159.18000658993884
  0
ARC
  8
_0-0_
  6
CONTINUOUS
 62
    7
 10
57.082941423432885
 20
140.57391222958728
 40
0.1999999880790709
 50
180
 51
270
  0
ARC
  8
_0-0_
  6
CONTINUOUS
 62
    7
 10
62.38289869882351
 20
139.37390002255603
 40
0.5999999046325681
 50
270
 51
0
  0
ARC
  8
_0-0_
  6
CONTINUOUS
 62
    7
 10
55.582956682221948
 20
139.37390002255603
 40
0.5999999046325681
 50
180
 51
270
  0
ARC
  8
_0-0_
  6
CONTINUOUS
 62
    7
 10
60.882929216401635
 20
140.57391222958728
 40
0.1999999880790709
 50
270
 51
0
  0
ARC
  8
_0-0_
  6
CONTINUOUS
 62
    7
 10
57.082941423432885
 20
157.97390612607165
 40
0.1999999880790709
 50
90
 51
180
  0
ARC
  8
_0-0_
  6
CONTINUOUS
 62
    7
 10
62.38289869882351
 20
159.17391070370837
 40
0.5999999046325681
 50
0
 51
90
  0
ARC
  8
_0-0_
  6
CONTINUOUS
 62
    7
 10
55.582956682221948
 20
159.17391070370837
 40
0.5999999046325681
 50
90
 51
179.41761779785156
  0
ARC
  8
_0-0_
  6
CONTINUOUS
 62
    7
 10
60.882929216401635
 20
157.97390612607165
 40
0.1999999880790709
 50
0
 51
90
  0
LINE
  8
_0-0_
  6
CONTINUOUS
 62
    7
 10
67.883005510346948
 20
131.27390917782947
 11
103.88302076913601
 21
131.27390917782947
  0
LINE
  8
_0-0_
  6
CENTER1
 62
    7
 10
85.882978733979769
 20
268.8760976313834
 11
85.882978733979769
 21
271.07525446721297
  0
LINE
  8
ADD_LINE
  6
DOT
 62
    9
 10
85.882959733979817
 20
184.51533912407632
 11
85.882959733979817
 21
311.8036623147724
  0
LINE
  8
ADD_LINE
  6
DOT
 62
    9
 10
39.261331926362573
 20
149.273916807224
 11
129.7117790088821
 21
149.273916807224
  0
LINE
  8
ADD_LINE
  6
DOT
 62
    9
 10
132.93354261972195
 20
149.273916807224
 11
277.13107527353054
 21
149.273916807224
  0
LINE
  8
_0-1_
  6
CONTINUOUS
 62
    7
 10
51.883051286714135
 20
283.09625768974206
 11
122.88296736337429
 21
283.09625768974206
  0
LINE
  8
_0-1_
  6
CONTINUOUS
 62
    7
 10
51.64309156991726
 20
276.04639245168437
 11
85.882978733979769
 21
276.04639245168437
  0
POINT
  8
_0-1_
 62
    7
 10
51.64309156991726
 20
276.04639245168437
  0
POINT
  8
_0-1_
 62
    7
 10
85.882978733979769
 20
276.04639245168437
  0
LINE
  8
_0-1_
  6
CONTINUOUS
 62
    7
 10
51.64309156991726
 20
276.04639245168437
 11
51.64309156991726
 21
272.74792630896616
  0
LINE
  8
_0-1_
  6
CONTINUOUS
 62
    7
 10
85.882978733979769
 20
276.04639245168437
 11
85.882978733979769
 21
272.74792630896616
  0
LINE
  8
_0-1_
  6
CONTINUOUS
 62
    7
 10
85.882978733979769
 20
276.04639245168437
 11
120.12298048593289
 21
276.04639245168437
  0
POINT
  8
_0-1_
 62
    7
 10
120.12298048593289
 20
276.04639245168437
  0
LINE
  8
_0-1_
  6
CONTINUOUS
 62
    7
 10
120.12298048593289
 20
276.04639245168437
 11
120.12298048593289
 21
272.74792630896616
  0
TEXT
  8
_0-1_
 62
    7
 10
61.966197777119646
 20
276.32794792143193
 40
5
 41
1
 50
0
  1
171.2
  0
TEXT
  8
_0-1_
 62
    7
 10
95.216447437461738
 20
276.42779852101262
 40
5
 41
1
 50
0
  1
171.2
  0
LINE
  8
_0-1_
  6
CONTINUOUS
 62
    7
 10
48.882990251557885
 20
283.09625768974206
 11
51.643061052339135
 21
283.09625768974206
  0
LINE
  8
_0-1_
  6
CONTINUOUS
 62
    7
 10
120.12298048593289
 20
283.09625768974206
 11
122.88296736337429
 21
283.09625768974206
  0
POINT
  8
_0-1_
 62
    7
 10
51.643061052339135
 20
283.09625768974206
  0
POINT
  8
_0-1_
 62
    7
 10
48.882990251557885
 20
283.09625768974206
  0
POINT
  8
_0-1_
 62
    7
 10
120.12298048593289
 20
283.09625768974206
  0
POINT
  8
_0-1_
 62
    7
 10
120.12298048593289
 20
283.09625768974206
  0
POINT
  8
_0-1_
 62
    7
 10
122.88296736337429
 20
283.09625768974206
  0
TEXT
  8
_0-1_
 62
    7
 10
41.346504785919592
 20
284.00822828591265
 40
5
 41
1
 50
0
  1
13.8
  0
TEXT
  8
_0-1_
 62
    7
 10
81.47772698117177
 20
283.04121088361745
 40
5
 41
1
 50
0
  1
342.4
  0
TEXT
  8
_0-1_
 62
    7
 10
119.67491437183344
 20
283.52471958476508
 40
5
 41
1
 50
0
  1
13.8
  0
LINE
  8
_0-1_
  6
CONTINUOUS
 62
    7
 10
51.64309156991726
 20
272.74792630896616
 11
51.64309156991726
 21
283.09625768974206
  0
LINE
  8
_0-1_
  6
CONTINUOUS
 62
    7
 10
48.882990251557885
 20
272.74792630896616
 11
48.882990251557885
 21
283.09625768974206
  0
LINE
  8
_0-1_
  6
CONTINUOUS
 62
    7
 10
120.12298048593289
 20
272.74792630896616
 11
120.12298048593289
 21
283.09625768974206
  0
LINE
  8
_0-1_
  6
CONTINUOUS
 62
    7
 10
122.88296736337429
 20
272.74792630896616
 11
122.88296736337429
 21
283.09625768974206
  0
LINE
  8
_0-1_
  6
CONTINUOUS
 62
    7
 10
29.580606828706379
 20
186.27392443661842
 11
29.580606828706379
 21
112.27391680722394
  0
LINE
  8
_0-1_
  6
CONTINUOUS
 62
    7
 10
29.580606828706379
 20
112.27391680722394
 11
44.874155412690698
 21
112.27391680722394
  0
LINE
  8
_0-1_
  6
CONTINUOUS
 62
    7
 10
29.580606828706379
 20
186.27392443661842
 11
44.874155412690698
 21
186.27392443661842
  0
POINT
  8
_0-1_
 62
    7
 10
29.580606828706379
 20
112.27391680722394
  0
POINT
  8
_0-1_
 62
    7
 10
29.580606828706379
 20
186.27392443661842
  0
TEXT
  8
_0-1_
 62
    7
 10
28.787727414744666
 20
146.36816287131842
 40
5
 41
1
 50
90
  1
370
  0
LINE
  8
_0-1_
  6
CONTINUOUS
 62
    7
 10
36.806589494722004
 20
236.74790342078256
 11
36.806589494722004
 21
238.74790342078256
  0
LINE
  8
_0-1_
  6
CONTINUOUS
 62
    7
 10
36.806589494722004
 20
236.74790342078256
 11
43.806589494722004
 21
236.74790342078256
  0
LINE
  8
_0-1_
  6
CONTINUOUS
 62
    7
 10
36.806589494722004
 20
238.74790342078256
 11
43.806589494722004
 21
238.74790342078256
  0
LINE
  8
_0-1_
  6
CONTINUOUS
 62
    7
 10
36.806589494722004
 20
238.74790342078256
 11
36.806589494722004
 21
269.74786527380991
  0
LINE
  8
_0-1_
  6
CONTINUOUS
 62
    7
 10
36.806589494722004
 20
269.74786527380991
 11
43.806589494722004
 21
269.74786527380991
  0
LINE
  8
_0-1_
  6
CONTINUOUS
 62
    7
 10
29.580606828706379
 20
236.74790342078256
 11
29.580606828706379
 21
269.74786527380991
  0
LINE
  8
_0-1_
  6
CONTINUOUS
 62
    7
 10
29.580606828706379
 20
236.74790342078256
 11
43.806589494722004
 21
236.74790342078256
  0
LINE
  8
_0-1_
  6
CONTINUOUS
 62
    7
 10
29.580606828706379
 20
269.74786527380991
 11
43.806589494722004
 21
269.74786527380991
  0
POINT
  8
_0-1_
 62
    7
 10
36.806589494722004
 20
236.74790342078256
  0
POINT
  8
_0-1_
 62
    7
 10
36.806589494722004
 20
238.74790342078256
  0
POINT
  8
_0-1_
 62
    7
 10
36.806589494722004
 20
269.74786527380991
  0
POINT
  8
_0-1_
 62
    7
 10
29.580606828706379
 20
236.74790342078256
  0
POINT
  8
_0-1_
 62
    7
 10
29.580606828706379
 20
269.74786527380991
  0
TEXT
  8
_0-1_
 62
    7
 10
29.356755298759822
 20
249.75015277105308
 40
5
 41
1
 50
90
  1
165
  0
TEXT
  8
_0-1_
 62
    7
 10
36.694085140116783
 20
249.46241434590183
 40
5
 41
1
 50
90
  1
155
  0
TEXT
  8
_0-1_
 62
    7
 10
36.694085140116783
 20
231.04715513622159
 40
5
 41
1
 50
90
  1
10
  0
LINE
  8
_0-1_
  6
CONTINUOUS
 62
    7
 10
122.88302839853054
 20
201.73420580868873
 11
122.88302839853054
 21
189.11727770810279
  0
LINE
  8
_0-1_
  6
CONTINUOUS
 62
    7
 10
48.882990251557885
 20
201.73420580868873
 11
48.882990251557885
 21
189.11727770810279
  0
LINE
  8
_0-1_
  6
CONTINUOUS
 62
    7
 10
48.882990251557885
 20
201.73420580868873
 11
122.88302839853054
 21
201.73420580868873
  0
POINT
  8
_0-1_
 62
    7
 10
122.88302839853054
 20
201.73420580868873
  0
POINT
  8
_0-1_
 62
    7
 10
48.882990251557885
 20
201.73420580868873
  0
TEXT
  8
_0-1_
 62
    7
 10
83.14293776111009
 20
201.66324240156962
 40
5
 41
1
 50
0
  1
370
  0
LINE
  8
_0-1_
  6
CONTINUOUS
 62
    7
 10
48.882990251557885
 20
233.74794156775522
 11
48.882990251557885
 21
226.74796445593881
  0
LINE
  8
_0-1_
  6
CONTINUOUS
 62
    7
 10
122.88296736337429
 20
233.74794156775522
 11
122.88296736337429
 21
226.74796445593881
  0
LINE
  8
_0-1_
  6
CONTINUOUS
 62
    7
 10
48.882990251557885
 20
226.74796445593881
 11
122.88299788095242
 21
226.74796445593881
  0
POINT
  8
_0-1_
 62
    7
 10
48.882990251557885
 20
226.74796445593881
  0
POINT
  8
_0-1_
 62
    7
 10
122.88299788095242
 20
226.74796445593881
  0
TEXT
  8
_0-1_
 62
    7
 10
82.928253084614596
 20
227.23215491074689
 40
5
 41
1
 50
0
  1
370
  0
LINE
  8
_0-1_
  6
CONTINUOUS
 62
    7
 10
109.57502211190945
 20
167.27392443661853
 11
109.57502211190945
 21
131.27390917782952
  0
LINE
  8
_0-1_
  6
CONTINUOUS
 62
    7
 10
109.57502211190945
 20
167.27392443661853
 11
105.77870405771023
 21
167.27392443661853
  0
LINE
  8
_0-1_
  6
CONTINUOUS
 62
    7
 10
109.57502211190945
 20
131.27390917782952
 11
105.77870405771023
 21
131.27390917782952
  0
POINT
  8
_0-1_
 62
    7
 10
109.57502211190945
 20
167.27392443661853
  0
POINT
  8
_0-1_
 62
    7
 10
109.57502211190945
 20
131.27390917782952
  0
TEXT
  8
_0-1_
 62
    7
 10
115.10963911386762
 20
146.00693201060795
 40
5
 41
1
 50
90
  1
180
  0
LINE
  8
_0-1_
  6
CONTINUOUS
 62
    7
 10
67.883005510346948
 20
159.95886096005609
 11
103.88302076913601
 21
159.95886096005609
  0
LINE
  8
_0-1_
  6
CONTINUOUS
 62
    7
 10
67.883005510346948
 20
159.95886096005609
 11
67.883005510346948
 21
163.0493913555639
  0
LINE
  8
_0-1_
  6
CONTINUOUS
 62
    7
 10
103.88302076913601
 20
159.95886096005609
 11
103.88302076913601
 21
163.0493913555639
  0
POINT
  8
_0-1_
 62
    7
 10
67.883005510346948
 20
159.95886096005609
  0
POINT
  8
_0-1_
 62
    7
 10
103.88302076913601
 20
159.95886096005609
  0
TEXT
  8
_0-1_
 62
    7
 10
83.999188690201777
 20
160.27778082880332
 40
5
 41
1
 50
0
  1
180
  0
LINE
  8
_0-1_
  6
CONTINUOUS
 62
    7
 10
67.883005510346948
 20
159.95886096005609
 11
67.883005510346948
 21
163.0493913555639
  0
LINE
  8
_0-1_
  6
CONTINUOUS
 62
    7
 10
103.88302076913601
 20
159.95886096005609
 11
103.88302076913601
 21
163.0493913555639
  0
TEXT
  8
_0-2_
 62
    7
 10
81.14192217496975
 20
168.70693823461033
 40
10
 41
1
 50
0
  1
Ｄ
  0
TEXT
  8
_0-2_
 62
    7
 10
66.314556328432388
 20
168.7550790328134
 40
10
 41
1
 50
0
  1
Ａ
  0
TEXT
  8
_0-2_
 62
    7
 10
73.728239251701098
 20
168.80321983101641
 40
10
 41
1
 50
0
  1
Ｅ
  0
LINE
  8
_0-2_
  6
CONTINUOUS
 62
    7
 10
61.223317506890339
 20
169.57766129805526
 11
57.145811803970162
 21
173.80004205808302
  0
LINE
  8
_0-2_
  6
CONTINUOUS
 62
    7
 10
61.32084754210274
 20
169.57766129805526
 11
65.398353245023031
 21
173.80004205808302
  0
ARC
  8
_0-2_
  6
CONTINUOUS
 62
    7
 10
61.272082524496568
 20
169.66495287680971
 40
0.0999892327382626
 50
240.81030254096703
 51
299.18969745903297
  0
ARC
  8
_0-2_
  6
CONTINUOUS
 62
    7
 10
59.208947164233393
 20
175.30860285107724
 40
2.5558331676632902
 50
36.174202920704083
 51
216.17420292070403
  0
LINE
  8
_0-2_
  6
CONTINUOUS
 62
    7
 10
61.274151315340589
 20
174.22572598892418
 11
61.274151315340589
 21
175.68372598892421
  0
LINE
  8
_0-2_
  6
CONTINUOUS
 62
    7
 10
61.274151315340589
 20
174.22572598892418
 11
62.644223156446458
 21
174.72439135789301
  0
LINE
  8
_0-2_
  6
CONTINUOUS
 62
    7
 10
61.979412819550589
 20
175.1082197848599
 11
63.095076553447655
 21
176.4378160478588
  0
LINE
  8
_0-2_
  6
CONTINUOUS
 62
    7
 10
62.644223156446458
 20
174.72439135789301
 11
61.979412819550589
 21
175.1082197848599
  0
LINE
  8
_0-2_
  6
CONTINUOUS
 62
    7
 10
63.095076553447655
 20
176.4378160478588
 11
63.76228743565531
 21
175.97854527950568
  0
LINE
  8
_0-2_
  6
CONTINUOUS
 62
    7
 10
63.76228743565531
 20
175.97854527950568
 11
65.953994244827697
 21
177.98287091737672
  0
LINE
  8
_0-2_
  6
CONTINUOUS
 62
    7
 10
61.833661519907764
 20
175.20590766932395
 11
63.249702837282655
 21
178.03799030407367
  0
LINE
  8
_0-2_
  6
CONTINUOUS
 62
    7
 10
63.249702837282655
 20
178.03799030407367
 11
64.229003150521464
 21
177.27417453913097
  0
LINE
  8
_0-2_
  6
CONTINUOUS
 62
    7
 10
64.229003150521464
 20
177.27417453913097
 11
64.82543359669836
 21
178.75563080866715
  0
LINE
  8
_0-2_
  6
CONTINUOUS
 62
    7
 10
64.82543359669836
 20
178.75563080866715
 11
65.953994244827697
 21
177.98287091737672
  0
LINE
  8
_0-2_
  6
CONTINUOUS
 62
    7
 10
61.83387398543789
 20
175.2063326003842
 11
61.274151315340589
 21
175.68372598892421
  0
ARC
  8
_0-2_
  6
CONTINUOUS
 62
    7
 10
63.3352178847598
 20
175.30860285107724
 40
2.5558331676632893
 50
93.932939704953412
 51
143.82579707929585
  0
ARC
  8
_0-2_
  6
CONTINUOUS
 62
    7
 10
63.3352178847598
 20
175.30860285107724
 40
2.5558331676632893
 50
323.82579707929591
 51
47.069975771820232
  0
ARC
  8
_0-2_
  6
CONTINUOUS
 62
    7
 10
63.3352178847598
 20
175.30860285107724
 40
2.5558331676632893
 50
65.93938761805704
 51
86.813527032339678
  0
CIRCLE
  8
_0-2_
  6
CONTINUOUS
 62
    7
 10
136.19969647516388
 20
271.02380758656022
 40
3.4095973463431131
  0
LINE
  8
_0-2_
  6
CONTINUOUS
 62
    7
 10
133.25567551934557
 20
269.30389634585833
 11
117.07231945878618
 21
253.12054028529894
  0
TEXT
  8
_0-2_
 62
    7
 10
134.22011960468075
 20
269.26591685558441
 40
4
 41
1
 50
0
  1
１
  0
CIRCLE
  8
_0-2_
  6
CONTINUOUS
 62
    7
 10
135.65384055814945
 20
123.99785402150701
 40
3.4095973463431131
  0
LINE
  8
_0-2_
  6
CONTINUOUS
 62
    7
 10
99.995503471248298
 20
143.52706986673792
 11
132.78180493096187
 21
125.83545175233803
  0
TEXT
  8
_0-2_
 62
    7
 10
133.67426368766633
 20
122.23996329053119
 40
4
 41
1
 50
0
  1
３
  0
LINE
  8
_0-0_
  6
CONTINUOUS
 62
    7
 10
245.96532214165734
 20
183.27390917782947
 11
245.96532214165734
 21
115.27390154843494
  0
LINE
  8
_0-0_
  6
CENTER2
 62
    7
 10
211.96530688286828
 20
195.20899828915759
 11
211.96530688286828
 21
102.27974947934314
  0
LINE
  8
_0-0_
  6
CONTINUOUS
 62
    7
 10
177.96539271355675
 20
115.27390154843494
 11
245.96532214165734
 21
115.27390154843494
  0
LINE
  8
_0-0_
  6
CONTINUOUS
 62
    7
 10
174.96533358574914
 20
112.273916807224
 11
248.96537936211632
 21
112.273916807224
  0
LINE
  8
_0-0_
  6
CONTINUOUS
 62
    7
 10
248.96537936211632
 20
186.27392443661853
 11
248.96537936211632
 21
112.273916807224
  0
LINE
  8
_0-0_
  6
CONTINUOUS
 62
    7
 10
177.96539271355675
 20
183.27390917782947
 11
177.96539271355675
 21
115.27390154843494
  0
LINE
  8
_0-0_
  6
CONTINUOUS
 62
    7
 10
177.96539271355675
 20
183.27390917782947
 11
245.96532214165734
 21
183.27390917782947
  0
LINE
  8
_0-0_
  6
CONTINUOUS
 62
    7
 10
174.96533358574914
 20
186.27392443661853
 11
248.96537936211632
 21
186.27392443661853
  0
LINE
  8
_0-0_
  6
CONTINUOUS
 62
    7
 10
174.96533358574914
 20
186.27392443661853
 11
174.96533358574914
 21
112.273916807224
  0
LINE
  8
_0-0_
  6
CONTINUOUS
 62
    7
 10
180.92187145048024
 20
179.87391280694686
 11
203.9218731000791
 21
179.87391280694686
  0
LINE
  8
_0-0_
  6
CONTINUOUS
 62
    7
 10
180.92187145048024
 20
183.27390917782947
 11
180.92187145048024
 21
179.87391280694686
  0
LINE
  8
_0-0_
  6
CONTINUOUS
 62
    7
 10
185.12187169792003
 20
174.27390422903301
 11
194.72186872864222
 21
174.27390422903301
  0
LINE
  8
_0-0_
  6
CONTINUOUS
 62
    7
 10
197.92187186287993
 20
178.8739095077492
 11
197.92187186287993
 21
177.47390736327077
  0
LINE
  8
_0-0_
  6
CONTINUOUS
 62
    7
 10
181.92186856368232
 20
178.8739095077492
 11
197.92187186287993
 21
178.8739095077492
  0
LINE
  8
_0-0_
  6
CONTINUOUS
 62
    7
 10
181.92186856368232
 20
178.8739095077492
 11
181.92186856368232
 21
177.47390736327077
  0
LINE
  8
_0-0_
  6
CONTINUOUS
 62
    7
 10
185.12187169792003
 20
179.87391280694686
 11
185.12187169792003
 21
178.8739095077492
  0
LINE
  8
_0-0_
  6
CONTINUOUS
 62
    7
 10
189.12187252271946
 20
179.87391280694686
 11
189.12187252271946
 21
178.8739095077492
  0
LINE
  8
_0-0_
  6
CONTINUOUS
 62
    7
 10
190.72186790384274
 20
179.87391280694686
 11
190.72186790384274
 21
178.8739095077492
  0
LINE
  8
_0-0_
  6
CONTINUOUS
 62
    7
 10
194.32186988336139
 20
179.87391280694686
 11
194.32186988336139
 21
178.8739095077492
  0
LINE
  8
_0-0_
  6
CONTINUOUS
 62
    7
 10
195.12187375991857
 20
179.87391280694686
 11
195.12187375991857
 21
178.8739095077492
  0
LINE
  8
_0-0_
  6
CONTINUOUS
 62
    7
 10
184.12186839872243
 20
179.87391280694686
 11
184.12186839872243
 21
178.8739095077492
  0
ARC
  8
_0-0_
  6
CONTINUOUS
 62
    7
 10
185.12187169792003
 20
177.47390736327077
 40
3.2000000412399707
 50
180
 51
270
  0
ARC
  8
_0-0_
  6
CONTINUOUS
 62
    7
 10
194.72186872864222
 20
177.47390736327077
 40
3.2000000412399707
 50
270
 51
0
  0
LINE
  8
_0-0_
  6
CONTINUOUS
 62
    7
 10
203.9218731000791
 20
179.87391280694686
 11
203.9218731000791
 21
183.05498315814185
  0
LINE
  8
_0-1_
  6
CONTINUOUS
 62
    7
 10
174.96533358574914
 20
201.73420580868873
 11
174.96533358574914
 21
189.11727770810279
  0
LINE
  8
_0-1_
  6
CONTINUOUS
 62
    7
 10
177.96539271355675
 20
194.16406115536842
 11
177.96539271355675
 21
189.11727770810279
  0
LINE
  8
_0-1_
  6
CONTINUOUS
 62
    7
 10
174.96533358574914
 20
194.16406115536842
 11
174.96533358574914
 21
189.11727770810279
  0
LINE
  8
_0-1_
  6
CONTINUOUS
 62
    7
 10
174.96533358574914
 20
194.16406115536842
 11
177.96539271355675
 21
194.16406115536842
  0
LINE
  8
_0-1_
  6
CONTINUOUS
 62
    7
 10
248.96537936211632
 20
201.73420580868873
 11
248.96537936211632
 21
189.11727770810279
  0
LINE
  8
_0-1_
  6
CONTINUOUS
 62
    7
 10
248.96537936211632
 20
194.16406115536842
 11
248.96537936211632
 21
189.11727770810279
  0
LINE
  8
_0-1_
  6
CONTINUOUS
 62
    7
 10
245.96532214165734
 20
194.16406115536842
 11
248.96537936211632
 21
194.16406115536842
  0
LINE
  8
_0-1_
  6
CONTINUOUS
 62
    7
 10
245.96532214165734
 20
194.16406115536842
 11
245.96532214165734
 21
189.11727770810279
  0
LINE
  8
_0-1_
  6
CONTINUOUS
 62
    7
 10
177.96539271355675
 20
194.16406115536842
 11
245.96532214165734
 21
194.16406115536842
  0
LINE
  8
_0-1_
  6
CONTINUOUS
 62
    7
 10
174.96533358574914
 20
201.73420580868873
 11
248.96537936211632
 21
201.73420580868873
  0
POINT
  8
_0-1_
 62
    7
 10
174.96533358574914
 20
201.73420580868873
  0
POINT
  8
_0-1_
 62
    7
 10
177.96539271355675
 20
194.16406115536842
  0
POINT
  8
_0-1_
 62
    7
 10
174.96533358574914
 20
194.16406115536842
  0
POINT
  8
_0-1_
 62
    7
 10
248.96537936211632
 20
201.73420580868873
  0
POINT
  8
_0-1_
 62
    7
 10
248.96537936211632
 20
194.16406115536842
  0
POINT
  8
_0-1_
 62
    7
 10
245.96532214165734
 20
194.16406115536842
  0
TEXT
  8
_0-1_
 62
    7
 10
169.52404257906551
 20
195.38406892156365
 40
5
 41
1
 50
0
  1
15
  0
TEXT
  8
_0-1_
 62
    7
 10
208.19606994796686
 20
201.85790467116345
 40
5
 41
1
 50
0
  1
370
  0
TEXT
  8
_0-1_
 62
    7
 10
207.95405739657991
 20
194.35551557816933
 40
5
 41
1
 50
0
  1
340
  0
TEXT
  8
_0-1_
 62
    7
 10
249.33820368374109
 20
194.59752812955622
 40
5
 41
1
 50
0
  1
15
  0
LINE
  8
_0-1_
  6
CONTINUOUS
 62
    7
 10
162.08302081109093
 20
186.27392443661853
 11
170.51270449639367
 21
186.27392443661853
  0
LINE
  8
_0-1_
  6
CONTINUOUS
 62
    7
 10
162.08302081109093
 20
183.27390917782947
 11
162.08302081109093
 21
186.27392443661853
  0
LINE
  8
_0-1_
  6
CONTINUOUS
 62
    7
 10
162.08302081109093
 20
183.27390917782947
 11
170.51270449639367
 21
183.27390917782947
  0
LINE
  8
_0-1_
  6
CONTINUOUS
 62
    7
 10
162.08302081109093
 20
112.27391680722405
 11
162.08302081109093
 21
115.27390154843499
  0
LINE
  8
_0-1_
  6
CONTINUOUS
 62
    7
 10
162.08302081109093
 20
115.27390154843499
 11
170.51270449639367
 21
115.27390154843499
  0
LINE
  8
_0-1_
  6
CONTINUOUS
 62
    7
 10
162.08302081109093
 20
112.27391680722405
 11
170.51270449639367
 21
112.27391680722405
  0
LINE
  8
_0-1_
  6
CONTINUOUS
 62
    7
 10
162.08302081109093
 20
112.27391680722405
 11
162.08302081109093
 21
115.27390154843499
  0
LINE
  8
_0-1_
  6
CONTINUOUS
 62
    7
 10
153.24417651177453
 20
186.27392443661853
 11
170.51270449639367
 21
186.27392443661853
  0
LINE
  8
_0-1_
  6
CONTINUOUS
 62
    7
 10
153.24417651177453
 20
186.27392443661853
 11
153.24417651177453
 21
112.27391680722405
  0
LINE
  8
_0-1_
  6
CONTINUOUS
 62
    7
 10
153.24417651177453
 20
112.27391680722405
 11
170.51270449639367
 21
112.27391680722405
  0
LINE
  8
_0-1_
  6
CONTINUOUS
 62
    7
 10
162.08302081109093
 20
116.27390917782952
 11
162.08302081109093
 21
183.27390917782947
  0
POINT
  8
_0-1_
 62
    7
 10
162.08302081109093
 20
186.27392443661853
  0
POINT
  8
_0-1_
 62
    7
 10
162.08302081109093
 20
183.27390917782947
  0
POINT
  8
_0-1_
 62
    7
 10
153.24417651177453
 20
186.27392443661853
  0
POINT
  8
_0-1_
 62
    7
 10
162.08302081109093
 20
115.27390154843499
  0
POINT
  8
_0-1_
 62
    7
 10
162.08302081109093
 20
112.27391680722405
  0
POINT
  8
_0-1_
 62
    7
 10
153.24417651177453
 20
112.27391680722405
  0
TEXT
  8
_0-1_
 62
    7
 10
152.68444097359503
 20
146.29234898697189
 40
5
 41
1
 50
90
  1
370
  0
TEXT
  8
_0-1_
 62
    7
 10
161.81778421724005
 20
146.00693201060795
 40
5
 41
1
 50
90
  1
340
  0
TEXT
  8
_0-1_
 62
    7
 10
162.10320119360395
 20
106.04855531966103
 40
5
 41
1
 50
90
  1
15
  0
TEXT
  8
_0-1_
 62
    7
 10
161.24695026451224
 20
187.10697660701049
 40
5
 41
1
 50
90
  1
15
  0
CIRCLE
  8
_0-2_
  6
CONTINUOUS
 62
    7
 10
161.49931532739402
 20
202.45006173752114
 40
3.4095973463431131
  0
TEXT
  8
_0-2_
 62
    7
 10
159.10447482757468
 20
200.54504796404757
 40
4
 41
1
 50
0
  1
４
  0
LINE
  8
_0-2_
  6
CONTINUOUS
 62
    7
 10
164.19935655835587
 20
200.36796389752993
 11
183.1375921925947
 21
182.30136558104164
  0
TEXT
  8
_0-2_
 62
    7
 10
206.63793103448279
 20
59.017241379310335
 40
5
 41
1
 50
0
  1
※ご発注前にご収納されますＡＥＤ機器寸法をご確認下さい
  0
LINE
  8
_0-f_
  6
CONTINUOUS
 62
    7
 10
383.81224859886782
 20
311.96843264137362
 11
383.81224859886782
 21
312.3444086413736
  0
LINE
  8
_0-f_
  6
CONTINUOUS
 62
    7
 10
383.81224859886782
 20
312.3444086413736
 11
385.49224859886789
 21
312.3444086413736
  0
LINE
  8
_0-f_
  6
CONTINUOUS
 62
    7
 10
385.49224859886789
 20
312.3444086413736
 11
385.49224859886789
 21
312.65652064137356
  0
LINE
  8
_0-f_
  6
CONTINUOUS
 62
    7
 10
385.49224859886789
 20
312.65652064137356
 11
384.68508030056921
 21
312.65652064137356
  0
LINE
  8
_0-f_
  6
CONTINUOUS
 62
    7
 10
384.68508030056921
 20
312.65652064137356
 11
384.77621367570094
 21
313.02448423647257
  0
LINE
  8
_0-f_
  6
CONTINUOUS
 62
    7
 10
384.77621367570094
 20
313.02448423647257
 11
385.81224859886782
 21
313.02448864137358
  0
LINE
  8
_0-f_
  6
CONTINUOUS
 62
    7
 10
385.81224859886782
 20
313.02448864137358
 11
385.81224859886782
 21
313.42448864137356
  0
LINE
  8
_0-f_
  6
CONTINUOUS
 62
    7
 10
385.81224859886782
 20
313.42448864137356
 11
385.17539566634485
 21
313.42448864137356
  0
LINE
  8
_0-f_
  6
CONTINUOUS
 62
    7
 10
385.17539566634485
 20
313.42448864137356
 11
385.34024859886796
 21
313.71016064137365
  0
LINE
  8
_0-f_
  6
CONTINUOUS
 62
    7
 10
385.34024859886796
 20
313.71016064137365
 11
384.80983259886779
 21
314.01650464137361
  0
LINE
  8
_0-f_
  6
CONTINUOUS
 62
    7
 10
384.80983259886779
 20
314.01650464137361
 11
384.46744397211967
 21
313.42448864137356
  0
LINE
  8
_0-f_
  6
CONTINUOUS
 62
    7
 10
384.46744397211967
 20
313.42448864137356
 11
384.37225659886798
 21
313.42448864137356
  0
LINE
  8
_0-f_
  6
CONTINUOUS
 62
    7
 10
384.37225659886798
 20
313.42448864137356
 11
384.37225659886798
 21
314.01648064137362
  0
LINE
  8
_0-f_
  6
CONTINUOUS
 62
    7
 10
384.37225659886798
 20
314.01648064137362
 11
383.65224059886776
 21
314.01648064137362
  0
LINE
  8
_0-f_
  6
CONTINUOUS
 62
    7
 10
383.65224059886776
 20
314.01648064137362
 11
383.65224059886776
 21
313.42448864137356
  0
LINE
  8
_0-f_
  6
CONTINUOUS
 62
    7
 10
383.65224059886776
 20
313.42448864137356
 11
383.17223259886777
 21
313.42448864137356
  0
LINE
  8
_0-f_
  6
CONTINUOUS
 62
    7
 10
383.17223259886777
 20
313.42448864137356
 11
383.17223259886777
 21
314.01648064137362
  0
LINE
  8
_0-f_
  6
CONTINUOUS
 62
    7
 10
383.17223259886777
 20
314.01648064137362
 11
382.45224059886777
 21
314.01648064137362
  0
LINE
  8
_0-f_
  6
CONTINUOUS
 62
    7
 10
382.45224059886777
 20
314.01648064137362
 11
382.45224059886777
 21
313.42448864137356
  0
LINE
  8
_0-f_
  6
CONTINUOUS
 62
    7
 10
382.45224059886777
 20
313.42448864137356
 11
382.35702089999899
 21
313.42448864137356
  0
LINE
  8
_0-f_
  6
CONTINUOUS
 62
    7
 10
382.35702089999899
 20
313.42448864137356
 11
382.01542459886775
 21
314.01644864137364
  0
LINE
  8
_0-f_
  6
CONTINUOUS
 62
    7
 10
382.01542459886775
 20
314.01644864137364
 11
381.48504859886782
 21
313.71009664137358
  0
LINE
  8
_0-f_
  6
CONTINUOUS
 62
    7
 10
381.48504859886782
 20
313.71009664137358
 11
381.64990401089955
 21
313.42448864137356
  0
LINE
  8
_0-f_
  6
CONTINUOUS
 62
    7
 10
381.64990401089955
 20
313.42448864137356
 11
381.01224859886781
 21
313.42448864137356
  0
LINE
  8
_0-f_
  6
CONTINUOUS
 62
    7
 10
381.01224859886781
 20
313.42448864137356
 11
381.01224859886781
 21
313.02448864137358
  0
LINE
  8
_0-f_
  6
CONTINUOUS
 62
    7
 10
381.01224859886781
 20
313.02448864137358
 11
382.04903666922024
 21
313.02448864137358
  0
LINE
  8
_0-f_
  6
CONTINUOUS
 62
    7
 10
382.04903666922024
 20
313.02448864137358
 11
382.13941070439654
 21
312.65652064137356
  0
LINE
  8
_0-f_
  6
CONTINUOUS
 62
    7
 10
382.13941070439654
 20
312.65652064137356
 11
381.33224059886783
 21
312.65652064137356
  0
LINE
  8
_0-f_
  6
CONTINUOUS
 62
    7
 10
381.33224059886783
 20
312.65652064137356
 11
381.33224059886783
 21
312.3444086413736
  0
LINE
  8
_0-f_
  6
CONTINUOUS
 62
    7
 10
381.33224059886783
 20
312.3444086413736
 11
383.01222459886782
 21
312.3444086413736
  0
LINE
  8
_0-f_
  6
CONTINUOUS
 62
    7
 10
383.01222459886782
 20
312.3444086413736
 11
383.01222459886776
 21
311.96843264137362
  0
LINE
  8
_0-f_
  6
CONTINUOUS
 62
    7
 10
383.01222459886776
 20
311.96843264137362
 11
381.33224059886783
 21
311.96843264137362
  0
LINE
  8
_0-f_
  6
CONTINUOUS
 62
    7
 10
381.33224059886783
 20
311.96843264137362
 11
381.33224059886777
 21
311.64851264137354
  0
LINE
  8
_0-f_
  6
CONTINUOUS
 62
    7
 10
381.33224059886777
 20
311.64851264137354
 11
383.01222459886776
 21
311.64851264137354
  0
LINE
  8
_0-f_
  6
CONTINUOUS
 62
    7
 10
383.01222459886776
 20
311.64851264137354
 11
383.01222459886782
 21
311.27253664137362
  0
LINE
  8
_0-f_
  6
CONTINUOUS
 62
    7
 10
383.01222459886782
 20
311.27253664137362
 11
381.01224859886781
 21
311.27253664137362
  0
LINE
  8
_0-f_
  6
CONTINUOUS
 62
    7
 10
381.01224859886781
 20
311.27253664137362
 11
381.01224859886781
 21
310.87252064137357
  0
LINE
  8
_0-f_
  6
CONTINUOUS
 62
    7
 10
381.01224859886781
 20
310.87252064137357
 11
382.14192059886784
 21
310.87252064137357
  0
LINE
  8
_0-f_
  6
CONTINUOUS
 62
    7
 10
382.14192059886784
 20
310.87252064137357
 11
381.64584059886772
 21
310.37644064137362
  0
LINE
  8
_0-f_
  6
CONTINUOUS
 62
    7
 10
381.64584059886772
 20
310.37644064137362
 11
381.01224859886781
 21
310.37644064137362
  0
LINE
  8
_0-f_
  6
CONTINUOUS
 62
    7
 10
381.01224859886781
 20
310.37644064137362
 11
381.01224859886781
 21
310.01644064137361
  0
LINE
  8
_0-f_
  6
CONTINUOUS
 62
    7
 10
381.01224859886781
 20
310.01644064137361
 11
381.84376313262061
 21
310.01644064137361
  0
ARC
  8
_0-f_
  6
CONTINUOUS
 62
    7
 10
381.84376313262061
 20
310.41644064137358
 40
0.3999999999999995
 50
270
 51
314.98511379092588
  0
LINE
  8
_0-f_
  6
CONTINUOUS
 62
    7
 10
382.12653234923386
 20
310.1335244521303
 11
382.86591264044876
 21
310.87252064137357
  0
LINE
  8
_0-f_
  6
CONTINUOUS
 62
    7
 10
382.86591264044876
 20
310.87252064137357
 11
383.01222459886782
 21
310.87252064137357
  0
LINE
  8
_0-f_
  6
CONTINUOUS
 62
    7
 10
383.01222459886782
 20
310.87252064137357
 11
383.01222459886776
 21
310.01644064137361
  0
LINE
  8
_0-f_
  6
CONTINUOUS
 62
    7
 10
383.01222459886776
 20
310.01644064137361
 11
383.81224859886782
 21
310.01644064137361
  0
LINE
  8
_0-f_
  6
CONTINUOUS
 62
    7
 10
383.81224859886782
 20
310.01644064137361
 11
383.81224859886782
 21
310.87252064137357
  0
LINE
  8
_0-f_
  6
CONTINUOUS
 62
    7
 10
383.81224859886782
 20
310.87252064137357
 11
383.9593606361214
 21
310.87252064137357
  0
LINE
  8
_0-f_
  6
CONTINUOUS
 62
    7
 10
383.9593606361214
 20
310.87252064137357
 11
384.69787340613885
 21
310.13366380763688
  0
ARC
  8
_0-f_
  6
CONTINUOUS
 62
    7
 10
384.98078198201074
 20
310.41644064137358
 40
0.3999999999999968
 50
224.98665642058054
 51
270
  0
LINE
  8
_0-f_
  6
CONTINUOUS
 62
    7
 10
384.98078198201074
 20
310.01644064137361
 11
385.81224859886777
 21
310.01644064137361
  0
LINE
  8
_0-f_
  6
CONTINUOUS
 62
    7
 10
385.81224859886777
 20
310.01644064137361
 11
385.81224859886782
 21
310.37644064137362
  0
LINE
  8
_0-f_
  6
CONTINUOUS
 62
    7
 10
385.81224859886782
 20
310.37644064137362
 11
385.17951261048256
 21
310.37644064137362
  0
LINE
  8
_0-f_
  6
CONTINUOUS
 62
    7
 10
385.17951261048256
 20
310.37644064137362
 11
384.68336058725316
 21
310.87252064137357
  0
LINE
  8
_0-f_
  6
CONTINUOUS
 62
    7
 10
384.68336058725316
 20
310.87252064137357
 11
385.81224859886782
 21
310.87252064137357
  0
LINE
  8
_0-f_
  6
CONTINUOUS
 62
    7
 10
385.81224859886782
 20
310.87252064137357
 11
385.81224859886782
 21
311.27253664137362
  0
LINE
  8
_0-f_
  6
CONTINUOUS
 62
    7
 10
385.81224859886782
 20
311.27253664137362
 11
383.81224859886782
 21
311.27253664137362
  0
LINE
  8
_0-f_
  6
CONTINUOUS
 62
    7
 10
383.81224859886782
 20
311.27253664137362
 11
383.81224859886782
 21
311.64851264137354
  0
LINE
  8
_0-f_
  6
CONTINUOUS
 62
    7
 10
383.81224859886782
 20
311.64851264137354
 11
385.49224859886789
 21
311.64851264137354
  0
LINE
  8
_0-f_
  6
CONTINUOUS
 62
    7
 10
385.49224859886789
 20
311.64851264137354
 11
385.49224859886789
 21
311.96843264137362
  0
LINE
  8
_0-f_
  6
CONTINUOUS
 62
    7
 10
385.49224859886789
 20
311.96843264137362
 11
383.81224859886782
 21
311.96843264137362
  0
LINE
  8
_0-f_
  6
CONTINUOUS
 62
    7
 10
382.85623501556728
 20
312.65652064137356
 11
382.77063485743514
 21
313.02447570936982
  0
LINE
  8
_0-f_
  6
CONTINUOUS
 62
    7
 10
382.77063485743514
 20
313.02447570936982
 11
384.05464927804411
 21
313.02448116860324
  0
LINE
  8
_0-f_
  6
CONTINUOUS
 62
    7
 10
384.05464927804411
 20
313.02448116860324
 11
383.96905865098364
 21
312.65652064137356
  0
LINE
  8
_0-f_
  6
CONTINUOUS
 62
    7
 10
383.96905865098364
 20
312.65652064137356
 11
382.85623501556728
 21
312.65652064137356
  0
LINE
  8
_0-f_
  6
CONTINUOUS
 62
    7
 10
383.81224859886765
 20
311.97644064137359
 11
383.01222459886759
 21
311.97644064137359
  0
LINE
  8
_0-f_
  6
CONTINUOUS
 62
    7
 10
383.81224859886765
 20
312.05644064137363
 11
383.01222459886759
 21
312.05644064137363
  0
LINE
  8
_0-f_
  6
CONTINUOUS
 62
    7
 10
383.81224859886765
 20
312.13644064137355
 11
383.01222459886759
 21
312.13644064137355
  0
LINE
  8
_0-f_
  6
CONTINUOUS
 62
    7
 10
383.81224859886765
 20
312.21644064137359
 11
383.01222459886759
 21
312.21644064137359
  0
LINE
  8
_0-f_
  6
CONTINUOUS
 62
    7
 10
383.81224859886765
 20
312.29644064137358
 11
383.01222459886759
 21
312.29644064137358
  0
LINE
  8
_0-f_
  6
CONTINUOUS
 62
    7
 10
385.49224859886806
 20
312.37644064137356
 11
381.33224059886777
 21
312.37644064137356
  0
LINE
  8
_0-f_
  6
CONTINUOUS
 62
    7
 10
385.49224859886806
 20
312.4564406413736
 11
381.33224059886777
 21
312.4564406413736
  0
LINE
  8
_0-f_
  6
CONTINUOUS
 62
    7
 10
385.49224859886806
 20
312.53644064137364
 11
381.33224059886777
 21
312.53644064137364
  0
LINE
  8
_0-f_
  6
CONTINUOUS
 62
    7
 10
385.49224859886806
 20
312.61644064137363
 11
381.33224059886777
 21
312.61644064137363
  0
LINE
  8
_0-f_
  6
CONTINUOUS
 62
    7
 10
384.69496726869232
 20
312.69644064137361
 11
383.97834436936756
 21
312.69644064137361
  0
LINE
  8
_0-f_
  6
CONTINUOUS
 62
    7
 10
382.84694812537401
 20
312.69644064137361
 11
382.1296062336699
 21
312.69644064137361
  0
LINE
  8
_0-f_
  6
CONTINUOUS
 62
    7
 10
384.71478083206557
 20
312.77644064137365
 11
383.9969530234435
 21
312.77644064137365
  0
LINE
  8
_0-f_
  6
CONTINUOUS
 62
    7
 10
382.82833712298219
 20
312.77644064137365
 11
382.10995799574135
 21
312.77644064137365
  0
LINE
  8
_0-f_
  6
CONTINUOUS
 62
    7
 10
384.73459439543882
 20
312.85644064137358
 11
384.01556167751949
 21
312.85644064137358
  0
LINE
  8
_0-f_
  6
CONTINUOUS
 62
    7
 10
382.80972612059037
 20
312.85644064137358
 11
382.0903097578128
 21
312.85644064137358
  0
LINE
  8
_0-f_
  6
CONTINUOUS
 62
    7
 10
384.75440795881201
 20
312.93644064137362
 11
384.03417033159548
 21
312.93644064137362
  0
LINE
  8
_0-f_
  6
CONTINUOUS
 62
    7
 10
382.79111511819855
 20
312.93644064137362
 11
382.0706615198842
 21
312.93644064137362
  0
LINE
  8
_0-f_
  6
CONTINUOUS
 62
    7
 10
384.77422152218531
 20
313.01644064137361
 11
384.05277898567152
 21
313.01644064137361
  0
LINE
  8
_0-f_
  6
CONTINUOUS
 62
    7
 10
382.77250411580661
 20
313.01644064137361
 11
382.05101328195559
 21
313.01644064137361
  0
LINE
  8
_0-f_
  6
CONTINUOUS
 62
    7
 10
385.81224859886794
 20
313.09644064137359
 11
381.0122485988677
 21
313.09644064137359
  0
LINE
  8
_0-f_
  6
CONTINUOUS
 62
    7
 10
385.81224859886794
 20
313.17644064137363
 11
381.0122485988677
 21
313.17644064137363
  0
LINE
  8
_0-f_
  6
CONTINUOUS
 62
    7
 10
385.81224859886794
 20
313.25644064137356
 11
381.0122485988677
 21
313.25644064137356
  0
LINE
  8
_0-f_
  6
CONTINUOUS
 62
    7
 10
385.81224859886794
 20
313.3364406413736
 11
381.0122485988677
 21
313.3364406413736
  0
LINE
  8
_0-f_
  6
CONTINUOUS
 62
    7
 10
385.81224859886794
 20
313.41644064137364
 11
381.0122485988677
 21
313.41644064137364
  0
LINE
  8
_0-f_
  6
CONTINUOUS
 62
    7
 10
385.21691705521351
 20
313.49644064137357
 11
384.50905694621457
 21
313.49644064137357
  0
LINE
  8
_0-f_
  6
CONTINUOUS
 62
    7
 10
384.37225659886786
 20
313.49644064137357
 11
383.65224059886754
 21
313.49644064137357
  0
LINE
  8
_0-f_
  6
CONTINUOUS
 62
    7
 10
383.17223259886765
 20
313.49644064137357
 11
382.45224059886789
 21
313.49644064137357
  0
LINE
  8
_0-f_
  6
CONTINUOUS
 62
    7
 10
382.31550029546673
 20
313.49644064137357
 11
381.6083726931268
 21
313.49644064137357
  0
LINE
  8
_0-f_
  6
CONTINUOUS
 62
    7
 10
385.26308270883669
 20
313.57644064137361
 11
384.55532442908645
 21
313.57644064137361
  0
LINE
  8
_0-f_
  6
CONTINUOUS
 62
    7
 10
384.37225659886786
 20
313.57644064137361
 11
383.65224059886754
 21
313.57644064137361
  0
LINE
  8
_0-f_
  6
CONTINUOUS
 62
    7
 10
383.17223259886765
 20
313.57644064137361
 11
382.45224059886789
 21
313.57644064137361
  0
LINE
  8
_0-f_
  6
CONTINUOUS
 62
    7
 10
382.26933551390965
 20
313.57644064137361
 11
381.56219600002811
 21
313.57644064137361
  0
LINE
  8
_0-f_
  6
CONTINUOUS
 62
    7
 10
385.30924836245987
 20
313.65644064137365
 11
384.60159191195828
 21
313.65644064137365
  0
LINE
  8
_0-f_
  6
CONTINUOUS
 62
    7
 10
384.37225659886786
 20
313.65644064137365
 11
383.65224059886754
 21
313.65644064137365
  0
LINE
  8
_0-f_
  6
CONTINUOUS
 62
    7
 10
383.17223259886765
 20
313.65644064137365
 11
382.45224059886789
 21
313.65644064137365
  0
LINE
  8
_0-f_
  6
CONTINUOUS
 62
    7
 10
382.22317073235263
 20
313.65644064137365
 11
381.51601930692937
 21
313.65644064137365
  0
LINE
  8
_0-f_
  6
CONTINUOUS
 62
    7
 10
385.2947463775738
 20
313.73644064137363
 11
384.64785939483016
 21
313.73644064137363
  0
LINE
  8
_0-f_
  6
CONTINUOUS
 62
    7
 10
384.37225659886786
 20
313.73644064137363
 11
383.65224059886754
 21
313.73644064137363
  0
LINE
  8
_0-f_
  6
CONTINUOUS
 62
    7
 10
383.17223259886765
 20
313.73644064137363
 11
382.45224059886789
 21
313.73644064137363
  0
LINE
  8
_0-f_
  6
CONTINUOUS
 62
    7
 10
382.1770059507956
 20
313.73644064137363
 11
381.53065700143742
 21
313.73644064137363
  0
LINE
  8
_0-f_
  6
CONTINUOUS
 62
    7
 10
385.15623124425957
 20
313.81644064137362
 11
384.69412687770199
 21
313.81644064137362
  0
LINE
  8
_0-f_
  6
CONTINUOUS
 62
    7
 10
384.37225659886786
 20
313.81644064137362
 11
383.65224059886754
 21
313.81644064137362
  0
LINE
  8
_0-f_
  6
CONTINUOUS
 62
    7
 10
383.17223259886765
 20
313.81644064137362
 11
382.45224059886789
 21
313.81644064137362
  0
LINE
  8
_0-f_
  6
CONTINUOUS
 62
    7
 10
382.13084116923852
 20
313.81644064137362
 11
381.66915807210114
 21
313.81644064137362
  0
LINE
  8
_0-f_
  6
CONTINUOUS
 62
    7
 10
385.0177161109454
 20
313.89644064137366
 11
384.74039436057382
 21
313.89644064137366
  0
LINE
  8
_0-f_
  6
CONTINUOUS
 62
    7
 10
384.37225659886786
 20
313.89644064137366
 11
383.65224059886754
 21
313.89644064137366
  0
LINE
  8
_0-f_
  6
CONTINUOUS
 62
    7
 10
383.17223259886765
 20
313.89644064137366
 11
382.45224059886789
 21
313.89644064137366
  0
LINE
  8
_0-f_
  6
CONTINUOUS
 62
    7
 10
382.08467638768155
 20
313.89644064137366
 11
381.80765914276498
 21
313.89644064137366
  0
LINE
  8
_0-f_
  6
CONTINUOUS
 62
    7
 10
384.87920097763117
 20
313.97644064137359
 11
384.78666184344564
 21
313.97644064137359
  0
LINE
  8
_0-f_
  6
CONTINUOUS
 62
    7
 10
384.37225659886786
 20
313.97644064137359
 11
383.65224059886754
 21
313.97644064137359
  0
LINE
  8
_0-f_
  6
CONTINUOUS
 62
    7
 10
383.17223259886765
 20
313.97644064137359
 11
382.45224059886789
 21
313.97644064137359
  0
LINE
  8
_0-f_
  6
CONTINUOUS
 62
    7
 10
382.03851160612453
 20
313.97644064137359
 11
381.94616021342875
 21
313.97644064137359
  0
LINE
  8
_0-f_
  6
CONTINUOUS
 62
    7
 10
385.49224859886789
 20
311.8964406413736
 11
381.33224059886749
 21
311.8964406413736
  0
LINE
  8
_0-f_
  6
CONTINUOUS
 62
    7
 10
385.49224859886789
 20
311.81644064137362
 11
381.33224059886749
 21
311.81644064137362
  0
LINE
  8
_0-f_
  6
CONTINUOUS
 62
    7
 10
385.49224859886789
 20
311.73644064137358
 11
381.33224059886749
 21
311.73644064137358
  0
LINE
  8
_0-f_
  6
CONTINUOUS
 62
    7
 10
385.49224859886789
 20
311.65644064137354
 11
381.33224059886749
 21
311.65644064137354
  0
LINE
  8
_0-f_
  6
CONTINUOUS
 62
    7
 10
383.81224859886765
 20
311.57644064137361
 11
383.0122245988677
 21
311.57644064137361
  0
LINE
  8
_0-f_
  6
CONTINUOUS
 62
    7
 10
383.81224859886765
 20
311.49644064137357
 11
383.0122245988677
 21
311.49644064137357
  0
LINE
  8
_0-f_
  6
CONTINUOUS
 62
    7
 10
383.81224859886765
 20
311.41644064137353
 11
383.0122245988677
 21
311.41644064137353
  0
LINE
  8
_0-f_
  6
CONTINUOUS
 62
    7
 10
383.81224859886765
 20
311.3364406413736
 11
383.01222459886776
 21
311.3364406413736
  0
LINE
  8
_0-f_
  6
CONTINUOUS
 62
    7
 10
385.81224859886771
 20
311.25644064137356
 11
381.01224859886798
 21
311.25644064137356
  0
LINE
  8
_0-f_
  6
CONTINUOUS
 62
    7
 10
385.81224859886771
 20
311.17644064137357
 11
381.01224859886798
 21
311.17644064137357
  0
LINE
  8
_0-f_
  6
CONTINUOUS
 62
    7
 10
385.81224859886771
 20
311.09644064137359
 11
381.01224859886798
 21
311.09644064137359
  0
LINE
  8
_0-f_
  6
CONTINUOUS
 62
    7
 10
385.81224859886771
 20
311.01644064137355
 11
381.01224859886798
 21
311.01644064137355
  0
LINE
  8
_0-f_
  6
CONTINUOUS
 62
    7
 10
385.81224859886771
 20
310.93644064137362
 11
381.01224859886798
 21
310.93644064137362
  0
LINE
  8
_0-f_
  6
CONTINUOUS
 62
    7
 10
384.69944292182328
 20
310.85644064137358
 11
383.97543314814214
 21
310.85644064137358
  0
LINE
  8
_0-f_
  6
CONTINUOUS
 62
    7
 10
383.81224859886771
 20
310.85644064137358
 11
383.01222459886776
 21
310.85644064137358
  0
LINE
  8
_0-f_
  6
CONTINUOUS
 62
    7
 10
382.84982428267955
 20
310.85644064137358
 11
382.1258405988678
 21
310.85644064137358
  0
LINE
  8
_0-f_
  6
CONTINUOUS
 62
    7
 10
384.77945453659981
 20
310.7764406413736
 11
384.05539589451428
 21
310.7764406413736
  0
LINE
  8
_0-f_
  6
CONTINUOUS
 62
    7
 10
383.81224859886771
 20
310.7764406413736
 11
383.01222459886776
 21
310.7764406413736
  0
LINE
  8
_0-f_
  6
CONTINUOUS
 62
    7
 10
382.76978270173748
 20
310.7764406413736
 11
382.04584059886776
 21
310.7764406413736
  0
LINE
  8
_0-f_
  6
CONTINUOUS
 62
    7
 10
384.85946615137635
 20
310.69644064137361
 11
384.13535864088641
 21
310.69644064137361
  0
LINE
  8
_0-f_
  6
CONTINUOUS
 62
    7
 10
383.81224859886771
 20
310.69644064137361
 11
383.01222459886776
 21
310.69644064137361
  0
LINE
  8
_0-f_
  6
CONTINUOUS
 62
    7
 10
382.68974112079542
 20
310.69644064137361
 11
381.96584059886771
 21
310.69644064137361
  0
LINE
  8
_0-f_
  6
CONTINUOUS
 62
    7
 10
384.93947776615295
 20
310.61644064137357
 11
384.21532138725848
 21
310.61644064137357
  0
LINE
  8
_0-f_
  6
CONTINUOUS
 62
    7
 10
383.81224859886771
 20
310.61644064137357
 11
383.01222459886776
 21
310.61644064137357
  0
LINE
  8
_0-f_
  6
CONTINUOUS
 62
    7
 10
382.60969953985335
 20
310.61644064137357
 11
381.88584059886773
 21
310.61644064137357
  0
LINE
  8
_0-f_
  6
CONTINUOUS
 62
    7
 10
385.01948938092943
 20
310.53644064137353
 11
384.29528413363067
 21
310.53644064137353
  0
LINE
  8
_0-f_
  6
CONTINUOUS
 62
    7
 10
383.81224859886771
 20
310.53644064137353
 11
383.01222459886776
 21
310.53644064137353
  0
LINE
  8
_0-f_
  6
CONTINUOUS
 62
    7
 10
382.52965795891129
 20
310.53644064137353
 11
381.80584059886775
 21
310.53644064137353
  0
LINE
  8
_0-f_
  6
CONTINUOUS
 62
    7
 10
385.09950099570602
 20
310.45644064137355
 11
384.37524688000275
 21
310.45644064137355
  0
LINE
  8
_0-f_
  6
CONTINUOUS
 62
    7
 10
383.81224859886771
 20
310.45644064137355
 11
383.01222459886776
 21
310.45644064137355
  0
LINE
  8
_0-f_
  6
CONTINUOUS
 62
    7
 10
382.44961637796922
 20
310.45644064137355
 11
381.72584059886771
 21
310.45644064137355
  0
LINE
  8
_0-f_
  6
CONTINUOUS
 62
    7
 10
385.81224859886782
 20
310.37644064137356
 11
385.17951261048256
 21
310.37644064137356
  0
LINE
  8
_0-f_
  6
CONTINUOUS
 62
    7
 10
381.64584059886766
 20
310.37644064137356
 11
381.01224859886781
 21
310.37644064137356
  0
LINE
  8
_0-f_
  6
CONTINUOUS
 62
    7
 10
385.81224859886782
 20
310.29644064137352
 11
384.53517237274701
 21
310.29644064137352
  0
LINE
  8
_0-f_
  6
CONTINUOUS
 62
    7
 10
383.81224859886771
 20
310.29644064137352
 11
383.01222459886776
 21
310.29644064137352
  0
LINE
  8
_0-f_
  6
CONTINUOUS
 62
    7
 10
382.28953321608515
 20
310.29644064137352
 11
381.01224859886781
 21
310.29644064137352
  0
LINE
  8
_0-f_
  6
CONTINUOUS
 62
    7
 10
385.81224859886782
 20
310.21644064137359
 11
384.61513511911915
 21
310.21644064137359
  0
LINE
  8
_0-f_
  6
CONTINUOUS
 62
    7
 10
383.81224859886771
 20
310.21644064137359
 11
383.01222459886776
 21
310.21644064137359
  0
LINE
  8
_0-f_
  6
CONTINUOUS
 62
    7
 10
382.20949163514308
 20
310.21644064137359
 11
381.01224859886781
 21
310.21644064137359
  0
LINE
  8
_0-f_
  6
CONTINUOUS
 62
    7
 10
385.81224859886782
 20
310.13644064137355
 11
384.69509786549128
 21
310.13644064137355
  0
LINE
  8
_0-f_
  6
CONTINUOUS
 62
    7
 10
383.81224859886771
 20
310.13644064137355
 11
383.01222459886776
 21
310.13644064137355
  0
LINE
  8
_0-f_
  6
CONTINUOUS
 62
    7
 10
382.12945005420096
 20
310.13644064137355
 11
381.01224859886781
 21
310.13644064137355
  0
LINE
  8
_0-f_
  6
CONTINUOUS
 62
    7
 10
385.81224859886782
 20
310.05644064137357
 11
384.80788512728162
 21
310.05644064137357
  0
LINE
  8
_0-f_
  6
CONTINUOUS
 62
    7
 10
383.81224859886771
 20
310.05644064137357
 11
383.0122245988677
 21
310.05644064137357
  0
LINE
  8
_0-f_
  6
CONTINUOUS
 62
    7
 10
382.01667378932797
 20
310.05644064137357
 11
381.01224859886781
 21
310.05644064137357
  0
LINE
  8
_0-f_
  6
CONTINUOUS
 62
    7
 10
382.35704859886795
 20
313.42444064137356
 11
382.01542459886775
 21
314.01644864137364
  0
LINE
  8
_0-f_
  6
CONTINUOUS
 62
    7
 10
381.33224059886783
 20
312.3444086413736
 11
383.01222459886782
 21
312.3444086413736
  0
LINE
  8
_0-f_
  6
CONTINUOUS
 62
    7
 10
381.33224059886783
 20
311.96843264137362
 11
383.01222459886782
 21
311.96843264137362
  0
LINE
  8
_0-f_
  6
CONTINUOUS
 62
    7
 10
381.33224059886783
 20
311.64851264137354
 11
383.01222459886782
 21
311.64851264137354
  0
LINE
  8
_0-f_
  6
CONTINUOUS
 62
    7
 10
381.01224859886781
 20
311.27253664137362
 11
383.01222459886782
 21
311.27253664137362
  0
LINE
  8
_0-f_
  6
CONTINUOUS
 62
    7
 10
382.12653234923386
 20
310.1335244521303
 11
382.86591264044876
 21
310.87252064137357
  0
LINE
  8
_0-f_
  6
CONTINUOUS
 62
    7
 10
381.01224859886781
 20
310.87252064137357
 11
382.14192059886778
 21
310.87252064137357
  0
LINE
  8
_0-f_
  6
CONTINUOUS
 62
    7
 10
381.01224859886781
 20
310.37644064137362
 11
381.64584059886772
 21
310.37644064137362
  0
LINE
  8
_0-f_
  6
CONTINUOUS
 62
    7
 10
381.01224859886781
 20
310.01644064137361
 11
381.84376313262061
 21
310.01644064137361
  0
LINE
  8
_0-f_
  6
CONTINUOUS
 62
    7
 10
381.01224859886781
 20
311.27253664137362
 11
381.01224859886781
 21
310.87252064137357
  0
LINE
  8
_0-f_
  6
CONTINUOUS
 62
    7
 10
381.01224859886781
 20
310.37644064137362
 11
381.01224859886781
 21
310.01644064137361
  0
LINE
  8
_0-f_
  6
CONTINUOUS
 62
    7
 10
381.64584059886772
 20
310.37644064137362
 11
382.14192059886778
 21
310.87252064137357
  0
ARC
  8
_0-f_
  6
CONTINUOUS
 62
    7
 10
381.84376313262061
 20
310.41644064137358
 40
0.4
 50
270.0000000000004
 51
314.98511379092611
  0
LINE
  8
_0-f_
  6
CONTINUOUS
 62
    7
 10
382.14184059886782
 20
310.87252064137357
 11
382.14192059886778
 21
310.87252064137357
  0
LINE
  8
_0-f_
  6
CONTINUOUS
 62
    7
 10
381.33224059886783
 20
311.96843264137362
 11
381.33224059886777
 21
311.64851264137354
  0
LINE
  8
_0-f_
  6
CONTINUOUS
 62
    7
 10
381.01224859886781
 20
313.42448864137356
 11
381.64990401089955
 21
313.42448864137356
  0
LINE
  8
_0-f_
  6
CONTINUOUS
 62
    7
 10
381.01224859886781
 20
313.02448864137358
 11
382.04904059886786
 21
313.02448864137358
  0
LINE
  8
_0-f_
  6
CONTINUOUS
 62
    7
 10
381.01224859886781
 20
313.42448864137356
 11
381.01224859886781
 21
313.02448864137358
  0
LINE
  8
_0-f_
  6
CONTINUOUS
 62
    7
 10
381.64990401089955
 20
313.42448864137356
 11
381.48504859886782
 21
313.71009664137358
  0
LINE
  8
_0-f_
  6
CONTINUOUS
 62
    7
 10
381.33224059886783
 20
312.65652064137356
 11
382.13941659886785
 21
312.65652064137356
  0
LINE
  8
_0-f_
  6
CONTINUOUS
 62
    7
 10
381.33224059886783
 20
312.65652064137356
 11
381.33224059886783
 21
312.3444086413736
  0
LINE
  8
_0-f_
  6
CONTINUOUS
 62
    7
 10
382.04904059886786
 20
313.02447264137362
 11
382.13941659886785
 21
312.65649664137362
  0
LINE
  8
_0-f_
  6
CONTINUOUS
 62
    7
 10
381.48504859886782
 20
313.71009664137358
 11
382.01542459886775
 21
314.01644864137364
  0
LINE
  8
_0-f_
  6
CONTINUOUS
 62
    7
 10
383.81224859886782
 20
312.3444086413736
 11
383.81224859886782
 21
311.96843264137362
  0
LINE
  8
_0-f_
  6
CONTINUOUS
 62
    7
 10
383.01222459886782
 20
312.3444086413736
 11
383.01222459886776
 21
311.96843264137362
  0
LINE
  8
_0-f_
  6
CONTINUOUS
 62
    7
 10
383.81224859886782
 20
311.96843264137362
 11
385.49224859886789
 21
311.96843264137362
  0
LINE
  8
_0-f_
  6
CONTINUOUS
 62
    7
 10
384.69787340613885
 20
310.13366380763688
 11
383.9593606361214
 21
310.87252064137357
  0
LINE
  8
_0-f_
  6
CONTINUOUS
 62
    7
 10
383.81224859886782
 20
311.27253664137362
 11
385.81224859886782
 21
311.27253664137362
  0
LINE
  8
_0-f_
  6
CONTINUOUS
 62
    7
 10
383.81224859886782
 20
311.64851264137354
 11
385.49224859886789
 21
311.64851264137354
  0
LINE
  8
_0-f_
  6
CONTINUOUS
 62
    7
 10
383.01222459886782
 20
310.01644064137361
 11
383.81224859886782
 21
310.01644064137361
  0
LINE
  8
_0-f_
  6
CONTINUOUS
 62
    7
 10
382.86591264044876
 20
310.87252064137357
 11
383.01222459886782
 21
310.87252064137357
  0
LINE
  8
_0-f_
  6
CONTINUOUS
 62
    7
 10
383.01222459886782
 20
310.87252064137357
 11
383.01222459886782
 21
310.01644064137361
  0
LINE
  8
_0-f_
  6
CONTINUOUS
 62
    7
 10
383.01222459886776
 20
311.64851264137354
 11
383.01222459886782
 21
311.27253664137362
  0
LINE
  8
_0-f_
  6
CONTINUOUS
 62
    7
 10
383.81224859886782
 20
310.87252064137357
 11
383.9593606361214
 21
310.87252064137357
  0
LINE
  8
_0-f_
  6
CONTINUOUS
 62
    7
 10
383.81224859886782
 20
310.87252064137357
 11
383.81224859886782
 21
310.01644064137361
  0
LINE
  8
_0-f_
  6
CONTINUOUS
 62
    7
 10
383.81224859886782
 20
311.64851264137354
 11
383.81224859886782
 21
311.27253664137362
  0
LINE
  8
_0-f_
  6
CONTINUOUS
 62
    7
 10
384.98078198201074
 20
310.01644064137361
 11
385.81224859886782
 21
310.01644064137361
  0
LINE
  8
_0-f_
  6
CONTINUOUS
 62
    7
 10
385.17951261048256
 20
310.37644064137362
 11
385.81224859886782
 21
310.37644064137362
  0
LINE
  8
_0-f_
  6
CONTINUOUS
 62
    7
 10
384.68336058725316
 20
310.87252064137357
 11
385.81224859886782
 21
310.87252064137357
  0
LINE
  8
_0-f_
  6
CONTINUOUS
 62
    7
 10
385.17951261048256
 20
310.37644064137362
 11
384.68336058725316
 21
310.87252064137357
  0
ARC
  8
_0-f_
  6
CONTINUOUS
 62
    7
 10
384.98078198201074
 20
310.41644064137358
 40
0.4
 50
224.98665642058006
 51
269.9999999999996
  0
LINE
  8
_0-f_
  6
CONTINUOUS
 62
    7
 10
385.49224859886789
 20
311.96843264137357
 11
385.49224859886789
 21
311.64851264137354
  0
LINE
  8
_0-f_
  6
CONTINUOUS
 62
    7
 10
385.81224859886782
 20
311.27253664137362
 11
385.81224859886782
 21
310.87252064137357
  0
LINE
  8
_0-f_
  6
CONTINUOUS
 62
    7
 10
385.81224859886782
 20
310.37644064137362
 11
385.81224859886777
 21
310.01644064137361
  0
LINE
  8
_0-f_
  6
CONTINUOUS
 62
    7
 10
383.81224859886782
 20
312.3444086413736
 11
385.49224859886789
 21
312.3444086413736
  0
LINE
  8
_0-f_
  6
CONTINUOUS
 62
    7
 10
384.37225659886798
 20
313.42448864137356
 11
384.46744397211967
 21
313.42448864137356
  0
LINE
  8
_0-f_
  6
CONTINUOUS
 62
    7
 10
383.17223259886777
 20
313.42448864137356
 11
383.65224059886776
 21
313.42448864137356
  0
LINE
  8
_0-f_
  6
CONTINUOUS
 62
    7
 10
382.77063485743514
 20
313.02447570936982
 11
384.05464927804411
 21
313.02448116860324
  0
LINE
  8
_0-f_
  6
CONTINUOUS
 62
    7
 10
382.85623501556728
 20
312.65652064137356
 11
383.96905865098364
 21
312.65652064137356
  0
LINE
  8
_0-f_
  6
CONTINUOUS
 62
    7
 10
383.17223259886777
 20
314.01648064137362
 11
383.17223259886777
 21
313.42448864137356
  0
LINE
  8
_0-f_
  6
CONTINUOUS
 62
    7
 10
382.45224059886777
 20
314.01648064137362
 11
382.45224059886777
 21
313.42448864137356
  0
LINE
  8
_0-f_
  6
CONTINUOUS
 62
    7
 10
382.77063485743514
 20
313.02447570936982
 11
382.85624059886794
 21
312.65649664137362
  0
LINE
  8
_0-f_
  6
CONTINUOUS
 62
    7
 10
382.35702089999899
 20
313.42448864137356
 11
382.45224059886777
 21
313.42448864137356
  0
LINE
  8
_0-f_
  6
CONTINUOUS
 62
    7
 10
382.45224059886777
 20
314.01648064137362
 11
383.17223259886777
 21
314.01648064137362
  0
LINE
  8
_0-f_
  6
CONTINUOUS
 62
    7
 10
384.37225659886798
 20
314.01648064137362
 11
384.37225659886798
 21
313.42448864137356
  0
LINE
  8
_0-f_
  6
CONTINUOUS
 62
    7
 10
383.65224059886776
 20
314.01648064137362
 11
383.65224059886776
 21
313.42448864137356
  0
LINE
  8
_0-f_
  6
CONTINUOUS
 62
    7
 10
384.05465659886784
 20
313.02451264137363
 11
383.96903259886795
 21
312.65640864137362
  0
LINE
  8
_0-f_
  6
CONTINUOUS
 62
    7
 10
383.65224059886776
 20
314.01648064137362
 11
384.37225659886798
 21
314.01648064137362
  0
LINE
  8
_0-f_
  6
CONTINUOUS
 62
    7
 10
384.77621367570094
 20
313.02448423647257
 11
385.81224859886777
 21
313.02448864137358
  0
LINE
  8
_0-f_
  6
CONTINUOUS
 62
    7
 10
385.17539566634485
 20
313.42448864137356
 11
385.81224859886782
 21
313.42448864137356
  0
LINE
  8
_0-f_
  6
CONTINUOUS
 62
    7
 10
385.17539566634485
 20
313.42448864137356
 11
385.34024859886796
 21
313.71016064137365
  0
LINE
  8
_0-f_
  6
CONTINUOUS
 62
    7
 10
384.46744397211967
 20
313.42448864137356
 11
384.8098325988679
 21
314.01650464137361
  0
LINE
  8
_0-f_
  6
CONTINUOUS
 62
    7
 10
384.68508030056921
 20
312.65652064137356
 11
385.49224859886789
 21
312.65652064137356
  0
LINE
  8
_0-f_
  6
CONTINUOUS
 62
    7
 10
384.77623259886781
 20
313.02456064137363
 11
384.68504859886781
 21
312.65639264137354
  0
LINE
  8
_0-f_
  6
CONTINUOUS
 62
    7
 10
385.49224859886789
 20
312.65652064137356
 11
385.49224859886789
 21
312.3444086413736
  0
LINE
  8
_0-f_
  6
CONTINUOUS
 62
    7
 10
385.34024859886796
 20
313.71016064137365
 11
384.8098325988679
 21
314.01650464137361
  0
LINE
  8
_0-f_
  6
CONTINUOUS
 62
    7
 10
385.81224859886782
 20
313.42448864137356
 11
385.81224859886782
 21
313.02448864137358
  0
LINE
  8
_0-f_
  6
CONTINUOUS
 62
    7
 10
385.17951261048262
 20
310.37644064137356
 11
384.45520962637494
 21
310.37644064137356
  0
LINE
  8
_0-f_
  6
CONTINUOUS
 62
    7
 10
383.81224859886782
 20
310.37644064137356
 11
383.01222459886776
 21
310.37644064137356
  0
LINE
  8
_0-f_
  6
CONTINUOUS
 62
    7
 10
382.36957479702704
 20
310.37644064137356
 11
381.64584059886766
 21
310.37644064137356
  0
LINE
  8
_0-f_
  6
CONTINUOUS
 62
    7
 10
388.1641776541889
 20
312.89656064137358
 11
388.1641776541889
 21
313.33660064137359
  0
LINE
  8
_0-f_
  6
CONTINUOUS
 62
    7
 10
388.1641776541889
 20
313.33660064137359
 11
387.49618565418899
 21
313.33660064137359
  0
LINE
  8
_0-f_
  6
CONTINUOUS
 62
    7
 10
387.49618565418899
 20
313.33660064137359
 11
387.49618565418899
 21
314.01648064137362
  0
LINE
  8
_0-f_
  6
CONTINUOUS
 62
    7
 10
387.49618565418899
 20
314.01648064137362
 11
386.97616965418894
 21
314.01648064137362
  0
LINE
  8
_0-f_
  6
CONTINUOUS
 62
    7
 10
386.97616965418894
 20
314.01648064137362
 11
386.97616965418894
 21
313.33660064137359
  0
LINE
  8
_0-f_
  6
CONTINUOUS
 62
    7
 10
386.97616965418894
 20
313.33660064137359
 11
386.30019365418894
 21
313.33660064137359
  0
LINE
  8
_0-f_
  6
CONTINUOUS
 62
    7
 10
386.30019365418894
 20
313.33660064137359
 11
386.30019365418894
 21
312.89656064137358
  0
LINE
  8
_0-f_
  6
CONTINUOUS
 62
    7
 10
386.30019365418894
 20
312.89656064137358
 11
386.97952722979193
 21
312.89656064137358
  0
LINE
  8
_0-f_
  6
CONTINUOUS
 62
    7
 10
386.97952722979193
 20
312.89656064137358
 11
386.27846211956177
 21
311.20944864137363
  0
LINE
  8
_0-f_
  6
CONTINUOUS
 62
    7
 10
386.27846211956177
 20
311.20944864137363
 11
386.22018565418892
 21
311.20944864137363
  0
LINE
  8
_0-f_
  6
CONTINUOUS
 62
    7
 10
386.22018565418892
 20
311.20944864137363
 11
386.22018565418892
 21
310.72956064137361
  0
LINE
  8
_0-f_
  6
CONTINUOUS
 62
    7
 10
386.22018565418892
 20
310.72956064137361
 11
386.41837973642333
 21
310.72956064137361
  0
ARC
  8
_0-f_
  6
CONTINUOUS
 62
    7
 10
386.41837973642333
 20
310.9295606413736
 40
0.2
 50
270
 51
338.12209204226002
  0
LINE
  8
_0-f_
  6
CONTINUOUS
 62
    7
 10
386.60397573665017
 20
310.85503464121388
 11
386.97616965418894
 21
311.78192864137355
  0
LINE
  8
_0-f_
  6
CONTINUOUS
 62
    7
 10
386.97616965418894
 20
311.78192864137355
 11
386.97616965418894
 21
310.01644064137361
  0
LINE
  8
_0-f_
  6
CONTINUOUS
 62
    7
 10
386.97616965418894
 20
310.01644064137361
 11
387.49618565418899
 21
310.01644064137361
  0
LINE
  8
_0-f_
  6
CONTINUOUS
 62
    7
 10
387.49618565418899
 20
310.01644064137361
 11
387.49618565418899
 21
311.78724064137356
  0
LINE
  8
_0-f_
  6
CONTINUOUS
 62
    7
 10
387.49618565418899
 20
311.78724064137356
 11
387.77418162161433
 21
311.0582939722787
  0
ARC
  8
_0-f_
  6
CONTINUOUS
 62
    7
 10
387.96105340085381
 20
311.12956064137359
 40
0.200000000000003
 50
200.87518418962418
 51
270
  0
LINE
  8
_0-f_
  6
CONTINUOUS
 62
    7
 10
387.96105340085381
 20
310.9295606413736
 11
388.24418565418893
 21
310.9295606413736
  0
LINE
  8
_0-f_
  6
CONTINUOUS
 62
    7
 10
388.24418565418893
 20
310.9295606413736
 11
388.24418565418893
 21
311.40944864137361
  0
LINE
  8
_0-f_
  6
CONTINUOUS
 62
    7
 10
388.24418565418893
 20
311.40944864137361
 11
388.09993380381985
 21
311.40944864137361
  0
LINE
  8
_0-f_
  6
CONTINUOUS
 62
    7
 10
388.09993380381985
 20
311.40944864137361
 11
387.4929070586175
 21
312.89656064137358
  0
LINE
  8
_0-f_
  6
CONTINUOUS
 62
    7
 10
387.4929070586175
 20
312.89656064137358
 11
388.1641776541889
 21
312.89656064137358
  0
LINE
  8
_0-f_
  6
CONTINUOUS
 62
    7
 10
390.00019365418899
 20
312.2246806413736
 11
390.00019365418899
 21
312.89656064137358
  0
LINE
  8
_0-f_
  6
CONTINUOUS
 62
    7
 10
390.00019365418899
 20
312.89656064137358
 11
391.02018565418899
 21
312.89656064137358
  0
LINE
  8
_0-f_
  6
CONTINUOUS
 62
    7
 10
391.02018565418899
 20
312.89656064137358
 11
391.02018565418899
 21
313.33660064137359
  0
LINE
  8
_0-f_
  6
CONTINUOUS
 62
    7
 10
391.02018565418899
 20
313.33660064137359
 11
390.00019365418899
 21
313.33660064137359
  0
LINE
  8
_0-f_
  6
CONTINUOUS
 62
    7
 10
390.00019365418899
 20
313.33660064137359
 11
390.00019365418899
 21
314.01648064137362
  0
LINE
  8
_0-f_
  6
CONTINUOUS
 62
    7
 10
390.00019365418899
 20
314.01648064137362
 11
389.48019365418901
 21
314.01648064137362
  0
LINE
  8
_0-f_
  6
CONTINUOUS
 62
    7
 10
389.48019365418901
 20
314.01648064137362
 11
389.48019365418901
 21
313.33660064137359
  0
LINE
  8
_0-f_
  6
CONTINUOUS
 62
    7
 10
389.48019365418901
 20
313.33660064137359
 11
389.01617765418888
 21
313.33660064137359
  0
LINE
  8
_0-f_
  6
CONTINUOUS
 62
    7
 10
389.01617765418888
 20
313.33660064137359
 11
389.01617765418888
 21
314.01648064137362
  0
LINE
  8
_0-f_
  6
CONTINUOUS
 62
    7
 10
389.01617765418888
 20
314.01648064137362
 11
388.51617765418888
 21
314.01648064137362
  0
LINE
  8
_0-f_
  6
CONTINUOUS
 62
    7
 10
388.51617765418888
 20
314.01648064137362
 11
388.51617765418888
 21
312.89656064137358
  0
LINE
  8
_0-f_
  6
CONTINUOUS
 62
    7
 10
388.51617765418888
 20
312.89656064137358
 11
389.48019365418901
 21
312.89656064137358
  0
LINE
  8
_0-f_
  6
CONTINUOUS
 62
    7
 10
389.48019365418901
 20
312.89656064137358
 11
389.48019365418901
 21
312.2246806413736
  0
LINE
  8
_0-f_
  6
CONTINUOUS
 62
    7
 10
389.48019365418901
 20
312.2246806413736
 11
388.51617765418888
 21
312.2246806413736
  0
LINE
  8
_0-f_
  6
CONTINUOUS
 62
    7
 10
388.51617765418888
 20
312.2246806413736
 11
388.51617765418888
 21
311.78464064137364
  0
LINE
  8
_0-f_
  6
CONTINUOUS
 62
    7
 10
388.51617765418888
 20
311.78464064137364
 11
389.18895927767056
 21
311.78464064137364
  0
LINE
  8
_0-f_
  6
CONTINUOUS
 62
    7
 10
389.18895927767056
 20
311.78464064137364
 11
388.65568998984213
 21
310.49071572013992
  0
ARC
  8
_0-f_
  6
CONTINUOUS
 62
    7
 10
388.54474301341565
 20
310.53644064137364
 40
0.1199999999999984
 50
270
 51
337.60181985621841
  0
LINE
  8
_0-f_
  6
CONTINUOUS
 62
    7
 10
388.54474301341565
 20
310.41644064137358
 11
388.48420165418901
 21
310.41644064137358
  0
LINE
  8
_0-f_
  6
CONTINUOUS
 62
    7
 10
388.48420165418901
 20
310.41644064137358
 11
388.48420165418901
 21
310.01644064137361
  0
LINE
  8
_0-f_
  6
CONTINUOUS
 62
    7
 10
388.48420165418901
 20
310.01644064137361
 11
388.79187143763585
 21
310.01644064137361
  0
ARC
  8
_0-f_
  6
CONTINUOUS
 62
    7
 10
388.79187143763585
 20
310.25644064137356
 40
0.2399999999999966
 50
270
 51
337.13773188217931
  0
LINE
  8
_0-f_
  6
CONTINUOUS
 62
    7
 10
389.0130173884325
 20
310.16319650779798
 11
389.48019365418901
 21
311.2711926413736
  0
LINE
  8
_0-f_
  6
CONTINUOUS
 62
    7
 10
389.48019365418901
 20
311.2711926413736
 11
389.48019365418901
 21
310.01644064137361
  0
LINE
  8
_0-f_
  6
CONTINUOUS
 62
    7
 10
389.48019365418901
 20
310.01644064137361
 11
390.00019365418899
 21
310.01644064137361
  0
LINE
  8
_0-f_
  6
CONTINUOUS
 62
    7
 10
390.00019365418899
 20
310.01644064137361
 11
390.00019365418899
 21
311.27125664137361
  0
LINE
  8
_0-f_
  6
CONTINUOUS
 62
    7
 10
390.00019365418899
 20
311.27125664137361
 11
390.47609655409394
 21
310.16182726098515
  0
ARC
  8
_0-f_
  6
CONTINUOUS
 62
    7
 10
390.69666016907041
 20
310.25644064137356
 40
0.2399999999999991
 50
203.21748710460054
 51
270
  0
LINE
  8
_0-f_
  6
CONTINUOUS
 62
    7
 10
390.69666016907041
 20
310.01644064137361
 11
391.02018565418899
 21
310.01644064137361
  0
LINE
  8
_0-f_
  6
CONTINUOUS
 62
    7
 10
391.02018565418899
 20
310.01644064137361
 11
391.02018565418899
 21
310.41644064137358
  0
LINE
  8
_0-f_
  6
CONTINUOUS
 62
    7
 10
391.02018565418899
 20
310.41644064137358
 11
390.9435274407341
 21
310.41644064137358
  0
ARC
  8
_0-f_
  6
CONTINUOUS
 62
    7
 10
390.9435274407341
 20
310.53644064137364
 40
0.1200000000000003
 50
202.69813627100072
 51
270
  0
LINE
  8
_0-f_
  6
CONTINUOUS
 62
    7
 10
390.8328213637181
 20
310.49013551734043
 11
390.29136761568873
 21
311.78464064137364
  0
LINE
  8
_0-f_
  6
CONTINUOUS
 62
    7
 10
390.29136761568873
 20
311.78464064137364
 11
391.02018565418899
 21
311.78464064137364
  0
LINE
  8
_0-f_
  6
CONTINUOUS
 62
    7
 10
391.02018565418899
 20
311.78464064137364
 11
391.02018565418899
 21
312.2246806413736
  0
LINE
  8
_0-f_
  6
CONTINUOUS
 62
    7
 10
391.02018565418899
 20
312.2246806413736
 11
390.00019365418899
 21
312.2246806413736
  0
LINE
  8
_0-f_
  6
CONTINUOUS
 62
    7
 10
391.02018565418894
 20
311.97644064137359
 11
388.51617765418854
 21
311.97644064137359
  0
LINE
  8
_0-f_
  6
CONTINUOUS
 62
    7
 10
387.86849238695555
 20
311.97644064137359
 11
386.5971791525896
 21
311.97644064137359
  0
LINE
  8
_0-f_
  6
CONTINUOUS
 62
    7
 10
391.02018565418894
 20
312.05644064137363
 11
388.51617765418854
 21
312.05644064137363
  0
LINE
  8
_0-f_
  6
CONTINUOUS
 62
    7
 10
387.83583705257843
 20
312.05644064137363
 11
386.63042247539119
 21
312.05644064137363
  0
LINE
  8
_0-f_
  6
CONTINUOUS
 62
    7
 10
391.02018565418894
 20
312.13644064137355
 11
388.51617765418854
 21
312.13644064137355
  0
LINE
  8
_0-f_
  6
CONTINUOUS
 62
    7
 10
387.80318171820136
 20
312.13644064137355
 11
386.66366579819277
 21
312.13644064137355
  0
LINE
  8
_0-f_
  6
CONTINUOUS
 62
    7
 10
391.02018565418894
 20
312.21644064137359
 11
388.51617765418854
 21
312.21644064137359
  0
LINE
  8
_0-f_
  6
CONTINUOUS
 62
    7
 10
387.77052638382423
 20
312.21644064137359
 11
386.69690912099435
 21
312.21644064137359
  0
LINE
  8
_0-f_
  6
CONTINUOUS
 62
    7
 10
390.00019365418905
 20
312.29644064137358
 11
389.48019365418878
 21
312.29644064137358
  0
LINE
  8
_0-f_
  6
CONTINUOUS
 62
    7
 10
387.73787104944716
 20
312.29644064137358
 11
386.73015244379593
 21
312.29644064137358
  0
LINE
  8
_0-f_
  6
CONTINUOUS
 62
    7
 10
390.00019365418905
 20
312.37644064137356
 11
389.48019365418878
 21
312.37644064137356
  0
LINE
  8
_0-f_
  6
CONTINUOUS
 62
    7
 10
387.70521571507004
 20
312.37644064137356
 11
386.76339576659751
 21
312.37644064137356
  0
LINE
  8
_0-f_
  6
CONTINUOUS
 62
    7
 10
390.00019365418905
 20
312.4564406413736
 11
389.48019365418878
 21
312.4564406413736
  0
LINE
  8
_0-f_
  6
CONTINUOUS
 62
    7
 10
387.67256038069303
 20
312.4564406413736
 11
386.79663908939909
 21
312.4564406413736
  0
LINE
  8
_0-f_
  6
CONTINUOUS
 62
    7
 10
390.00019365418905
 20
312.53644064137364
 11
389.48019365418878
 21
312.53644064137364
  0
LINE
  8
_0-f_
  6
CONTINUOUS
 62
    7
 10
387.63990504631585
 20
312.53644064137364
 11
386.82988241220067
 21
312.53644064137364
  0
LINE
  8
_0-f_
  6
CONTINUOUS
 62
    7
 10
390.00019365418905
 20
312.61644064137363
 11
389.48019365418878
 21
312.61644064137363
  0
LINE
  8
_0-f_
  6
CONTINUOUS
 62
    7
 10
387.60724971193878
 20
312.61644064137363
 11
386.86312573500226
 21
312.61644064137363
  0
LINE
  8
_0-f_
  6
CONTINUOUS
 62
    7
 10
390.00019365418905
 20
312.69644064137361
 11
389.48019365418878
 21
312.69644064137361
  0
LINE
  8
_0-f_
  6
CONTINUOUS
 62
    7
 10
387.57459437756171
 20
312.69644064137361
 11
386.89636905780384
 21
312.69644064137361
  0
LINE
  8
_0-f_
  6
CONTINUOUS
 62
    7
 10
390.00019365418905
 20
312.77644064137365
 11
389.48019365418878
 21
312.77644064137365
  0
LINE
  8
_0-f_
  6
CONTINUOUS
 62
    7
 10
387.54193904318464
 20
312.77644064137365
 11
386.92961238060542
 21
312.77644064137365
  0
LINE
  8
_0-f_
  6
CONTINUOUS
 62
    7
 10
390.00019365418905
 20
312.85644064137358
 11
389.48019365418878
 21
312.85644064137358
  0
LINE
  8
_0-f_
  6
CONTINUOUS
 62
    7
 10
387.50928370880757
 20
312.85644064137358
 11
386.96285570340694
 21
312.85644064137358
  0
LINE
  8
_0-f_
  6
CONTINUOUS
 62
    7
 10
391.02018565418911
 20
312.93644064137362
 11
388.51617765418888
 21
312.93644064137362
  0
LINE
  8
_0-f_
  6
CONTINUOUS
 62
    7
 10
388.16417765418856
 20
312.93644064137362
 11
386.30019365418912
 21
312.93644064137362
  0
LINE
  8
_0-f_
  6
CONTINUOUS
 62
    7
 10
391.02018565418911
 20
313.01644064137361
 11
388.51617765418888
 21
313.01644064137361
  0
LINE
  8
_0-f_
  6
CONTINUOUS
 62
    7
 10
388.16417765418856
 20
313.01644064137361
 11
386.30019365418912
 21
313.01644064137361
  0
LINE
  8
_0-f_
  6
CONTINUOUS
 62
    7
 10
391.02018565418911
 20
313.09644064137359
 11
388.51617765418888
 21
313.09644064137359
  0
LINE
  8
_0-f_
  6
CONTINUOUS
 62
    7
 10
388.16417765418856
 20
313.09644064137359
 11
386.30019365418912
 21
313.09644064137359
  0
LINE
  8
_0-f_
  6
CONTINUOUS
 62
    7
 10
391.02018565418911
 20
313.17644064137363
 11
388.51617765418888
 21
313.17644064137363
  0
LINE
  8
_0-f_
  6
CONTINUOUS
 62
    7
 10
388.16417765418856
 20
313.17644064137363
 11
386.30019365418912
 21
313.17644064137363
  0
LINE
  8
_0-f_
  6
CONTINUOUS
 62
    7
 10
391.02018565418911
 20
313.25644064137356
 11
388.51617765418888
 21
313.25644064137356
  0
LINE
  8
_0-f_
  6
CONTINUOUS
 62
    7
 10
388.16417765418856
 20
313.25644064137356
 11
386.30019365418912
 21
313.25644064137356
  0
LINE
  8
_0-f_
  6
CONTINUOUS
 62
    7
 10
391.02018565418911
 20
313.3364406413736
 11
388.51617765418888
 21
313.3364406413736
  0
LINE
  8
_0-f_
  6
CONTINUOUS
 62
    7
 10
388.16417765418856
 20
313.3364406413736
 11
386.30019365418912
 21
313.3364406413736
  0
LINE
  8
_0-f_
  6
CONTINUOUS
 62
    7
 10
390.00019365418865
 20
313.41644064137358
 11
389.48019365418878
 21
313.41644064137364
  0
LINE
  8
_0-f_
  6
CONTINUOUS
 62
    7
 10
389.01617765418877
 20
313.41644064137364
 11
388.51617765418888
 21
313.41644064137364
  0
LINE
  8
_0-f_
  6
CONTINUOUS
 62
    7
 10
387.49618565418911
 20
313.41644064137364
 11
386.97616965418899
 21
313.41644064137364
  0
LINE
  8
_0-f_
  6
CONTINUOUS
 62
    7
 10
390.00019365418865
 20
313.49644064137357
 11
389.48019365418878
 21
313.49644064137357
  0
LINE
  8
_0-f_
  6
CONTINUOUS
 62
    7
 10
389.01617765418877
 20
313.49644064137357
 11
388.51617765418888
 21
313.49644064137357
  0
LINE
  8
_0-f_
  6
CONTINUOUS
 62
    7
 10
387.49618565418911
 20
313.49644064137357
 11
386.97616965418899
 21
313.49644064137357
  0
LINE
  8
_0-f_
  6
CONTINUOUS
 62
    7
 10
390.00019365418865
 20
313.57644064137361
 11
389.48019365418878
 21
313.57644064137361
  0
LINE
  8
_0-f_
  6
CONTINUOUS
 62
    7
 10
389.01617765418877
 20
313.57644064137361
 11
388.51617765418888
 21
313.57644064137361
  0
LINE
  8
_0-f_
  6
CONTINUOUS
 62
    7
 10
387.49618565418911
 20
313.57644064137361
 11
386.97616965418899
 21
313.57644064137361
  0
LINE
  8
_0-f_
  6
CONTINUOUS
 62
    7
 10
390.00019365418865
 20
313.65644064137365
 11
389.48019365418878
 21
313.65644064137365
  0
LINE
  8
_0-f_
  6
CONTINUOUS
 62
    7
 10
389.01617765418877
 20
313.65644064137365
 11
388.51617765418888
 21
313.65644064137365
  0
LINE
  8
_0-f_
  6
CONTINUOUS
 62
    7
 10
387.49618565418911
 20
313.65644064137365
 11
386.97616965418899
 21
313.65644064137365
  0
LINE
  8
_0-f_
  6
CONTINUOUS
 62
    7
 10
390.00019365418865
 20
313.73644064137363
 11
389.48019365418878
 21
313.73644064137363
  0
LINE
  8
_0-f_
  6
CONTINUOUS
 62
    7
 10
389.01617765418877
 20
313.73644064137363
 11
388.51617765418888
 21
313.73644064137363
  0
LINE
  8
_0-f_
  6
CONTINUOUS
 62
    7
 10
387.49618565418911
 20
313.73644064137363
 11
386.97616965418899
 21
313.73644064137363
  0
LINE
  8
_0-f_
  6
CONTINUOUS
 62
    7
 10
390.00019365418865
 20
313.81644064137362
 11
389.48019365418878
 21
313.81644064137362
  0
LINE
  8
_0-f_
  6
CONTINUOUS
 62
    7
 10
389.01617765418877
 20
313.81644064137362
 11
388.51617765418888
 21
313.81644064137362
  0
LINE
  8
_0-f_
  6
CONTINUOUS
 62
    7
 10
387.49618565418911
 20
313.81644064137362
 11
386.97616965418899
 21
313.81644064137362
  0
LINE
  8
_0-f_
  6
CONTINUOUS
 62
    7
 10
390.00019365418865
 20
313.89644064137366
 11
389.48019365418878
 21
313.89644064137366
  0
LINE
  8
_0-f_
  6
CONTINUOUS
 62
    7
 10
389.01617765418877
 20
313.89644064137366
 11
388.51617765418888
 21
313.89644064137366
  0
LINE
  8
_0-f_
  6
CONTINUOUS
 62
    7
 10
387.49618565418911
 20
313.89644064137366
 11
386.97616965418899
 21
313.89644064137366
  0
LINE
  8
_0-f_
  6
CONTINUOUS
 62
    7
 10
390.00019365418865
 20
313.97644064137359
 11
389.48019365418878
 21
313.97644064137359
  0
LINE
  8
_0-f_
  6
CONTINUOUS
 62
    7
 10
389.01617765418877
 20
313.97644064137359
 11
388.51617765418888
 21
313.97644064137359
  0
LINE
  8
_0-f_
  6
CONTINUOUS
 62
    7
 10
387.49618565418911
 20
313.97644064137359
 11
386.97616965418899
 21
313.97644064137359
  0
LINE
  8
_0-f_
  6
CONTINUOUS
 62
    7
 10
391.02018565418894
 20
311.8964406413736
 11
388.51617765418854
 21
311.8964406413736
  0
LINE
  8
_0-f_
  6
CONTINUOUS
 62
    7
 10
387.90114772133262
 20
311.8964406413736
 11
386.56393582978802
 21
311.8964406413736
  0
LINE
  8
_0-f_
  6
CONTINUOUS
 62
    7
 10
391.02018565418894
 20
311.81644064137362
 11
388.51617765418854
 21
311.81644064137362
  0
LINE
  8
_0-f_
  6
CONTINUOUS
 62
    7
 10
387.93380305570969
 20
311.81644064137362
 11
386.53069250698644
 21
311.81644064137362
  0
LINE
  8
_0-f_
  6
CONTINUOUS
 62
    7
 10
390.31152827026671
 20
311.73644064137358
 11
389.16909446229261
 21
311.73644064137358
  0
LINE
  8
_0-f_
  6
CONTINUOUS
 62
    7
 10
387.96645839008676
 20
311.73644064137358
 11
387.5155590812775
 21
311.73644064137358
  0
LINE
  8
_0-f_
  6
CONTINUOUS
 62
    7
 10
387.49618565418905
 20
311.73644064137358
 11
386.97616965418894
 21
311.73644064137358
  0
LINE
  8
_0-f_
  6
CONTINUOUS
 62
    7
 10
386.95790396585988
 20
311.73644064137358
 11
386.49744918418486
 21
311.73644064137358
  0
LINE
  8
_0-f_
  6
CONTINUOUS
 62
    7
 10
390.34498993761594
 20
311.65644064137354
 11
389.13612381436229
 21
311.65644064137354
  0
LINE
  8
_0-f_
  6
CONTINUOUS
 62
    7
 10
387.99911372446394
 20
311.65644064137354
 11
387.54606841527533
 21
311.65644064137354
  0
LINE
  8
_0-f_
  6
CONTINUOUS
 62
    7
 10
387.49618565418905
 20
311.65644064137354
 11
386.97616965418894
 21
311.65644064137354
  0
LINE
  8
_0-f_
  6
CONTINUOUS
 62
    7
 10
386.92577999764131
 20
311.65644064137354
 11
386.46420586138328
 21
311.65644064137354
  0
LINE
  8
_0-f_
  6
CONTINUOUS
 62
    7
 10
390.37845160496528
 20
311.57644064137361
 11
389.10315316643192
 21
311.57644064137361
  0
LINE
  8
_0-f_
  6
CONTINUOUS
 62
    7
 10
388.03176905884101
 20
311.57644064137361
 11
387.57657774927321
 21
311.57644064137361
  0
LINE
  8
_0-f_
  6
CONTINUOUS
 62
    7
 10
387.49618565418905
 20
311.57644064137361
 11
386.97616965418894
 21
311.57644064137361
  0
LINE
  8
_0-f_
  6
CONTINUOUS
 62
    7
 10
386.89365602942274
 20
311.57644064137361
 11
386.4309625385817
 21
311.57644064137361
  0
LINE
  8
_0-f_
  6
CONTINUOUS
 62
    7
 10
390.41191327231451
 20
311.49644064137357
 11
389.07018251850155
 21
311.49644064137357
  0
LINE
  8
_0-f_
  6
CONTINUOUS
 62
    7
 10
388.06442439321808
 20
311.49644064137357
 11
387.60708708327104
 21
311.49644064137357
  0
LINE
  8
_0-f_
  6
CONTINUOUS
 62
    7
 10
387.49618565418905
 20
311.49644064137357
 11
386.97616965418894
 21
311.49644064137357
  0
LINE
  8
_0-f_
  6
CONTINUOUS
 62
    7
 10
386.86153206120417
 20
311.49644064137357
 11
386.39771921578017
 21
311.49644064137357
  0
LINE
  8
_0-f_
  6
CONTINUOUS
 62
    7
 10
390.44537493966385
 20
311.41644064137364
 11
389.0372118705713
 21
311.41644064137353
  0
LINE
  8
_0-f_
  6
CONTINUOUS
 62
    7
 10
388.09707972759514
 20
311.41644064137353
 11
387.63759641726887
 21
311.41644064137353
  0
LINE
  8
_0-f_
  6
CONTINUOUS
 62
    7
 10
387.49618565418905
 20
311.41644064137353
 11
386.97616965418894
 21
311.41644064137353
  0
LINE
  8
_0-f_
  6
CONTINUOUS
 62
    7
 10
386.8294080929856
 20
311.41644064137364
 11
386.36447589297859
 21
311.41644064137353
  0
LINE
  8
_0-f_
  6
CONTINUOUS
 62
    7
 10
390.47883660701308
 20
311.3364406413736
 11
389.00424122264093
 21
311.3364406413736
  0
LINE
  8
_0-f_
  6
CONTINUOUS
 62
    7
 10
388.24418565418893
 20
311.3364406413736
 11
387.66810575126669
 21
311.3364406413736
  0
LINE
  8
_0-f_
  6
CONTINUOUS
 62
    7
 10
387.49618565418905
 20
311.3364406413736
 11
386.97616965418894
 21
311.3364406413736
  0
LINE
  8
_0-f_
  6
CONTINUOUS
 62
    7
 10
386.79728412476703
 20
311.3364406413736
 11
386.33123257017695
 21
311.3364406413736
  0
LINE
  8
_0-f_
  6
CONTINUOUS
 62
    7
 10
390.51229827436242
 20
311.25644064137356
 11
390.00654915323162
 21
311.25644064137356
  0
LINE
  8
_0-f_
  6
CONTINUOUS
 62
    7
 10
390.00019365418888
 20
311.25644064137356
 11
389.48019365418912
 21
311.25644064137356
  0
LINE
  8
_0-f_
  6
CONTINUOUS
 62
    7
 10
389.47397361057739
 20
311.25644064137356
 11
388.97127057471056
 21
311.25644064137356
  0
LINE
  8
_0-f_
  6
CONTINUOUS
 62
    7
 10
388.24418565418893
 20
311.25644064137356
 11
387.69861508526452
 21
311.25644064137356
  0
LINE
  8
_0-f_
  6
CONTINUOUS
 62
    7
 10
387.49618565418905
 20
311.25644064137356
 11
386.97616965418894
 21
311.25644064137356
  0
LINE
  8
_0-f_
  6
CONTINUOUS
 62
    7
 10
386.76516015654852
 20
311.25644064137356
 11
386.29798924737543
 21
311.25644064137356
  0
LINE
  8
_0-f_
  6
CONTINUOUS
 62
    7
 10
390.54575994171165
 20
311.17644064137357
 11
390.04086610270616
 21
311.17644064137357
  0
LINE
  8
_0-f_
  6
CONTINUOUS
 62
    7
 10
390.00019365418888
 20
311.17644064137357
 11
389.48019365418912
 21
311.17644064137357
  0
LINE
  8
_0-f_
  6
CONTINUOUS
 62
    7
 10
389.44024235454862
 20
311.17644064137357
 11
388.93829992678019
 21
311.17644064137357
  0
LINE
  8
_0-f_
  6
CONTINUOUS
 62
    7
 10
388.24418565418893
 20
311.17644064137357
 11
387.7291244192624
 21
311.17644064137357
  0
LINE
  8
_0-f_
  6
CONTINUOUS
 62
    7
 10
387.49618565418905
 20
311.17644064137357
 11
386.97616965418894
 21
311.17644064137357
  0
LINE
  8
_0-f_
  6
CONTINUOUS
 62
    7
 10
386.73303618832989
 20
311.17644064137357
 11
386.22018565418904
 21
311.17644064137357
  0
LINE
  8
_0-f_
  6
CONTINUOUS
 62
    7
 10
390.57922160906099
 20
311.09644064137359
 11
390.07518305218076
 21
311.09644064137359
  0
LINE
  8
_0-f_
  6
CONTINUOUS
 62
    7
 10
390.00019365418888
 20
311.09644064137359
 11
389.48019365418912
 21
311.09644064137359
  0
LINE
  8
_0-f_
  6
CONTINUOUS
 62
    7
 10
389.40651109851984
 20
311.09644064137359
 11
388.90532927884988
 21
311.09644064137359
  0
LINE
  8
_0-f_
  6
CONTINUOUS
 62
    7
 10
388.24418565418893
 20
311.09644064137359
 11
387.75963375326029
 21
311.09644064137359
  0
LINE
  8
_0-f_
  6
CONTINUOUS
 62
    7
 10
387.49618565418905
 20
311.09644064137359
 11
386.97616965418894
 21
311.09644064137359
  0
LINE
  8
_0-f_
  6
CONTINUOUS
 62
    7
 10
386.70091222011143
 20
311.09644064137359
 11
386.22018565418904
 21
311.09644064137359
  0
LINE
  8
_0-f_
  6
CONTINUOUS
 62
    7
 10
390.61268327641028
 20
311.01644064137355
 11
390.10950000165536
 21
311.01644064137355
  0
LINE
  8
_0-f_
  6
CONTINUOUS
 62
    7
 10
390.00019365418888
 20
311.01644064137355
 11
389.48019365418912
 21
311.01644064137355
  0
LINE
  8
_0-f_
  6
CONTINUOUS
 62
    7
 10
389.37277984249113
 20
311.01644064137355
 11
388.87235863091956
 21
311.01644064137355
  0
LINE
  8
_0-f_
  6
CONTINUOUS
 62
    7
 10
388.24418565418893
 20
311.01644064137355
 11
387.79686491080821
 21
311.01644064137355
  0
LINE
  8
_0-f_
  6
CONTINUOUS
 62
    7
 10
387.49618565418905
 20
311.01644064137355
 11
386.97616965418894
 21
311.01644064137355
  0
LINE
  8
_0-f_
  6
CONTINUOUS
 62
    7
 10
386.66878825189286
 20
311.01644064137355
 11
386.22018565418904
 21
311.01644064137355
  0
LINE
  8
_0-f_
  6
CONTINUOUS
 62
    7
 10
390.64614494375957
 20
310.93644064137362
 11
390.14381695112991
 21
310.93644064137362
  0
LINE
  8
_0-f_
  6
CONTINUOUS
 62
    7
 10
390.00019365418888
 20
310.93644064137362
 11
389.48019365418912
 21
310.93644064137362
  0
LINE
  8
_0-f_
  6
CONTINUOUS
 62
    7
 10
389.33904858646235
 20
310.93644064137362
 11
388.83938798298925
 21
310.93644064137362
  0
LINE
  8
_0-f_
  6
CONTINUOUS
 62
    7
 10
388.24418565418893
 20
310.93644064137362
 11
387.90912740705642
 21
310.93644064137362
  0
LINE
  8
_0-f_
  6
CONTINUOUS
 62
    7
 10
387.49618565418905
 20
310.93644064137362
 11
386.97616965418894
 21
310.93644064137362
  0
LINE
  8
_0-f_
  6
CONTINUOUS
 62
    7
 10
386.63666428367429
 20
310.93644064137362
 11
386.22018565418904
 21
310.93644064137362
  0
LINE
  8
_0-f_
  6
CONTINUOUS
 62
    7
 10
390.67960661110885
 20
310.85644064137358
 11
390.17813390060445
 21
310.85644064137358
  0
LINE
  8
_0-f_
  6
CONTINUOUS
 62
    7
 10
390.00019365418888
 20
310.85644064137358
 11
389.48019365418912
 21
310.85644064137358
  0
LINE
  8
_0-f_
  6
CONTINUOUS
 62
    7
 10
389.30531733043358
 20
310.85644064137358
 11
388.80641733505894
 21
310.85644064137358
  0
LINE
  8
_0-f_
  6
CONTINUOUS
 62
    7
 10
387.49618565418905
 20
310.85644064137358
 11
386.97616965418894
 21
310.85644064137358
  0
LINE
  8
_0-f_
  6
CONTINUOUS
 62
    7
 10
386.60454031545572
 20
310.85644064137358
 11
386.22018565418904
 21
310.85644064137358
  0
LINE
  8
_0-f_
  6
CONTINUOUS
 62
    7
 10
390.71306827845814
 20
310.7764406413736
 11
390.21245085007905
 21
310.7764406413736
  0
LINE
  8
_0-f_
  6
CONTINUOUS
 62
    7
 10
390.00019365418888
 20
310.7764406413736
 11
389.48019365418912
 21
310.7764406413736
  0
LINE
  8
_0-f_
  6
CONTINUOUS
 62
    7
 10
389.27158607440481
 20
310.7764406413736
 11
388.77344668712857
 21
310.7764406413736
  0
LINE
  8
_0-f_
  6
CONTINUOUS
 62
    7
 10
387.49618565418905
 20
310.7764406413736
 11
386.97616965418894
 21
310.7764406413736
  0
LINE
  8
_0-f_
  6
CONTINUOUS
 62
    7
 10
386.54610308004106
 20
310.7764406413736
 11
386.22018565418904
 21
310.7764406413736
  0
LINE
  8
_0-f_
  6
CONTINUOUS
 62
    7
 10
390.74652994580742
 20
310.69644064137361
 11
390.24676779955365
 21
310.69644064137361
  0
LINE
  8
_0-f_
  6
CONTINUOUS
 62
    7
 10
390.00019365418888
 20
310.69644064137361
 11
389.48019365418912
 21
310.69644064137361
  0
LINE
  8
_0-f_
  6
CONTINUOUS
 62
    7
 10
389.23785481837604
 20
310.69644064137361
 11
388.74047603919826
 21
310.69644064137361
  0
LINE
  8
_0-f_
  6
CONTINUOUS
 62
    7
 10
387.49618565418905
 20
310.69644064137361
 11
386.97616965418894
 21
310.69644064137361
  0
LINE
  8
_0-f_
  6
CONTINUOUS
 62
    7
 10
390.77999161315677
 20
310.61644064137357
 11
390.28108474902825
 21
310.61644064137357
  0
LINE
  8
_0-f_
  6
CONTINUOUS
 62
    7
 10
390.00019365418888
 20
310.61644064137357
 11
389.48019365418912
 21
310.61644064137357
  0
LINE
  8
_0-f_
  6
CONTINUOUS
 62
    7
 10
389.20412356234732
 20
310.61644064137357
 11
388.70750539126794
 21
310.61644064137357
  0
LINE
  8
_0-f_
  6
CONTINUOUS
 62
    7
 10
387.49618565418905
 20
310.61644064137357
 11
386.97616965418894
 21
310.61644064137357
  0
LINE
  8
_0-f_
  6
CONTINUOUS
 62
    7
 10
390.81345328050605
 20
310.53644064137353
 11
390.3154016985028
 21
310.53644064137353
  0
LINE
  8
_0-f_
  6
CONTINUOUS
 62
    7
 10
390.00019365418888
 20
310.53644064137353
 11
389.48019365418912
 21
310.53644064137353
  0
LINE
  8
_0-f_
  6
CONTINUOUS
 62
    7
 10
389.17039230631855
 20
310.53644064137353
 11
388.67453474333757
 21
310.53644064137353
  0
LINE
  8
_0-f_
  6
CONTINUOUS
 62
    7
 10
387.49618565418905
 20
310.53644064137353
 11
386.97616965418894
 21
310.53644064137353
  0
LINE
  8
_0-f_
  6
CONTINUOUS
 62
    7
 10
390.85431283834947
 20
310.4564406413736
 11
390.34971864797734
 21
310.45644064137355
  0
LINE
  8
_0-f_
  6
CONTINUOUS
 62
    7
 10
390.00019365418888
 20
310.45644064137355
 11
389.48019365418912
 21
310.45644064137355
  0
LINE
  8
_0-f_
  6
CONTINUOUS
 62
    7
 10
389.13666105028977
 20
310.45644064137355
 11
388.63374019896844
 21
310.45644064137355
  0
LINE
  8
_0-f_
  6
CONTINUOUS
 62
    7
 10
387.49618565418905
 20
310.45644064137355
 11
386.97616965418894
 21
310.45644064137355
  0
LINE
  8
_0-f_
  6
CONTINUOUS
 62
    7
 10
391.02018565418842
 20
310.37644064137356
 11
390.38403559745194
 21
310.37644064137356
  0
LINE
  8
_0-f_
  6
CONTINUOUS
 62
    7
 10
390.00019365418888
 20
310.37644064137356
 11
389.48019365418912
 21
310.37644064137356
  0
LINE
  8
_0-f_
  6
CONTINUOUS
 62
    7
 10
389.102929794261
 20
310.37644064137356
 11
388.48420165418935
 21
310.37644064137356
  0
LINE
  8
_0-f_
  6
CONTINUOUS
 62
    7
 10
387.49618565418905
 20
310.37644064137356
 11
386.97616965418894
 21
310.37644064137356
  0
LINE
  8
_0-f_
  6
CONTINUOUS
 62
    7
 10
391.02018565418842
 20
310.29644064137352
 11
390.41835254692654
 21
310.29644064137352
  0
LINE
  8
_0-f_
  6
CONTINUOUS
 62
    7
 10
390.00019365418888
 20
310.29644064137352
 11
389.48019365418912
 21
310.29644064137352
  0
LINE
  8
_0-f_
  6
CONTINUOUS
 62
    7
 10
389.06919853823223
 20
310.29644064137352
 11
388.48420165418935
 21
310.29644064137352
  0
LINE
  8
_0-f_
  6
CONTINUOUS
 62
    7
 10
387.49618565418905
 20
310.29644064137352
 11
386.97616965418894
 21
310.29644064137352
  0
LINE
  8
_0-f_
  6
CONTINUOUS
 62
    7
 10
391.02018565418842
 20
310.21644064137359
 11
390.45266949640114
 21
310.21644064137359
  0
LINE
  8
_0-f_
  6
CONTINUOUS
 62
    7
 10
390.00019365418888
 20
310.21644064137359
 11
389.48019365418912
 21
310.21644064137359
  0
LINE
  8
_0-f_
  6
CONTINUOUS
 62
    7
 10
389.03546728220346
 20
310.21644064137359
 11
388.48420165418935
 21
310.21644064137359
  0
LINE
  8
_0-f_
  6
CONTINUOUS
 62
    7
 10
387.49618565418905
 20
310.21644064137359
 11
386.97616965418894
 21
310.21644064137359
  0
LINE
  8
_0-f_
  6
CONTINUOUS
 62
    7
 10
391.02018565418842
 20
310.13644064137355
 11
390.48943539201406
 21
310.13644064137355
  0
LINE
  8
_0-f_
  6
CONTINUOUS
 62
    7
 10
390.00019365418888
 20
310.13644064137355
 11
389.48019365418912
 21
310.13644064137355
  0
LINE
  8
_0-f_
  6
CONTINUOUS
 62
    7
 10
388.99894597479744
 20
310.13644064137355
 11
388.48420165418935
 21
310.13644064137355
  0
LINE
  8
_0-f_
  6
CONTINUOUS
 62
    7
 10
387.49618565418905
 20
310.13644064137355
 11
386.97616965418894
 21
310.13644064137355
  0
LINE
  8
_0-f_
  6
CONTINUOUS
 62
    7
 10
391.02018565418842
 20
310.05644064137357
 11
390.56508871774059
 21
310.05644064137357
  0
LINE
  8
_0-f_
  6
CONTINUOUS
 62
    7
 10
390.00019365418888
 20
310.05644064137357
 11
389.48019365418912
 21
310.05644064137357
  0
LINE
  8
_0-f_
  6
CONTINUOUS
 62
    7
 10
388.92341573544655
 20
310.05644064137357
 11
388.48420165418935
 21
310.05644064137357
  0
LINE
  8
_0-f_
  6
CONTINUOUS
 62
    7
 10
387.49618565418905
 20
310.05644064137357
 11
386.97616965418894
 21
310.05644064137357
  0
LINE
  8
_0-f_
  6
CONTINUOUS
 62
    7
 10
388.51617765418888
 20
314.01648064137362
 11
389.01617765418888
 21
314.01648064137362
  0
LINE
  8
_0-f_
  6
CONTINUOUS
 62
    7
 10
389.48019365418901
 20
312.89656064137358
 11
388.51617765418888
 21
312.89656064137358
  0
LINE
  8
_0-f_
  6
CONTINUOUS
 62
    7
 10
389.48019365418901
 20
312.2246806413736
 11
388.51617765418888
 21
312.2246806413736
  0
LINE
  8
_0-f_
  6
CONTINUOUS
 62
    7
 10
388.51617765418888
 20
311.78464064137364
 11
389.18895927767062
 21
311.78464064137364
  0
LINE
  8
_0-f_
  6
CONTINUOUS
 62
    7
 10
389.18895927767062
 20
311.78464064137364
 11
388.65568998984213
 21
310.49071572013992
  0
ARC
  8
_0-f_
  6
CONTINUOUS
 62
    7
 10
388.79187143763585
 20
310.25644064137356
 40
0.2399999999999999
 50
270
 51
337.13773188217988
  0
LINE
  8
_0-f_
  6
CONTINUOUS
 62
    7
 10
386.97952722979193
 20
312.89656064137358
 11
386.29894898516358
 21
311.25875024873488
  0
LINE
  8
_0-f_
  6
CONTINUOUS
 62
    7
 10
387.4929070586175
 20
312.89656064137358
 11
388.07961955863863
 21
311.45921507756219
  0
LINE
  8
_0-f_
  6
CONTINUOUS
 62
    7
 10
386.97616965418894
 20
311.78192864137355
 11
386.60397573665017
 21
310.85503464121388
  0
LINE
  8
_0-f_
  6
CONTINUOUS
 62
    7
 10
386.22018565418892
 20
311.20944864137363
 11
386.22018565418892
 21
310.72956064137361
  0
LINE
  8
_0-f_
  6
CONTINUOUS
 62
    7
 10
386.22018565418892
 20
310.72956064137361
 11
386.41837973642333
 21
310.72956064137361
  0
ARC
  8
_0-f_
  6
CONTINUOUS
 62
    7
 10
386.41837973642333
 20
310.9295606413736
 40
0.2
 50
270
 51
338.12209204226036
  0
LINE
  8
_0-f_
  6
CONTINUOUS
 62
    7
 10
386.22507335528871
 20
311.20944864137363
 11
386.22018565418892
 21
311.20944864137363
  0
ARC
  8
_0-f_
  6
CONTINUOUS
 62
    7
 10
386.22507335528871
 20
311.28944864137355
 40
0.08
 50
270
 51
337.43508599410586
  0
ARC
  8
_0-f_
  6
CONTINUOUS
 62
    7
 10
387.96105340085381
 20
311.12956064137359
 40
0.2
 50
200.8751841896235
 51
270
  0
LINE
  8
_0-f_
  6
CONTINUOUS
 62
    7
 10
386.97616965418894
 20
310.01644064137361
 11
386.97616965418894
 21
311.78192864137355
  0
LINE
  8
_0-f_
  6
CONTINUOUS
 62
    7
 10
387.49618565418899
 20
310.01644064137361
 11
387.49618565418899
 21
311.78724064137356
  0
LINE
  8
_0-f_
  6
CONTINUOUS
 62
    7
 10
386.97616965418894
 20
310.01644064137361
 11
387.49618565418899
 21
310.01644064137361
  0
LINE
  8
_0-f_
  6
CONTINUOUS
 62
    7
 10
387.49618565418899
 20
311.78724064137356
 11
387.77418162161433
 21
311.0582939722787
  0
LINE
  8
_0-f_
  6
CONTINUOUS
 62
    7
 10
388.24418565418893
 20
310.9295606413736
 11
388.24418565418893
 21
311.40944864137361
  0
LINE
  8
_0-f_
  6
CONTINUOUS
 62
    7
 10
388.24418565418893
 20
310.9295606413736
 11
387.96105340085381
 21
310.9295606413736
  0
ARC
  8
_0-f_
  6
CONTINUOUS
 62
    7
 10
388.54474301341565
 20
310.53644064137364
 40
0.12
 50
270
 51
337.60181985621841
  0
LINE
  8
_0-f_
  6
CONTINUOUS
 62
    7
 10
388.48420165418901
 20
310.41644064137358
 11
388.54474301341565
 21
310.41644064137358
  0
LINE
  8
_0-f_
  6
CONTINUOUS
 62
    7
 10
388.48420165418901
 20
310.41644064137358
 11
388.48420165418901
 21
310.01644064137361
  0
LINE
  8
_0-f_
  6
CONTINUOUS
 62
    7
 10
388.48420165418901
 20
310.01644064137361
 11
388.79187143763585
 21
310.01644064137361
  0
LINE
  8
_0-f_
  6
CONTINUOUS
 62
    7
 10
388.24418565418893
 20
311.40944864137361
 11
388.15368663377507
 21
311.40944864137361
  0
ARC
  8
_0-f_
  6
CONTINUOUS
 62
    7
 10
388.15368663377507
 20
311.4894486413736
 40
0.08
 50
202.2048740517549
 51
270
  0
LINE
  8
_0-f_
  6
CONTINUOUS
 62
    7
 10
388.51617765418888
 20
311.78464064137364
 11
388.51617765418888
 21
312.2246806413736
  0
LINE
  8
_0-f_
  6
CONTINUOUS
 62
    7
 10
386.30019365418894
 20
313.33660064137359
 11
386.97616965418894
 21
313.33660064137359
  0
LINE
  8
_0-f_
  6
CONTINUOUS
 62
    7
 10
386.30019365418894
 20
312.89656064137358
 11
386.97952722979193
 21
312.89656064137358
  0
LINE
  8
_0-f_
  6
CONTINUOUS
 62
    7
 10
386.30019365418894
 20
313.33660064137359
 11
386.30019365418894
 21
312.89656064137358
  0
LINE
  8
_0-f_
  6
CONTINUOUS
 62
    7
 10
387.4929070586175
 20
312.89656064137358
 11
388.1641776541889
 21
312.89656064137358
  0
LINE
  8
_0-f_
  6
CONTINUOUS
 62
    7
 10
387.49618565418899
 20
313.33660064137359
 11
388.1641776541889
 21
313.33660064137359
  0
LINE
  8
_0-f_
  6
CONTINUOUS
 62
    7
 10
387.49618565418899
 20
313.33660064137359
 11
387.49618565418899
 21
314.01648064137362
  0
LINE
  8
_0-f_
  6
CONTINUOUS
 62
    7
 10
386.97616965418894
 20
313.33660064137359
 11
386.97616965418894
 21
314.01648064137362
  0
LINE
  8
_0-f_
  6
CONTINUOUS
 62
    7
 10
386.97616965418894
 20
312.88855264137356
 11
386.97616965418894
 21
312.89656064137358
  0
LINE
  8
_0-f_
  6
CONTINUOUS
 62
    7
 10
387.49618565418899
 20
312.88855264137356
 11
387.49618565418899
 21
312.89656064137358
  0
LINE
  8
_0-f_
  6
CONTINUOUS
 62
    7
 10
386.97616965418894
 20
314.01648064137362
 11
387.49618565418899
 21
314.01648064137362
  0
LINE
  8
_0-f_
  6
CONTINUOUS
 62
    7
 10
388.51617765418888
 20
312.89656064137358
 11
388.51617765418888
 21
314.01648064137362
  0
LINE
  8
_0-f_
  6
CONTINUOUS
 62
    7
 10
388.1641776541889
 20
312.89656064137358
 11
388.1641776541889
 21
313.33660064137359
  0
LINE
  8
_0-f_
  6
CONTINUOUS
 62
    7
 10
390.00019365418899
 20
312.89656064137358
 11
390.00019365418899
 21
312.2246806413736
  0
LINE
  8
_0-f_
  6
CONTINUOUS
 62
    7
 10
389.48019365418901
 20
312.89656064137358
 11
389.48019365418901
 21
312.2246806413736
  0
LINE
  8
_0-f_
  6
CONTINUOUS
 62
    7
 10
391.02018565418899
 20
312.2246806413736
 11
390.00019365418899
 21
312.2246806413736
  0
LINE
  8
_0-f_
  6
CONTINUOUS
 62
    7
 10
390.00019365418899
 20
311.27125664137361
 11
390.47609655409394
 21
310.16182726098515
  0
LINE
  8
_0-f_
  6
CONTINUOUS
 62
    7
 10
389.48019365418901
 20
311.2711926413736
 11
389.0130173884325
 21
310.16319650779798
  0
LINE
  8
_0-f_
  6
CONTINUOUS
 62
    7
 10
389.48019365418901
 20
311.2711926413736
 11
389.48019365418901
 21
310.01644064137361
  0
LINE
  8
_0-f_
  6
CONTINUOUS
 62
    7
 10
390.00019365418899
 20
311.27125664137361
 11
390.00019365418899
 21
310.01644064137361
  0
LINE
  8
_0-f_
  6
CONTINUOUS
 62
    7
 10
389.48019365418901
 20
310.01644064137361
 11
390.00019365418899
 21
310.01644064137361
  0
LINE
  8
_0-f_
  6
CONTINUOUS
 62
    7
 10
390.29136761568873
 20
311.78464064137364
 11
390.8328213637181
 21
310.49013551734043
  0
ARC
  8
_0-f_
  6
CONTINUOUS
 62
    7
 10
390.69666016907041
 20
310.25644064137356
 40
0.2399999999999999
 50
203.21748710460054
 51
270
  0
LINE
  8
_0-f_
  6
CONTINUOUS
 62
    7
 10
391.02018565418899
 20
310.01644064137361
 11
390.69666016907041
 21
310.01644064137361
  0
LINE
  8
_0-f_
  6
CONTINUOUS
 62
    7
 10
391.02018565418899
 20
310.41644064137358
 11
391.02018565418899
 21
310.01644064137361
  0
LINE
  8
_0-f_
  6
CONTINUOUS
 62
    7
 10
391.02018565418899
 20
310.41644064137358
 11
390.94352744073416
 21
310.41644064137358
  0
ARC
  8
_0-f_
  6
CONTINUOUS
 62
    7
 10
390.94352744073416
 20
310.53644064137364
 40
0.12
 50
202.6981362709997
 51
270
  0
LINE
  8
_0-f_
  6
CONTINUOUS
 62
    7
 10
390.29136761568873
 20
311.78464064137364
 11
391.02018565418899
 21
311.78464064137364
  0
LINE
  8
_0-f_
  6
CONTINUOUS
 62
    7
 10
391.02018565418899
 20
312.2246806413736
 11
391.02018565418899
 21
311.78464064137364
  0
LINE
  8
_0-f_
  6
CONTINUOUS
 62
    7
 10
391.02018565418899
 20
312.89656064137358
 11
390.00019365418899
 21
312.89656064137358
  0
LINE
  8
_0-f_
  6
CONTINUOUS
 62
    7
 10
391.02018565418899
 20
313.33660064137359
 11
390.00019365418899
 21
313.33660064137359
  0
LINE
  8
_0-f_
  6
CONTINUOUS
 62
    7
 10
390.00019365418899
 20
314.01648064137362
 11
390.00019365418899
 21
313.33660064137359
  0
LINE
  8
_0-f_
  6
CONTINUOUS
 62
    7
 10
389.48019365418901
 20
314.01648064137362
 11
389.48019365418901
 21
313.33660064137359
  0
LINE
  8
_0-f_
  6
CONTINUOUS
 62
    7
 10
389.01617765418888
 20
313.33660064137359
 11
389.01617765418888
 21
314.01648064137362
  0
LINE
  8
_0-f_
  6
CONTINUOUS
 62
    7
 10
389.48019365418901
 20
313.33660064137359
 11
389.01617765418888
 21
313.33660064137359
  0
LINE
  8
_0-f_
  6
CONTINUOUS
 62
    7
 10
389.48019365418901
 20
314.01648064137362
 11
390.00019365418899
 21
314.01648064137362
  0
LINE
  8
_0-f_
  6
CONTINUOUS
 62
    7
 10
391.02018565418899
 20
313.33660064137359
 11
391.02018565418899
 21
312.89656064137358
  0
LINE
  8
_0-f_
  6
CONTINUOUS
 62
    7
 10
394.19476389773729
 20
311.78464064137364
 11
394.19476389773729
 21
312.2246806413736
  0
LINE
  8
_0-f_
  6
CONTINUOUS
 62
    7
 10
394.19476389773729
 20
312.2246806413736
 11
391.79476389773737
 21
312.2246806413736
  0
LINE
  8
_0-f_
  6
CONTINUOUS
 62
    7
 10
391.79476389773737
 20
312.2246806413736
 11
391.79476389773737
 21
311.78464064137364
  0
LINE
  8
_0-f_
  6
CONTINUOUS
 62
    7
 10
391.79476389773737
 20
311.78464064137364
 11
392.5547718977374
 21
311.78464064137364
  0
LINE
  8
_0-f_
  6
CONTINUOUS
 62
    7
 10
392.5547718977374
 20
311.78464064137364
 11
392.5547718977374
 21
310.45652064137363
  0
LINE
  8
_0-f_
  6
CONTINUOUS
 62
    7
 10
392.5547718977374
 20
310.45652064137363
 11
391.79476389773737
 21
310.45652064137363
  0
LINE
  8
_0-f_
  6
CONTINUOUS
 62
    7
 10
391.79476389773737
 20
310.45652064137363
 11
391.79476389773737
 21
310.01644064137361
  0
LINE
  8
_0-f_
  6
CONTINUOUS
 62
    7
 10
391.79476389773737
 20
310.01644064137361
 11
393.28197189773738
 21
310.01644064137361
  0
ARC
  8
_0-f_
  6
CONTINUOUS
 62
    7
 10
393.28197189773738
 20
310.81644064137362
 40
0.8000000000000078
 50
270
 51
285.45094822953388
  0
LINE
  8
_0-f_
  6
CONTINUOUS
 62
    7
 10
393.49510253762338
 20
310.0453535319354
 11
394.19476389773729
 21
310.24732064137362
  0
LINE
  8
_0-f_
  6
CONTINUOUS
 62
    7
 10
394.19476389773729
 20
310.24732064137362
 11
394.19476389773729
 21
310.68740064137359
  0
LINE
  8
_0-f_
  6
CONTINUOUS
 62
    7
 10
394.19476389773729
 20
310.68740064137359
 11
393.39478789773744
 21
310.45652064137363
  0
LINE
  8
_0-f_
  6
CONTINUOUS
 62
    7
 10
393.39478789773744
 20
310.45652064137363
 11
393.29476389773725
 21
310.45652064137363
  0
LINE
  8
_0-f_
  6
CONTINUOUS
 62
    7
 10
393.29476389773725
 20
310.45652064137363
 11
393.29476389773725
 21
311.78464064137364
  0
LINE
  8
_0-f_
  6
CONTINUOUS
 62
    7
 10
393.29476389773725
 20
311.78464064137364
 11
394.19476389773729
 21
311.78464064137364
  0
LINE
  8
_0-f_
  6
CONTINUOUS
 62
    7
 10
395.26873063129898
 20
313.33660064137359
 11
395.11229249887714
 21
314.01648064137362
  0
LINE
  8
_0-f_
  6
CONTINUOUS
 62
    7
 10
395.11229249887714
 20
314.01648064137362
 11
394.27357423907011
 21
314.01648064137362
  0
LINE
  8
_0-f_
  6
CONTINUOUS
 62
    7
 10
394.27357423907011
 20
314.01648064137362
 11
394.43163362784117
 21
313.33660064137359
  0
LINE
  8
_0-f_
  6
CONTINUOUS
 62
    7
 10
394.43163362784117
 20
313.33660064137359
 11
391.79476389773737
 21
313.33660064137359
  0
LINE
  8
_0-f_
  6
CONTINUOUS
 62
    7
 10
391.79476389773737
 20
313.33660064137359
 11
391.79476389773737
 21
312.89656064137358
  0
LINE
  8
_0-f_
  6
CONTINUOUS
 62
    7
 10
391.79476389773737
 20
312.89656064137358
 11
394.53393470072871
 21
312.89656064137358
  0
LINE
  8
_0-f_
  6
CONTINUOUS
 62
    7
 10
394.53393470072871
 20
312.89656064137358
 11
395.11718667759277
 21
310.38774824425212
  0
ARC
  8
_0-f_
  6
CONTINUOUS
 62
    7
 10
395.58471845491698
 20
310.49644064137357
 40
0.4800000000000017
 50
193.0877165037698
 51
270
  0
LINE
  8
_0-f_
  6
CONTINUOUS
 62
    7
 10
395.58471845491698
 20
310.01644064137361
 11
396.59476389773738
 21
310.01644064137361
  0
LINE
  8
_0-f_
  6
CONTINUOUS
 62
    7
 10
396.59476389773738
 20
310.01644064137361
 11
396.59476389773738
 21
310.45652064137363
  0
LINE
  8
_0-f_
  6
CONTINUOUS
 62
    7
 10
396.59476389773738
 20
310.45652064137363
 11
395.99818107677771
 21
310.45652064137363
  0
ARC
  8
_0-f_
  6
CONTINUOUS
 62
    7
 10
395.99478789773735
 20
310.53644064137364
 40
0.0799919999999998
 50
267.56884201629123
 51
272.43115798371281
  0
LINE
  8
_0-f_
  6
CONTINUOUS
 62
    7
 10
395.99139471869711
 20
310.45652064137363
 11
395.93142748431086
 21
310.45652064137363
  0
LINE
  8
_0-f_
  6
CONTINUOUS
 62
    7
 10
395.93142748431086
 20
310.45652064137363
 11
395.91876163772901
 21
310.51156640061862
  0
ARC
  8
_0-f_
  6
CONTINUOUS
 62
    7
 10
395.99478789773735
 20
310.53644064137364
 40
0.0799919999999998
 50
187.79901102615551
 51
198.1170401314526
  0
LINE
  8
_0-f_
  6
CONTINUOUS
 62
    7
 10
395.91553580910767
 20
310.52558584926027
 11
395.36998237541695
 21
312.89656064137358
  0
LINE
  8
_0-f_
  6
CONTINUOUS
 62
    7
 10
395.36998237541695
 20
312.89656064137358
 11
396.59476389773738
 21
312.89656064137358
  0
LINE
  8
_0-f_
  6
CONTINUOUS
 62
    7
 10
396.59476389773738
 20
312.89656064137358
 11
396.59476389773738
 21
313.33660064137359
  0
LINE
  8
_0-f_
  6
CONTINUOUS
 62
    7
 10
396.59476389773738
 20
313.33660064137359
 11
395.26873063129898
 21
313.33660064137359
  0
LINE
  8
_0-f_
  6
CONTINUOUS
 62
    7
 10
396.27477189773737
 20
314.01648064137362
 11
395.75477189773738
 21
314.01648064137362
  0
LINE
  8
_0-f_
  6
CONTINUOUS
 62
    7
 10
395.75477189773738
 20
314.01648064137362
 11
395.75477189773738
 21
313.6604246413736
  0
LINE
  8
_0-f_
  6
CONTINUOUS
 62
    7
 10
395.75477189773738
 20
313.6604246413736
 11
396.27477189773737
 21
313.6604246413736
  0
LINE
  8
_0-f_
  6
CONTINUOUS
 62
    7
 10
396.27477189773737
 20
313.6604246413736
 11
396.27477189773737
 21
314.01648064137362
  0
LINE
  8
_0-f_
  6
CONTINUOUS
 62
    7
 10
395.58169893481573
 20
311.97644064137359
 11
394.74784539790477
 21
311.97644064137359
  0
LINE
  8
_0-f_
  6
CONTINUOUS
 62
    7
 10
394.194763897737
 20
311.97644064137359
 11
391.79476389773748
 21
311.97644064137359
  0
LINE
  8
_0-f_
  6
CONTINUOUS
 62
    7
 10
395.56329120022468
 20
312.05644064137363
 11
394.72924689360747
 21
312.05644064137363
  0
LINE
  8
_0-f_
  6
CONTINUOUS
 62
    7
 10
394.194763897737
 20
312.05644064137363
 11
391.79476389773748
 21
312.05644064137363
  0
LINE
  8
_0-f_
  6
CONTINUOUS
 62
    7
 10
395.54488346563363
 20
312.13644064137355
 11
394.71064838931011
 21
312.13644064137355
  0
LINE
  8
_0-f_
  6
CONTINUOUS
 62
    7
 10
394.194763897737
 20
312.13644064137355
 11
391.79476389773748
 21
312.13644064137355
  0
LINE
  8
_0-f_
  6
CONTINUOUS
 62
    7
 10
395.52647573104258
 20
312.21644064137359
 11
394.69204988501275
 21
312.21644064137359
  0
LINE
  8
_0-f_
  6
CONTINUOUS
 62
    7
 10
394.194763897737
 20
312.21644064137359
 11
391.79476389773748
 21
312.21644064137359
  0
LINE
  8
_0-f_
  6
CONTINUOUS
 62
    7
 10
395.50806799645153
 20
312.29644064137358
 11
394.67345138071533
 21
312.29644064137358
  0
LINE
  8
_0-f_
  6
CONTINUOUS
 62
    7
 10
395.48966026186054
 20
312.37644064137356
 11
394.65485287641803
 21
312.37644064137356
  0
LINE
  8
_0-f_
  6
CONTINUOUS
 62
    7
 10
395.47125252726948
 20
312.4564406413736
 11
394.63625437212067
 21
312.4564406413736
  0
LINE
  8
_0-f_
  6
CONTINUOUS
 62
    7
 10
395.45284479267849
 20
312.53644064137364
 11
394.61765586782332
 21
312.53644064137364
  0
LINE
  8
_0-f_
  6
CONTINUOUS
 62
    7
 10
395.43443705808744
 20
312.61644064137363
 11
394.59905736352601
 21
312.61644064137363
  0
LINE
  8
_0-f_
  6
CONTINUOUS
 62
    7
 10
395.41602932349639
 20
312.69644064137361
 11
394.5804588592286
 21
312.69644064137361
  0
LINE
  8
_0-f_
  6
CONTINUOUS
 62
    7
 10
395.39762158890534
 20
312.77644064137365
 11
394.56186035493124
 21
312.77644064137365
  0
LINE
  8
_0-f_
  6
CONTINUOUS
 62
    7
 10
395.37921385431434
 20
312.85644064137358
 11
394.54326185063388
 21
312.85644064137358
  0
LINE
  8
_0-f_
  6
CONTINUOUS
 62
    7
 10
396.59476389773744
 20
312.93644064137362
 11
391.79476389773714
 21
312.93644064137362
  0
LINE
  8
_0-f_
  6
CONTINUOUS
 62
    7
 10
396.59476389773744
 20
313.01644064137361
 11
391.79476389773714
 21
313.01644064137361
  0
LINE
  8
_0-f_
  6
CONTINUOUS
 62
    7
 10
396.59476389773744
 20
313.09644064137359
 11
391.79476389773714
 21
313.09644064137359
  0
LINE
  8
_0-f_
  6
CONTINUOUS
 62
    7
 10
396.59476389773744
 20
313.17644064137363
 11
391.79476389773714
 21
313.17644064137363
  0
LINE
  8
_0-f_
  6
CONTINUOUS
 62
    7
 10
396.59476389773744
 20
313.25644064137356
 11
391.79476389773714
 21
313.25644064137356
  0
LINE
  8
_0-f_
  6
CONTINUOUS
 62
    7
 10
396.59476389773744
 20
313.3364406413736
 11
391.79476389773714
 21
313.3364406413736
  0
LINE
  8
_0-f_
  6
CONTINUOUS
 62
    7
 10
395.25035971217693
 20
313.41644064137358
 11
394.41307232055254
 21
313.41644064137364
  0
LINE
  8
_0-f_
  6
CONTINUOUS
 62
    7
 10
395.23195197758588
 20
313.49644064137357
 11
394.39447381625513
 21
313.49644064137357
  0
LINE
  8
_0-f_
  6
CONTINUOUS
 62
    7
 10
395.21354424299483
 20
313.57644064137361
 11
394.37587531195783
 21
313.57644064137361
  0
LINE
  8
_0-f_
  6
CONTINUOUS
 62
    7
 10
395.19513650840383
 20
313.65644064137365
 11
394.35727680766053
 21
313.65644064137365
  0
LINE
  8
_0-f_
  6
CONTINUOUS
 62
    7
 10
396.27477189773737
 20
313.73644064137363
 11
395.75477189773665
 21
313.73644064137363
  0
LINE
  8
_0-f_
  6
CONTINUOUS
 62
    7
 10
395.17672877381278
 20
313.73644064137363
 11
394.33867830336311
 21
313.73644064137363
  0
LINE
  8
_0-f_
  6
CONTINUOUS
 62
    7
 10
396.27477189773737
 20
313.81644064137362
 11
395.75477189773665
 21
313.81644064137362
  0
LINE
  8
_0-f_
  6
CONTINUOUS
 62
    7
 10
395.15832103922179
 20
313.81644064137362
 11
394.32007979906581
 21
313.81644064137362
  0
LINE
  8
_0-f_
  6
CONTINUOUS
 62
    7
 10
396.27477189773737
 20
313.89644064137366
 11
395.75477189773665
 21
313.89644064137366
  0
LINE
  8
_0-f_
  6
CONTINUOUS
 62
    7
 10
395.13991330463074
 20
313.89644064137366
 11
394.30148129476839
 21
313.89644064137366
  0
LINE
  8
_0-f_
  6
CONTINUOUS
 62
    7
 10
396.27477189773737
 20
313.97644064137359
 11
395.75477189773665
 21
313.97644064137359
  0
LINE
  8
_0-f_
  6
CONTINUOUS
 62
    7
 10
395.12150557003969
 20
313.97644064137359
 11
394.28288279047104
 21
313.97644064137359
  0
LINE
  8
_0-f_
  6
CONTINUOUS
 62
    7
 10
395.60010666940678
 20
311.8964406413736
 11
394.76644390220218
 21
311.8964406413736
  0
LINE
  8
_0-f_
  6
CONTINUOUS
 62
    7
 10
394.194763897737
 20
311.8964406413736
 11
391.79476389773748
 21
311.8964406413736
  0
LINE
  8
_0-f_
  6
CONTINUOUS
 62
    7
 10
395.61851440399784
 20
311.81644064137362
 11
394.78504240649949
 21
311.81644064137362
  0
LINE
  8
_0-f_
  6
CONTINUOUS
 62
    7
 10
394.194763897737
 20
311.81644064137362
 11
391.79476389773748
 21
311.81644064137362
  0
LINE
  8
_0-f_
  6
CONTINUOUS
 62
    7
 10
395.63692213858883
 20
311.73644064137358
 11
394.80364091079684
 21
311.73644064137358
  0
LINE
  8
_0-f_
  6
CONTINUOUS
 62
    7
 10
393.29476389773714
 20
311.73644064137358
 11
392.55477189773751
 21
311.73644064137358
  0
LINE
  8
_0-f_
  6
CONTINUOUS
 62
    7
 10
395.65532987317982
 20
311.65644064137354
 11
394.8222394150942
 21
311.65644064137354
  0
LINE
  8
_0-f_
  6
CONTINUOUS
 62
    7
 10
393.29476389773714
 20
311.65644064137354
 11
392.55477189773751
 21
311.65644064137354
  0
LINE
  8
_0-f_
  6
CONTINUOUS
 62
    7
 10
395.67373760777087
 20
311.57644064137361
 11
394.84083791939162
 21
311.57644064137361
  0
LINE
  8
_0-f_
  6
CONTINUOUS
 62
    7
 10
393.29476389773714
 20
311.57644064137361
 11
392.55477189773751
 21
311.57644064137361
  0
LINE
  8
_0-f_
  6
CONTINUOUS
 62
    7
 10
395.69214534236193
 20
311.49644064137357
 11
394.85943642368892
 21
311.49644064137357
  0
LINE
  8
_0-f_
  6
CONTINUOUS
 62
    7
 10
393.29476389773714
 20
311.49644064137357
 11
392.55477189773751
 21
311.49644064137357
  0
LINE
  8
_0-f_
  6
CONTINUOUS
 62
    7
 10
395.71055307695298
 20
311.41644064137353
 11
394.87803492798633
 21
311.41644064137353
  0
LINE
  8
_0-f_
  6
CONTINUOUS
 62
    7
 10
393.29476389773714
 20
311.41644064137353
 11
392.55477189773751
 21
311.41644064137353
  0
LINE
  8
_0-f_
  6
CONTINUOUS
 62
    7
 10
395.72896081154403
 20
311.3364406413736
 11
394.89663343228364
 21
311.3364406413736
  0
LINE
  8
_0-f_
  6
CONTINUOUS
 62
    7
 10
393.29476389773714
 20
311.3364406413736
 11
392.55477189773751
 21
311.3364406413736
  0
LINE
  8
_0-f_
  6
CONTINUOUS
 62
    7
 10
395.74736854613502
 20
311.25644064137356
 11
394.91523193658099
 21
311.25644064137356
  0
LINE
  8
_0-f_
  6
CONTINUOUS
 62
    7
 10
393.29476389773714
 20
311.25644064137356
 11
392.55477189773751
 21
311.25644064137356
  0
LINE
  8
_0-f_
  6
CONTINUOUS
 62
    7
 10
395.76577628072607
 20
311.17644064137357
 11
394.93383044087835
 21
311.17644064137357
  0
LINE
  8
_0-f_
  6
CONTINUOUS
 62
    7
 10
393.29476389773714
 20
311.17644064137357
 11
392.55477189773751
 21
311.17644064137357
  0
LINE
  8
_0-f_
  6
CONTINUOUS
 62
    7
 10
395.78418401531707
 20
311.09644064137359
 11
394.95242894517571
 21
311.09644064137359
  0
LINE
  8
_0-f_
  6
CONTINUOUS
 62
    7
 10
393.29476389773714
 20
311.09644064137359
 11
392.55477189773751
 21
311.09644064137359
  0
LINE
  8
_0-f_
  6
CONTINUOUS
 62
    7
 10
395.80259174990812
 20
311.01644064137355
 11
394.97102744947307
 21
311.01644064137355
  0
LINE
  8
_0-f_
  6
CONTINUOUS
 62
    7
 10
393.29476389773714
 20
311.01644064137355
 11
392.55477189773751
 21
311.01644064137355
  0
LINE
  8
_0-f_
  6
CONTINUOUS
 62
    7
 10
395.82099948449917
 20
310.93644064137362
 11
394.98962595377043
 21
310.93644064137362
  0
LINE
  8
_0-f_
  6
CONTINUOUS
 62
    7
 10
393.29476389773714
 20
310.93644064137362
 11
392.55477189773751
 21
310.93644064137362
  0
LINE
  8
_0-f_
  6
CONTINUOUS
 62
    7
 10
395.83940721909016
 20
310.85644064137358
 11
395.00822445806779
 21
310.85644064137358
  0
LINE
  8
_0-f_
  6
CONTINUOUS
 62
    7
 10
393.29476389773714
 20
310.85644064137358
 11
392.55477189773751
 21
310.85644064137358
  0
LINE
  8
_0-f_
  6
CONTINUOUS
 62
    7
 10
395.85781495368121
 20
310.7764406413736
 11
395.02682296236509
 21
310.7764406413736
  0
LINE
  8
_0-f_
  6
CONTINUOUS
 62
    7
 10
393.29476389773714
 20
310.7764406413736
 11
392.55477189773751
 21
310.7764406413736
  0
LINE
  8
_0-f_
  6
CONTINUOUS
 62
    7
 10
395.87622268827221
 20
310.69644064137361
 11
395.04542146666245
 21
310.69644064137361
  0
LINE
  8
_0-f_
  6
CONTINUOUS
 62
    7
 10
393.29476389773714
 20
310.69644064137361
 11
392.55477189773751
 21
310.69644064137361
  0
LINE
  8
_0-f_
  6
CONTINUOUS
 62
    7
 10
395.89463042286326
 20
310.61644064137357
 11
395.06401997095981
 21
310.61644064137357
  0
LINE
  8
_0-f_
  6
CONTINUOUS
 62
    7
 10
394.19476389773757
 20
310.61644064137357
 11
393.94889462816053
 21
310.61644064137357
  0
LINE
  8
_0-f_
  6
CONTINUOUS
 62
    7
 10
393.29476389773714
 20
310.61644064137357
 11
392.55477189773751
 21
310.61644064137357
  0
LINE
  8
_0-f_
  6
CONTINUOUS
 62
    7
 10
395.91303815745431
 20
310.53644064137353
 11
395.08261847525722
 21
310.53644064137353
  0
LINE
  8
_0-f_
  6
CONTINUOUS
 62
    7
 10
394.19476389773757
 20
310.53644064137353
 11
393.67170266696866
 21
310.53644064137353
  0
LINE
  8
_0-f_
  6
CONTINUOUS
 62
    7
 10
393.29476389773714
 20
310.53644064137353
 11
392.55477189773751
 21
310.53644064137353
  0
LINE
  8
_0-f_
  6
CONTINUOUS
 62
    7
 10
396.59476389773738
 20
310.45644064137355
 11
395.10121697955452
 21
310.45644064137355
  0
LINE
  8
_0-f_
  6
CONTINUOUS
 62
    7
 10
394.19476389773757
 20
310.45644064137355
 11
391.79476389773737
 21
310.45644064137355
  0
LINE
  8
_0-f_
  6
CONTINUOUS
 62
    7
 10
396.59476389773738
 20
310.37644064137356
 11
395.120771670426
 21
310.37644064137356
  0
LINE
  8
_0-f_
  6
CONTINUOUS
 62
    7
 10
394.19476389773757
 20
310.37644064137356
 11
391.79476389773737
 21
310.37644064137356
  0
LINE
  8
_0-f_
  6
CONTINUOUS
 62
    7
 10
396.59476389773738
 20
310.29644064137352
 11
395.14971012845825
 21
310.29644064137352
  0
LINE
  8
_0-f_
  6
CONTINUOUS
 62
    7
 10
394.19476389773757
 20
310.29644064137352
 11
391.79476389773737
 21
310.29644064137352
  0
LINE
  8
_0-f_
  6
CONTINUOUS
 62
    7
 10
396.59476389773738
 20
310.21644064137359
 11
395.19666606789855
 21
310.21644064137359
  0
LINE
  8
_0-f_
  6
CONTINUOUS
 62
    7
 10
394.08778834681476
 20
310.21644064137359
 11
391.79476389773737
 21
310.21644064137359
  0
LINE
  8
_0-f_
  6
CONTINUOUS
 62
    7
 10
396.59476389773738
 20
310.13644064137355
 11
395.26766283102091
 21
310.13644064137355
  0
LINE
  8
_0-f_
  6
CONTINUOUS
 62
    7
 10
393.81064961385567
 20
310.13644064137355
 11
391.79476389773737
 21
310.13644064137355
  0
LINE
  8
_0-f_
  6
CONTINUOUS
 62
    7
 10
396.59476389773738
 20
310.05644064137357
 11
395.39374051121655
 21
310.05644064137357
  0
LINE
  8
_0-f_
  6
CONTINUOUS
 62
    7
 10
393.53351088089659
 20
310.05644064137357
 11
391.79476389773737
 21
310.05644064137357
  0
LINE
  8
_0-f_
  6
CONTINUOUS
 62
    7
 10
395.26873063129898
 20
313.33660064137359
 11
396.59476389773738
 21
313.33660064137359
  0
LINE
  8
_0-f_
  6
CONTINUOUS
 62
    7
 10
395.58471845491698
 20
310.01644064137361
 11
396.59476389773738
 21
310.01644064137361
  0
LINE
  8
_0-f_
  6
CONTINUOUS
 62
    7
 10
395.93142748431086
 20
310.45652064137363
 11
396.59476389773738
 21
310.45652064137363
  0
LINE
  8
_0-f_
  6
CONTINUOUS
 62
    7
 10
395.36998237541695
 20
312.89656064137358
 11
396.59476389773738
 21
312.89656064137358
  0
LINE
  8
_0-f_
  6
CONTINUOUS
 62
    7
 10
395.75477189773738
 20
314.01648064137362
 11
396.27477189773737
 21
314.01648064137362
  0
LINE
  8
_0-f_
  6
CONTINUOUS
 62
    7
 10
396.27477189773737
 20
313.6604246413736
 11
395.75477189773738
 21
313.6604246413736
  0
LINE
  8
_0-f_
  6
CONTINUOUS
 62
    7
 10
394.53393470072871
 20
312.89656064137358
 11
395.11718667759277
 21
310.38774824425212
  0
LINE
  8
_0-f_
  6
CONTINUOUS
 62
    7
 10
395.36998237541695
 20
312.89656064137358
 11
395.93142748431086
 21
310.45652064137363
  0
LINE
  8
_0-f_
  6
CONTINUOUS
 62
    7
 10
393.29476389773725
 20
311.78464064137364
 11
394.19476389773729
 21
311.78464064137364
  0
LINE
  8
_0-f_
  6
CONTINUOUS
 62
    7
 10
394.19476389773729
 20
312.2246806413736
 11
391.79476389773737
 21
312.2246806413736
  0
LINE
  8
_0-f_
  6
CONTINUOUS
 62
    7
 10
393.50357989773744
 20
310.04780064137361
 11
394.19476389773729
 21
310.24732064137362
  0
LINE
  8
_0-f_
  6
CONTINUOUS
 62
    7
 10
393.3947878977375
 20
310.45652064137363
 11
394.19476389773729
 21
310.68740064137359
  0
LINE
  8
_0-f_
  6
CONTINUOUS
 62
    7
 10
391.79476389773737
 20
310.01644064137361
 11
393.28197189773738
 21
310.01644064137361
  0
LINE
  8
_0-f_
  6
CONTINUOUS
 62
    7
 10
392.5547718977374
 20
311.78464064137364
 11
392.5547718977374
 21
310.45652064137363
  0
LINE
  8
_0-f_
  6
CONTINUOUS
 62
    7
 10
392.5547718977374
 20
310.45652064137363
 11
391.79476389773737
 21
310.45652064137363
  0
LINE
  8
_0-f_
  6
CONTINUOUS
 62
    7
 10
391.79476389773737
 20
310.45652064137363
 11
391.79476389773737
 21
310.01644064137361
  0
LINE
  8
_0-f_
  6
CONTINUOUS
 62
    7
 10
391.79476389773737
 20
311.78464064137364
 11
392.5547718977374
 21
311.78464064137364
  0
LINE
  8
_0-f_
  6
CONTINUOUS
 62
    7
 10
391.79476389773737
 20
312.2246806413736
 11
391.79476389773737
 21
311.78464064137364
  0
LINE
  8
_0-f_
  6
CONTINUOUS
 62
    7
 10
393.29476389773725
 20
310.45652064137363
 11
393.29476389773725
 21
311.78464064137364
  0
ARC
  8
_0-f_
  6
CONTINUOUS
 62
    7
 10
393.28197189773738
 20
310.81644064137362
 40
0.8000000000000001
 50
270
 51
286.10199
  0
LINE
  8
_0-f_
  6
CONTINUOUS
 62
    7
 10
393.3947878977375
 20
310.45652064137363
 11
393.29476389773725
 21
310.45652064137363
  0
LINE
  8
_0-f_
  6
CONTINUOUS
 62
    7
 10
394.19476389773729
 20
310.68740064137359
 11
394.19476389773729
 21
310.24732064137362
  0
LINE
  8
_0-f_
  6
CONTINUOUS
 62
    7
 10
394.19476389773729
 20
311.78464064137364
 11
394.19476389773729
 21
312.2246806413736
  0
ARC
  8
_0-f_
  6
CONTINUOUS
 62
    7
 10
395.58471845491698
 20
310.49644064137357
 40
0.4799999999999999
 50
193.08771650376977
 51
269.99999999999972
  0
ARC
  8
_0-f_
  6
CONTINUOUS
 62
    7
 10
395.99478789773735
 20
310.53644064137364
 40
0.0799919999999998
 50
192.96201000000002
 51
270
  0
LINE
  8
_0-f_
  6
CONTINUOUS
 62
    7
 10
391.79476389773737
 20
313.33660064137359
 11
394.43163362784117
 21
313.33660064137359
  0
LINE
  8
_0-f_
  6
CONTINUOUS
 62
    7
 10
391.79476389773737
 20
312.89656064137358
 11
394.53393470072871
 21
312.89656064137358
  0
LINE
  8
_0-f_
  6
CONTINUOUS
 62
    7
 10
391.79476389773737
 20
313.33660064137359
 11
391.79476389773737
 21
312.89656064137358
  0
LINE
  8
_0-f_
  6
CONTINUOUS
 62
    7
 10
394.27357423907011
 20
314.01648064137362
 11
395.11229249887714
 21
314.01648064137362
  0
LINE
  8
_0-f_
  6
CONTINUOUS
 62
    7
 10
394.27357423907011
 20
314.01648064137362
 11
394.43163362784117
 21
313.33660064137359
  0
LINE
  8
_0-f_
  6
CONTINUOUS
 62
    7
 10
395.11229249887714
 20
314.01648064137362
 11
395.26873063129898
 21
313.33660064137359
  0
LINE
  8
_0-f_
  6
CONTINUOUS
 62
    7
 10
395.75477189773738
 20
314.01648064137362
 11
395.75477189773738
 21
313.6604246413736
  0
LINE
  8
_0-f_
  6
CONTINUOUS
 62
    7
 10
396.59476389773738
 20
310.45652064137363
 11
396.59476389773738
 21
310.01644064137361
  0
LINE
  8
_0-f_
  6
CONTINUOUS
 62
    7
 10
396.59476389773738
 20
310.45652064137363
 11
396.59476389773738
 21
310.01644064137361
  0
LINE
  8
_0-f_
  6
CONTINUOUS
 62
    7
 10
396.59476389773738
 20
313.33660064137359
 11
396.59476389773738
 21
312.89656064137358
  0
LINE
  8
_0-f_
  6
CONTINUOUS
 62
    7
 10
396.27477189773737
 20
314.01652064137357
 11
396.27477189773737
 21
313.66047264137359
  0
LINE
  8
_0-f_
  6
CONTINUOUS
 62
    7
 10
399.84883966726255
 20
313.5742056822275
 11
402.10124453492102
 21
313.01648864137366
  0
LINE
  8
_0-f_
  6
CONTINUOUS
 62
    7
 10
402.10124453492102
 20
313.01648864137366
 11
402.10124453492102
 21
313.45652064137363
  0
LINE
  8
_0-f_
  6
CONTINUOUS
 62
    7
 10
402.10124453492102
 20
313.45652064137363
 11
399.97658164444402
 21
313.98446020427798
  0
ARC
  8
_0-f_
  6
CONTINUOUS
 62
    7
 10
399.70122053492105
 20
312.81648064137363
 40
1.1999999999999964
 50
76.734271344360408
 51
103.26596249111499
  0
LINE
  8
_0-f_
  6
CONTINUOUS
 62
    7
 10
399.4258546586434
 20
313.98445908046477
 11
397.30122053492101
 21
313.45653664137359
  0
LINE
  8
_0-f_
  6
CONTINUOUS
 62
    7
 10
397.30122053492101
 20
313.45653664137359
 11
397.30122053492101
 21
313.01648064137356
  0
LINE
  8
_0-f_
  6
CONTINUOUS
 62
    7
 10
397.30122053492101
 20
313.01648064137356
 11
399.54143592623529
 21
313.57098148570043
  0
ARC
  8
_0-f_
  6
CONTINUOUS
 62
    7
 10
399.70122053492111
 20
312.99264864137359
 40
0.5999999999999982
 50
75.757176751039125
 51
105.44466990909265
  0
LINE
  8
_0-f_
  6
CONTINUOUS
 62
    7
 10
401.40682853492098
 20
312.84851264137359
 11
397.99562853492085
 21
312.84851264137359
  0
LINE
  8
_0-f_
  6
CONTINUOUS
 62
    7
 10
397.99562853492085
 20
312.84851264137359
 11
397.99562853492085
 21
312.40847264137363
  0
LINE
  8
_0-f_
  6
CONTINUOUS
 62
    7
 10
397.99562853492085
 20
312.40847264137363
 11
401.40682853492098
 21
312.40847264137363
  0
LINE
  8
_0-f_
  6
CONTINUOUS
 62
    7
 10
401.40682853492098
 20
312.40847264137363
 11
401.40682853492098
 21
312.84851264137359
  0
LINE
  8
_0-f_
  6
CONTINUOUS
 62
    7
 10
402.10124453492102
 20
311.92839264137359
 11
397.30122053492096
 21
311.92839264137359
  0
LINE
  8
_0-f_
  6
CONTINUOUS
 62
    7
 10
397.30122053492096
 20
311.92839264137359
 11
397.30122053492101
 21
311.48855264137359
  0
LINE
  8
_0-f_
  6
CONTINUOUS
 62
    7
 10
397.30122053492101
 20
311.48855264137359
 11
398.5509024211562
 21
311.48855264137359
  0
LINE
  8
_0-f_
  6
CONTINUOUS
 62
    7
 10
398.5509024211562
 20
311.48855264137359
 11
397.78283653492093
 21
310.15796064137356
  0
LINE
  8
_0-f_
  6
CONTINUOUS
 62
    7
 10
397.78283653492093
 20
310.15796064137356
 11
397.78283653492093
 21
310.01644064137361
  0
LINE
  8
_0-f_
  6
CONTINUOUS
 62
    7
 10
397.78283653492093
 20
310.01644064137361
 11
401.61962853492099
 21
310.01644064137361
  0
LINE
  8
_0-f_
  6
CONTINUOUS
 62
    7
 10
401.61962853492099
 20
310.01644064137361
 11
401.61962853492099
 21
310.15788064137359
  0
LINE
  8
_0-f_
  6
CONTINUOUS
 62
    7
 10
401.61962853492099
 20
310.15788064137359
 11
400.85153494379119
 21
311.48855264137359
  0
LINE
  8
_0-f_
  6
CONTINUOUS
 62
    7
 10
400.85153494379119
 20
311.48855264137359
 11
402.10124453492102
 21
311.48855264137359
  0
LINE
  8
_0-f_
  6
CONTINUOUS
 62
    7
 10
402.10124453492102
 20
311.48855264137359
 11
402.10124453492102
 21
311.92839264137359
  0
LINE
  8
_0-f_
  6
CONTINUOUS
 62
    7
 10
399.05891962869504
 20
311.48855264137359
 11
400.34362145586704
 21
311.48855264137359
  0
LINE
  8
_0-f_
  6
CONTINUOUS
 62
    7
 10
400.34362145586704
 20
311.48855264137359
 11
400.88682853492094
 21
310.54708064137361
  0
LINE
  8
_0-f_
  6
CONTINUOUS
 62
    7
 10
400.88682853492094
 20
310.54708064137361
 11
400.88682853492094
 21
310.48852064137355
  0
LINE
  8
_0-f_
  6
CONTINUOUS
 62
    7
 10
400.88682853492094
 20
310.48852064137355
 11
398.515652534921
 21
310.48852064137355
  0
LINE
  8
_0-f_
  6
CONTINUOUS
 62
    7
 10
398.515652534921
 20
310.48852064137355
 11
398.515652534921
 21
310.54708064137361
  0
LINE
  8
_0-f_
  6
CONTINUOUS
 62
    7
 10
398.515652534921
 20
310.54708064137361
 11
399.05891962869504
 21
311.48855264137359
  0
LINE
  8
_0-f_
  6
CONTINUOUS
 62
    7
 10
401.40682853492109
 20
312.4564406413736
 11
397.99562853492091
 21
312.4564406413736
  0
LINE
  8
_0-f_
  6
CONTINUOUS
 62
    7
 10
401.40682853492109
 20
312.53644064137364
 11
397.99562853492091
 21
312.53644064137364
  0
LINE
  8
_0-f_
  6
CONTINUOUS
 62
    7
 10
401.40682853492109
 20
312.61644064137363
 11
397.99562853492091
 21
312.61644064137363
  0
LINE
  8
_0-f_
  6
CONTINUOUS
 62
    7
 10
401.40682853492109
 20
312.69644064137361
 11
397.99562853492091
 21
312.69644064137361
  0
LINE
  8
_0-f_
  6
CONTINUOUS
 62
    7
 10
401.40682853492109
 20
312.77644064137365
 11
397.99562853492091
 21
312.77644064137365
  0
LINE
  8
_0-f_
  6
CONTINUOUS
 62
    7
 10
402.10124453492068
 20
313.09644064137359
 11
401.77834912239547
 21
313.09644064137359
  0
LINE
  8
_0-f_
  6
CONTINUOUS
 62
    7
 10
397.62426354652723
 20
313.09644064137359
 11
397.30122053492101
 21
313.09644064137359
  0
LINE
  8
_0-f_
  6
CONTINUOUS
 62
    7
 10
402.10124453492068
 20
313.17644064137363
 11
401.45525985631019
 21
313.17644064137363
  0
LINE
  8
_0-f_
  6
CONTINUOUS
 62
    7
 10
397.94746816044034
 20
313.17644064137363
 11
397.30122053492101
 21
313.17644064137363
  0
LINE
  8
_0-f_
  6
CONTINUOUS
 62
    7
 10
402.10124453492068
 20
313.25644064137356
 11
401.13217059022514
 21
313.25644064137356
  0
LINE
  8
_0-f_
  6
CONTINUOUS
 62
    7
 10
398.2706727743535
 20
313.25644064137356
 11
397.30122053492101
 21
313.25644064137356
  0
LINE
  8
_0-f_
  6
CONTINUOUS
 62
    7
 10
402.10124453492068
 20
313.3364406413736
 11
400.80908132413992
 21
313.3364406413736
  0
LINE
  8
_0-f_
  6
CONTINUOUS
 62
    7
 10
398.59387738826666
 20
313.3364406413736
 11
397.30122053492101
 21
313.3364406413736
  0
LINE
  8
_0-f_
  6
CONTINUOUS
 62
    7
 10
402.10124453492068
 20
313.41644064137358
 11
400.48599205805471
 21
313.41644064137364
  0
LINE
  8
_0-f_
  6
CONTINUOUS
 62
    7
 10
398.91708200217977
 20
313.41644064137358
 11
397.30122053492101
 21
313.41644064137364
  0
LINE
  8
_0-f_
  6
CONTINUOUS
 62
    7
 10
401.94058875432125
 20
313.49644064137357
 11
400.16290279196954
 21
313.49644064137357
  0
LINE
  8
_0-f_
  6
CONTINUOUS
 62
    7
 10
399.24028661609287
 20
313.49644064137357
 11
397.46181495901669
 21
313.49644064137357
  0
LINE
  8
_0-f_
  6
CONTINUOUS
 62
    7
 10
401.61863328217765
 20
313.57644064137361
 11
399.83582417937862
 21
313.57644064137361
  0
LINE
  8
_0-f_
  6
CONTINUOUS
 62
    7
 10
399.56316878332825
 20
313.57644064137361
 11
397.78377651494219
 21
313.57644064137361
  0
LINE
  8
_0-f_
  6
CONTINUOUS
 62
    7
 10
401.29667781003405
 20
313.65644064137365
 11
398.10573807086774
 21
313.65644064137365
  0
LINE
  8
_0-f_
  6
CONTINUOUS
 62
    7
 10
400.97472233789046
 20
313.73644064137363
 11
398.42769962679324
 21
313.73644064137363
  0
LINE
  8
_0-f_
  6
CONTINUOUS
 62
    7
 10
400.65276686574686
 20
313.81644064137362
 11
398.74966118271885
 21
313.81644064137362
  0
LINE
  8
_0-f_
  6
CONTINUOUS
 62
    7
 10
400.33081139360326
 20
313.89644064137366
 11
399.07162273864435
 21
313.89644064137366
  0
LINE
  8
_0-f_
  6
CONTINUOUS
 62
    7
 10
400.00885592145966
 20
313.97644064137359
 11
399.39358429456985
 21
313.97644064137359
  0
LINE
  8
_0-f_
  6
CONTINUOUS
 62
    7
 10
402.10124453492125
 20
311.8964406413736
 11
397.30122053492101
 21
311.8964406413736
  0
LINE
  8
_0-f_
  6
CONTINUOUS
 62
    7
 10
402.10124453492125
 20
311.81644064137362
 11
397.30122053492101
 21
311.81644064137362
  0
LINE
  8
_0-f_
  6
CONTINUOUS
 62
    7
 10
402.10124453492125
 20
311.73644064137358
 11
397.30122053492101
 21
311.73644064137358
  0
LINE
  8
_0-f_
  6
CONTINUOUS
 62
    7
 10
402.10124453492125
 20
311.65644064137354
 11
397.30122053492101
 21
311.65644064137354
  0
LINE
  8
_0-f_
  6
CONTINUOUS
 62
    7
 10
402.10124453492125
 20
311.57644064137361
 11
397.30122053492101
 21
311.57644064137361
  0
LINE
  8
_0-f_
  6
CONTINUOUS
 62
    7
 10
402.10124453492125
 20
311.49644064137357
 11
397.30122053492101
 21
311.49644064137357
  0
LINE
  8
_0-f_
  6
CONTINUOUS
 62
    7
 10
400.8931596003884
 20
311.41644064137364
 11
400.38522837448448
 21
311.41644064137364
  0
LINE
  8
_0-f_
  6
CONTINUOUS
 62
    7
 10
399.01730811325314
 20
311.41644064137353
 11
398.50927676341269
 21
311.41644064137353
  0
LINE
  8
_0-f_
  6
CONTINUOUS
 62
    7
 10
400.93933738671768
 20
311.3364406413736
 11
400.43138648255814
 21
311.3364406413736
  0
LINE
  8
_0-f_
  6
CONTINUOUS
 62
    7
 10
398.97114490552957
 20
311.3364406413736
 11
398.46309786642638
 21
311.3364406413736
  0
LINE
  8
_0-f_
  6
CONTINUOUS
 62
    7
 10
400.98551517304702
 20
311.25644064137356
 11
400.47754459063179
 21
311.25644064137356
  0
LINE
  8
_0-f_
  6
CONTINUOUS
 62
    7
 10
398.924981697806
 20
311.25644064137356
 11
398.41691896944002
 21
311.25644064137356
  0
LINE
  8
_0-f_
  6
CONTINUOUS
 62
    7
 10
401.03169295937636
 20
311.17644064137357
 11
400.52370269870545
 21
311.17644064137357
  0
LINE
  8
_0-f_
  6
CONTINUOUS
 62
    7
 10
398.87881849008244
 20
311.17644064137357
 11
398.37074007245371
 21
311.17644064137357
  0
LINE
  8
_0-f_
  6
CONTINUOUS
 62
    7
 10
401.07787074570564
 20
311.09644064137359
 11
400.5698608067791
 21
311.09644064137359
  0
LINE
  8
_0-f_
  6
CONTINUOUS
 62
    7
 10
398.83265528235887
 20
311.09644064137359
 11
398.32456117546741
 21
311.09644064137359
  0
LINE
  8
_0-f_
  6
CONTINUOUS
 62
    7
 10
401.12404853203492
 20
311.01644064137355
 11
400.61601891485276
 21
311.01644064137355
  0
LINE
  8
_0-f_
  6
CONTINUOUS
 62
    7
 10
398.78649207463531
 20
311.01644064137355
 11
398.27838227848105
 21
311.01644064137355
  0
LINE
  8
_0-f_
  6
CONTINUOUS
 62
    7
 10
401.1702263183642
 20
310.93644064137362
 11
400.66217702292641
 21
310.93644064137362
  0
LINE
  8
_0-f_
  6
CONTINUOUS
 62
    7
 10
398.74032886691174
 20
310.93644064137362
 11
398.23220338149474
 21
310.93644064137362
  0
LINE
  8
_0-f_
  6
CONTINUOUS
 62
    7
 10
401.21640410469354
 20
310.85644064137358
 11
400.70833513100007
 21
310.85644064137358
  0
LINE
  8
_0-f_
  6
CONTINUOUS
 62
    7
 10
398.69416565918817
 20
310.85644064137358
 11
398.18602448450844
 21
310.85644064137358
  0
LINE
  8
_0-f_
  6
CONTINUOUS
 62
    7
 10
401.26258189102282
 20
310.7764406413736
 11
400.75449323907372
 21
310.7764406413736
  0
LINE
  8
_0-f_
  6
CONTINUOUS
 62
    7
 10
398.64800245146461
 20
310.7764406413736
 11
398.13984558752207
 21
310.7764406413736
  0
LINE
  8
_0-f_
  6
CONTINUOUS
 62
    7
 10
401.30875967735216
 20
310.69644064137361
 11
400.80065134714738
 21
310.69644064137361
  0
LINE
  8
_0-f_
  6
CONTINUOUS
 62
    7
 10
398.60183924374104
 20
310.69644064137361
 11
398.09366669053583
 21
310.69644064137361
  0
LINE
  8
_0-f_
  6
CONTINUOUS
 62
    7
 10
401.35493746368144
 20
310.61644064137357
 11
400.84680945522098
 21
310.61644064137357
  0
LINE
  8
_0-f_
  6
CONTINUOUS
 62
    7
 10
398.55567603601747
 20
310.61644064137357
 11
398.04748779354946
 21
310.61644064137357
  0
LINE
  8
_0-f_
  6
CONTINUOUS
 62
    7
 10
401.40111525001072
 20
310.53644064137353
 11
400.88682853492099
 21
310.53644064137353
  0
LINE
  8
_0-f_
  6
CONTINUOUS
 62
    7
 10
398.51565253491668
 20
310.53644064137353
 11
398.00130889656322
 21
310.53644064137353
  0
LINE
  8
_0-f_
  6
CONTINUOUS
 62
    7
 10
401.44729303634
 20
310.45644064137355
 11
397.95512999957685
 21
310.45644064137355
  0
LINE
  8
_0-f_
  6
CONTINUOUS
 62
    7
 10
401.49347082266934
 20
310.37644064137356
 11
397.90895110259049
 21
310.37644064137356
  0
LINE
  8
_0-f_
  6
CONTINUOUS
 62
    7
 10
401.53964860899868
 20
310.29644064137352
 11
397.86277220560424
 21
310.29644064137352
  0
LINE
  8
_0-f_
  6
CONTINUOUS
 62
    7
 10
401.58582639532796
 20
310.21644064137359
 11
397.81659330861788
 21
310.21644064137359
  0
LINE
  8
_0-f_
  6
CONTINUOUS
 62
    7
 10
401.61962853491951
 20
310.13644064137355
 11
397.78283653492218
 21
310.13644064137355
  0
LINE
  8
_0-f_
  6
CONTINUOUS
 62
    7
 10
401.61962853491951
 20
310.05644064137357
 11
397.78283653492218
 21
310.05644064137357
  0
LINE
  8
_0-f_
  6
CONTINUOUS
 62
    7
 10
397.30122053492101
 20
313.45653664137359
 11
399.42842053492097
 21
313.98509664137356
  0
LINE
  8
_0-f_
  6
CONTINUOUS
 62
    7
 10
397.30122053492101
 20
313.01648064137356
 11
399.56523653492098
 21
313.57687264137354
  0
LINE
  8
_0-f_
  6
CONTINUOUS
 62
    7
 10
397.99562853492085
 20
312.84851264137359
 11
401.40682853492098
 21
312.84851264137359
  0
LINE
  8
_0-f_
  6
CONTINUOUS
 62
    7
 10
397.99562853492085
 20
312.40847264137363
 11
401.40682853492098
 21
312.40847264137363
  0
LINE
  8
_0-f_
  6
CONTINUOUS
 62
    7
 10
397.30122053492101
 20
311.92839264137359
 11
402.10124453492102
 21
311.92839264137359
  0
LINE
  8
_0-f_
  6
CONTINUOUS
 62
    7
 10
397.78283653492093
 20
310.01644064137361
 11
401.61962853492099
 21
310.01644064137361
  0
LINE
  8
_0-f_
  6
CONTINUOUS
 62
    7
 10
398.515652534921
 20
310.48852064137355
 11
400.88682853492094
 21
310.48852064137355
  0
LINE
  8
_0-f_
  6
CONTINUOUS
 62
    7
 10
399.05883653492111
 20
311.48840864137361
 11
398.515652534921
 21
310.54708064137361
  0
LINE
  8
_0-f_
  6
CONTINUOUS
 62
    7
 10
397.30122053492101
 20
311.48855264137359
 11
398.5516365349211
 21
311.48855264137359
  0
LINE
  8
_0-f_
  6
CONTINUOUS
 62
    7
 10
397.30122053492101
 20
311.92839264137359
 11
397.30122053492101
 21
311.48855264137359
  0
LINE
  8
_0-f_
  6
CONTINUOUS
 62
    7
 10
398.55082853492092
 20
311.48842464137357
 11
397.78283653492093
 21
310.15796064137356
  0
LINE
  8
_0-f_
  6
CONTINUOUS
 62
    7
 10
397.78283653492093
 20
310.01644064137361
 11
397.78283653492093
 21
310.15788064137359
  0
LINE
  8
_0-f_
  6
CONTINUOUS
 62
    7
 10
398.515652534921
 20
310.48852064137355
 11
398.515652534921
 21
310.54716064137364
  0
LINE
  8
_0-f_
  6
CONTINUOUS
 62
    7
 10
397.30122053492101
 20
313.45652064137363
 11
397.30122053492101
 21
313.01648064137356
  0
LINE
  8
_0-f_
  6
CONTINUOUS
 62
    7
 10
397.99562853492085
 20
312.84851264137359
 11
397.99562853492085
 21
312.40847264137363
  0
LINE
  8
_0-f_
  6
CONTINUOUS
 62
    7
 10
400.85163653492111
 20
311.48837664137358
 11
401.61962853492099
 21
310.15788064137359
  0
LINE
  8
_0-f_
  6
CONTINUOUS
 62
    7
 10
400.85163653492111
 20
311.48855264137359
 11
402.10124453492102
 21
311.48855264137359
  0
LINE
  8
_0-f_
  6
CONTINUOUS
 62
    7
 10
399.05964453492106
 20
311.48855264137359
 11
400.34364453492105
 21
311.48855264137359
  0
LINE
  8
_0-f_
  6
CONTINUOUS
 62
    7
 10
400.34364453492105
 20
311.48851264137357
 11
400.88682853492094
 21
310.54708064137361
  0
LINE
  8
_0-f_
  6
CONTINUOUS
 62
    7
 10
400.88682853492094
 20
310.48852064137355
 11
400.88682853492094
 21
310.54716064137364
  0
LINE
  8
_0-f_
  6
CONTINUOUS
 62
    7
 10
401.61962853492099
 20
310.01644064137361
 11
401.61962853492099
 21
310.15788064137359
  0
LINE
  8
_0-f_
  6
CONTINUOUS
 62
    7
 10
402.10124453492102
 20
311.92839264137359
 11
402.10124453492102
 21
311.48855264137359
  0
LINE
  8
_0-f_
  6
CONTINUOUS
 62
    7
 10
399.83803653492106
 20
313.57688064137363
 11
402.10124453492102
 21
313.01648864137354
  0
LINE
  8
_0-f_
  6
CONTINUOUS
 62
    7
 10
399.97405253492104
 20
313.98508864137358
 11
402.10124453492102
 21
313.45652064137363
  0
ARC
  8
_0-f_
  6
CONTINUOUS
 62
    7
 10
399.70122053492111
 20
312.81648064137363
 40
1.2000000000000004
 50
76.866900000000015
 51
103.133
  0
ARC
  8
_0-f_
  6
CONTINUOUS
 62
    7
 10
399.70122053492111
 20
312.99264864137359
 40
0.6000000000000002
 50
76.866900000000015
 51
103.133
  0
LINE
  8
_0-f_
  6
CONTINUOUS
 62
    7
 10
401.40682853492098
 20
312.84851264137359
 11
401.40682853492098
 21
312.40847264137363
  0
LINE
  8
_0-f_
  6
CONTINUOUS
 62
    7
 10
402.10124453492102
 20
313.45652064137363
 11
402.10124453492102
 21
313.01648064137356
  0
LINE
  8
_0-f_
  6
CONTINUOUS
 62
    7
 10
405.25582244764001
 20
314.01648064137362
 11
402.49581444764004
 21
314.01648064137362
  0
LINE
  8
_0-f_
  6
CONTINUOUS
 62
    7
 10
402.49581444764004
 20
314.01648064137362
 11
402.49581444764004
 21
313.57644064137361
  0
LINE
  8
_0-f_
  6
CONTINUOUS
 62
    7
 10
402.49581444764004
 20
313.57644064137361
 11
405.25582244764001
 21
313.57644064137361
  0
LINE
  8
_0-f_
  6
CONTINUOUS
 62
    7
 10
405.25582244764001
 20
313.57644064137361
 11
405.25582244764001
 21
314.01648064137362
  0
LINE
  8
_0-f_
  6
CONTINUOUS
 62
    7
 10
405.25582244764001
 20
312.89656064137358
 11
402.49581444764004
 21
312.89656064137358
  0
LINE
  8
_0-f_
  6
CONTINUOUS
 62
    7
 10
402.49581444764004
 20
312.89656064137358
 11
402.49581444764004
 21
312.45652064137363
  0
LINE
  8
_0-f_
  6
CONTINUOUS
 62
    7
 10
402.49581444764004
 20
312.45652064137363
 11
403.6118304476401
 21
312.45652064137363
  0
LINE
  8
_0-f_
  6
CONTINUOUS
 62
    7
 10
403.6118304476401
 20
312.45652064137363
 11
403.6118304476401
 21
310.01644064137361
  0
LINE
  8
_0-f_
  6
CONTINUOUS
 62
    7
 10
403.6118304476401
 20
310.01644064137361
 11
404.13982244763997
 21
310.01644064137361
  0
LINE
  8
_0-f_
  6
CONTINUOUS
 62
    7
 10
404.13982244763997
 20
310.01644064137361
 11
404.13982244763997
 21
312.45652064137363
  0
LINE
  8
_0-f_
  6
CONTINUOUS
 62
    7
 10
404.13982244763997
 20
312.45652064137363
 11
405.25582244764001
 21
312.45652064137363
  0
LINE
  8
_0-f_
  6
CONTINUOUS
 62
    7
 10
405.25582244764001
 20
312.45652064137363
 11
405.25582244764001
 21
312.89656064137358
  0
LINE
  8
_0-f_
  6
CONTINUOUS
 62
    7
 10
402.71181444764005
 20
311.97644064137359
 11
402.71181444764005
 21
310.65812062137712
  0
ARC
  8
_0-f_
  6
CONTINUOUS
 62
    7
 10
402.55182244764006
 20
310.65652064137356
 40
0.1600000000000022
 50
270
 51
0.5729601837918403
  0
LINE
  8
_0-f_
  6
CONTINUOUS
 62
    7
 10
402.55182244764006
 20
310.49652064137359
 11
402.49581444764004
 21
310.49652064137359
  0
LINE
  8
_0-f_
  6
CONTINUOUS
 62
    7
 10
402.49581444764004
 20
310.49652064137359
 11
402.49581444764004
 21
310.01644064137361
  0
LINE
  8
_0-f_
  6
CONTINUOUS
 62
    7
 10
402.49581444764004
 20
310.01644064137361
 11
402.79182244764007
 21
310.01644064137361
  0
ARC
  8
_0-f_
  6
CONTINUOUS
 62
    7
 10
402.79182244764007
 20
310.41644064137358
 40
0.4
 50
270
 51
0
  0
LINE
  8
_0-f_
  6
CONTINUOUS
 62
    7
 10
403.19182244764005
 20
310.41644064137358
 11
403.19182244764005
 21
311.97644064137359
  0
LINE
  8
_0-f_
  6
CONTINUOUS
 62
    7
 10
403.19182244764005
 20
311.97644064137359
 11
402.71181444764005
 21
311.97644064137359
  0
LINE
  8
_0-f_
  6
CONTINUOUS
 62
    7
 10
404.55983044764008
 20
311.97644064137359
 11
404.55983044764008
 21
310.41286296839138
  0
ARC
  8
_0-f_
  6
CONTINUOUS
 62
    7
 10
404.9598144476401
 20
310.41644064137358
 40
0.4
 50
180.51247073885855
 51
270
  0
LINE
  8
_0-f_
  6
CONTINUOUS
 62
    7
 10
404.9598144476401
 20
310.01644064137361
 11
405.25582244764001
 21
310.01644064137361
  0
LINE
  8
_0-f_
  6
CONTINUOUS
 62
    7
 10
405.25582244764001
 20
310.01644064137361
 11
405.25582244764001
 21
310.49652064137359
  0
LINE
  8
_0-f_
  6
CONTINUOUS
 62
    7
 10
405.25582244764001
 20
310.49652064137359
 11
405.19981444764005
 21
310.49652064137359
  0
ARC
  8
_0-f_
  6
CONTINUOUS
 62
    7
 10
405.19981444764005
 20
310.65652064137356
 40
0.1600000000000022
 50
179.42703981620815
 51
270
  0
LINE
  8
_0-f_
  6
CONTINUOUS
 62
    7
 10
405.03982244764012
 20
310.65812062137712
 11
405.03982244764012
 21
311.97644064137359
  0
LINE
  8
_0-f_
  6
CONTINUOUS
 62
    7
 10
405.03982244764012
 20
311.97644064137359
 11
404.55983044764008
 21
311.97644064137359
  0
LINE
  8
_0-f_
  6
CONTINUOUS
 62
    7
 10
406.67583044764018
 20
312.65652064137356
 11
407.29582244764015
 21
312.65652064137356
  0
LINE
  8
_0-f_
  6
CONTINUOUS
 62
    7
 10
407.29582244764015
 20
312.65652064137356
 11
407.29582244764015
 21
313.09656064137357
  0
LINE
  8
_0-f_
  6
CONTINUOUS
 62
    7
 10
407.29582244764015
 20
313.09656064137357
 11
406.67583044764018
 21
313.09656064137363
  0
LINE
  8
_0-f_
  6
CONTINUOUS
 62
    7
 10
406.67583044764018
 20
313.09656064137363
 11
406.67583044764018
 21
314.01648064137362
  0
LINE
  8
_0-f_
  6
CONTINUOUS
 62
    7
 10
406.67583044764018
 20
314.01648064137362
 11
406.23583044764007
 21
314.01648064137362
  0
LINE
  8
_0-f_
  6
CONTINUOUS
 62
    7
 10
406.23583044764007
 20
314.01648064137362
 11
406.23583044764007
 21
313.09656064137363
  0
LINE
  8
_0-f_
  6
CONTINUOUS
 62
    7
 10
406.23583044764007
 20
313.09656064137363
 11
405.65582244764011
 21
313.09656064137363
  0
LINE
  8
_0-f_
  6
CONTINUOUS
 62
    7
 10
405.65582244764011
 20
313.09656064137363
 11
405.65582244764011
 21
312.65652064137356
  0
LINE
  8
_0-f_
  6
CONTINUOUS
 62
    7
 10
405.65582244764011
 20
312.65652064137356
 11
406.23583044764013
 21
312.65652064137356
  0
LINE
  8
_0-f_
  6
CONTINUOUS
 62
    7
 10
406.23583044764013
 20
312.65652064137356
 11
406.23583044764007
 21
310.49652064137359
  0
LINE
  8
_0-f_
  6
CONTINUOUS
 62
    7
 10
406.23583044764007
 20
310.49652064137359
 11
405.65582244764011
 21
310.49652064137359
  0
LINE
  8
_0-f_
  6
CONTINUOUS
 62
    7
 10
405.65582244764011
 20
310.49652064137359
 11
405.65582244764011
 21
310.01644064137361
  0
LINE
  8
_0-f_
  6
CONTINUOUS
 62
    7
 10
405.65582244764011
 20
310.01644064137361
 11
407.29582244764015
 21
310.01644064137361
  0
LINE
  8
_0-f_
  6
CONTINUOUS
 62
    7
 10
407.29582244764015
 20
310.01644064137361
 11
407.29582244764015
 21
310.49652064137359
  0
LINE
  8
_0-f_
  6
CONTINUOUS
 62
    7
 10
407.29582244764015
 20
310.49652064137359
 11
406.67583044764018
 21
310.49652064137359
  0
LINE
  8
_0-f_
  6
CONTINUOUS
 62
    7
 10
406.67583044764018
 20
310.49652064137359
 11
406.67583044764018
 21
312.65652064137356
  0
LINE
  8
_0-f_
  6
CONTINUOUS
 62
    7
 10
406.67583044764018
 20
311.97644064137359
 11
406.2358304476399
 21
311.97644064137359
  0
LINE
  8
_0-f_
  6
CONTINUOUS
 62
    7
 10
405.03982244763995
 20
311.97644064137359
 11
404.55983044764008
 21
311.97644064137359
  0
LINE
  8
_0-f_
  6
CONTINUOUS
 62
    7
 10
404.13982244763997
 20
311.97644064137359
 11
403.6118304476401
 21
311.97644064137359
  0
LINE
  8
_0-f_
  6
CONTINUOUS
 62
    7
 10
403.19182244764005
 20
311.97644064137359
 11
402.71181444763999
 21
311.97644064137359
  0
LINE
  8
_0-f_
  6
CONTINUOUS
 62
    7
 10
406.67583044764018
 20
312.05644064137363
 11
406.2358304476399
 21
312.05644064137363
  0
LINE
  8
_0-f_
  6
CONTINUOUS
 62
    7
 10
404.13982244763997
 20
312.05644064137363
 11
403.6118304476401
 21
312.05644064137363
  0
LINE
  8
_0-f_
  6
CONTINUOUS
 62
    7
 10
406.67583044764018
 20
312.13644064137355
 11
406.2358304476399
 21
312.13644064137355
  0
LINE
  8
_0-f_
  6
CONTINUOUS
 62
    7
 10
404.13982244763997
 20
312.13644064137355
 11
403.6118304476401
 21
312.13644064137355
  0
LINE
  8
_0-f_
  6
CONTINUOUS
 62
    7
 10
406.67583044764018
 20
312.21644064137359
 11
406.2358304476399
 21
312.21644064137359
  0
LINE
  8
_0-f_
  6
CONTINUOUS
 62
    7
 10
404.13982244763997
 20
312.21644064137359
 11
403.6118304476401
 21
312.21644064137359
  0
LINE
  8
_0-f_
  6
CONTINUOUS
 62
    7
 10
406.67583044764018
 20
312.29644064137358
 11
406.2358304476399
 21
312.29644064137358
  0
LINE
  8
_0-f_
  6
CONTINUOUS
 62
    7
 10
404.13982244763997
 20
312.29644064137358
 11
403.6118304476401
 21
312.29644064137358
  0
LINE
  8
_0-f_
  6
CONTINUOUS
 62
    7
 10
406.67583044764018
 20
312.37644064137356
 11
406.2358304476399
 21
312.37644064137356
  0
LINE
  8
_0-f_
  6
CONTINUOUS
 62
    7
 10
404.13982244763997
 20
312.37644064137356
 11
403.6118304476401
 21
312.37644064137356
  0
LINE
  8
_0-f_
  6
CONTINUOUS
 62
    7
 10
406.67583044764018
 20
312.4564406413736
 11
406.2358304476399
 21
312.4564406413736
  0
LINE
  8
_0-f_
  6
CONTINUOUS
 62
    7
 10
404.13982244763997
 20
312.4564406413736
 11
403.6118304476401
 21
312.4564406413736
  0
LINE
  8
_0-f_
  6
CONTINUOUS
 62
    7
 10
406.67583044764018
 20
312.53644064137364
 11
406.2358304476399
 21
312.53644064137364
  0
LINE
  8
_0-f_
  6
CONTINUOUS
 62
    7
 10
405.25582244764001
 20
312.53644064137364
 11
402.49581444763993
 21
312.53644064137364
  0
LINE
  8
_0-f_
  6
CONTINUOUS
 62
    7
 10
406.67583044764018
 20
312.61644064137363
 11
406.2358304476399
 21
312.61644064137363
  0
LINE
  8
_0-f_
  6
CONTINUOUS
 62
    7
 10
405.25582244764001
 20
312.61644064137363
 11
402.49581444763993
 21
312.61644064137363
  0
LINE
  8
_0-f_
  6
CONTINUOUS
 62
    7
 10
407.29582244764021
 20
312.69644064137361
 11
405.65582244763999
 21
312.69644064137361
  0
LINE
  8
_0-f_
  6
CONTINUOUS
 62
    7
 10
405.25582244764001
 20
312.69644064137361
 11
402.49581444763993
 21
312.69644064137361
  0
LINE
  8
_0-f_
  6
CONTINUOUS
 62
    7
 10
407.29582244764021
 20
312.77644064137365
 11
405.65582244763999
 21
312.77644064137365
  0
LINE
  8
_0-f_
  6
CONTINUOUS
 62
    7
 10
405.25582244764001
 20
312.77644064137365
 11
402.49581444763993
 21
312.77644064137365
  0
LINE
  8
_0-f_
  6
CONTINUOUS
 62
    7
 10
407.29582244764021
 20
312.85644064137358
 11
405.65582244763999
 21
312.85644064137358
  0
LINE
  8
_0-f_
  6
CONTINUOUS
 62
    7
 10
405.25582244764001
 20
312.85644064137358
 11
402.49581444763993
 21
312.85644064137358
  0
LINE
  8
_0-f_
  6
CONTINUOUS
 62
    7
 10
407.29582244764021
 20
312.93644064137362
 11
405.65582244763999
 21
312.93644064137362
  0
LINE
  8
_0-f_
  6
CONTINUOUS
 62
    7
 10
407.29582244764021
 20
313.01644064137361
 11
405.65582244763999
 21
313.01644064137361
  0
LINE
  8
_0-f_
  6
CONTINUOUS
 62
    7
 10
407.29582244764021
 20
313.09644064137359
 11
405.65582244763999
 21
313.09644064137359
  0
LINE
  8
_0-f_
  6
CONTINUOUS
 62
    7
 10
406.67583044764018
 20
313.17644064137363
 11
406.23583044764013
 21
313.17644064137363
  0
LINE
  8
_0-f_
  6
CONTINUOUS
 62
    7
 10
406.67583044764018
 20
313.25644064137356
 11
406.23583044764013
 21
313.25644064137356
  0
LINE
  8
_0-f_
  6
CONTINUOUS
 62
    7
 10
406.67583044764018
 20
313.3364406413736
 11
406.23583044764013
 21
313.3364406413736
  0
LINE
  8
_0-f_
  6
CONTINUOUS
 62
    7
 10
406.67583044764018
 20
313.41644064137364
 11
406.23583044764013
 21
313.41644064137364
  0
LINE
  8
_0-f_
  6
CONTINUOUS
 62
    7
 10
406.67583044764018
 20
313.49644064137357
 11
406.23583044764013
 21
313.49644064137357
  0
LINE
  8
_0-f_
  6
CONTINUOUS
 62
    7
 10
406.67583044764018
 20
313.57644064137361
 11
406.23583044764013
 21
313.57644064137361
  0
LINE
  8
_0-f_
  6
CONTINUOUS
 62
    7
 10
405.25582244764001
 20
313.57644064137361
 11
402.49581444763993
 21
313.57644064137361
  0
LINE
  8
_0-f_
  6
CONTINUOUS
 62
    7
 10
406.67583044764018
 20
313.65644064137365
 11
406.23583044764013
 21
313.65644064137365
  0
LINE
  8
_0-f_
  6
CONTINUOUS
 62
    7
 10
405.25582244764001
 20
313.65644064137365
 11
402.49581444763993
 21
313.65644064137365
  0
LINE
  8
_0-f_
  6
CONTINUOUS
 62
    7
 10
406.67583044764018
 20
313.73644064137363
 11
406.23583044764013
 21
313.73644064137363
  0
LINE
  8
_0-f_
  6
CONTINUOUS
 62
    7
 10
405.25582244764001
 20
313.73644064137363
 11
402.49581444763993
 21
313.73644064137363
  0
LINE
  8
_0-f_
  6
CONTINUOUS
 62
    7
 10
406.67583044764018
 20
313.81644064137362
 11
406.23583044764013
 21
313.81644064137362
  0
LINE
  8
_0-f_
  6
CONTINUOUS
 62
    7
 10
405.25582244764001
 20
313.81644064137362
 11
402.49581444763993
 21
313.81644064137362
  0
LINE
  8
_0-f_
  6
CONTINUOUS
 62
    7
 10
406.67583044764018
 20
313.89644064137366
 11
406.23583044764013
 21
313.89644064137366
  0
LINE
  8
_0-f_
  6
CONTINUOUS
 62
    7
 10
405.25582244764001
 20
313.89644064137366
 11
402.49581444763993
 21
313.89644064137366
  0
LINE
  8
_0-f_
  6
CONTINUOUS
 62
    7
 10
406.67583044764018
 20
313.97644064137359
 11
406.23583044764013
 21
313.97644064137359
  0
LINE
  8
_0-f_
  6
CONTINUOUS
 62
    7
 10
405.25582244764001
 20
313.97644064137359
 11
402.49581444763993
 21
313.97644064137359
  0
LINE
  8
_0-f_
  6
CONTINUOUS
 62
    7
 10
406.67583044764018
 20
311.8964406413736
 11
406.2358304476399
 21
311.8964406413736
  0
LINE
  8
_0-f_
  6
CONTINUOUS
 62
    7
 10
405.03982244763995
 20
311.8964406413736
 11
404.55983044764008
 21
311.8964406413736
  0
LINE
  8
_0-f_
  6
CONTINUOUS
 62
    7
 10
404.13982244763997
 20
311.8964406413736
 11
403.6118304476401
 21
311.8964406413736
  0
LINE
  8
_0-f_
  6
CONTINUOUS
 62
    7
 10
403.19182244764005
 20
311.8964406413736
 11
402.71181444763999
 21
311.8964406413736
  0
LINE
  8
_0-f_
  6
CONTINUOUS
 62
    7
 10
406.67583044764018
 20
311.81644064137362
 11
406.2358304476399
 21
311.81644064137362
  0
LINE
  8
_0-f_
  6
CONTINUOUS
 62
    7
 10
405.03982244763995
 20
311.81644064137362
 11
404.55983044764008
 21
311.81644064137362
  0
LINE
  8
_0-f_
  6
CONTINUOUS
 62
    7
 10
404.13982244763997
 20
311.81644064137362
 11
403.6118304476401
 21
311.81644064137362
  0
LINE
  8
_0-f_
  6
CONTINUOUS
 62
    7
 10
403.19182244764005
 20
311.81644064137362
 11
402.71181444763999
 21
311.81644064137362
  0
LINE
  8
_0-f_
  6
CONTINUOUS
 62
    7
 10
406.67583044764018
 20
311.73644064137358
 11
406.2358304476399
 21
311.73644064137358
  0
LINE
  8
_0-f_
  6
CONTINUOUS
 62
    7
 10
405.03982244763995
 20
311.73644064137358
 11
404.55983044764008
 21
311.73644064137358
  0
LINE
  8
_0-f_
  6
CONTINUOUS
 62
    7
 10
404.13982244763997
 20
311.73644064137358
 11
403.6118304476401
 21
311.73644064137358
  0
LINE
  8
_0-f_
  6
CONTINUOUS
 62
    7
 10
403.19182244764005
 20
311.73644064137358
 11
402.71181444763999
 21
311.73644064137358
  0
LINE
  8
_0-f_
  6
CONTINUOUS
 62
    7
 10
406.67583044764018
 20
311.65644064137354
 11
406.2358304476399
 21
311.65644064137354
  0
LINE
  8
_0-f_
  6
CONTINUOUS
 62
    7
 10
405.03982244763995
 20
311.65644064137354
 11
404.55983044764008
 21
311.65644064137354
  0
LINE
  8
_0-f_
  6
CONTINUOUS
 62
    7
 10
404.13982244763997
 20
311.65644064137354
 11
403.6118304476401
 21
311.65644064137354
  0
LINE
  8
_0-f_
  6
CONTINUOUS
 62
    7
 10
403.19182244764005
 20
311.65644064137354
 11
402.71181444763999
 21
311.65644064137354
  0
LINE
  8
_0-f_
  6
CONTINUOUS
 62
    7
 10
406.67583044764018
 20
311.57644064137361
 11
406.2358304476399
 21
311.57644064137361
  0
LINE
  8
_0-f_
  6
CONTINUOUS
 62
    7
 10
405.03982244763995
 20
311.57644064137361
 11
404.55983044764008
 21
311.57644064137361
  0
LINE
  8
_0-f_
  6
CONTINUOUS
 62
    7
 10
404.13982244763997
 20
311.57644064137361
 11
403.6118304476401
 21
311.57644064137361
  0
LINE
  8
_0-f_
  6
CONTINUOUS
 62
    7
 10
403.19182244764005
 20
311.57644064137361
 11
402.71181444763999
 21
311.57644064137361
  0
LINE
  8
_0-f_
  6
CONTINUOUS
 62
    7
 10
406.67583044764018
 20
311.49644064137357
 11
406.2358304476399
 21
311.49644064137357
  0
LINE
  8
_0-f_
  6
CONTINUOUS
 62
    7
 10
405.03982244763995
 20
311.49644064137357
 11
404.55983044764008
 21
311.49644064137357
  0
LINE
  8
_0-f_
  6
CONTINUOUS
 62
    7
 10
404.13982244763997
 20
311.49644064137357
 11
403.6118304476401
 21
311.49644064137357
  0
LINE
  8
_0-f_
  6
CONTINUOUS
 62
    7
 10
403.19182244764005
 20
311.49644064137357
 11
402.71181444763999
 21
311.49644064137357
  0
LINE
  8
_0-f_
  6
CONTINUOUS
 62
    7
 10
406.67583044764018
 20
311.41644064137353
 11
406.2358304476399
 21
311.41644064137353
  0
LINE
  8
_0-f_
  6
CONTINUOUS
 62
    7
 10
405.03982244763995
 20
311.41644064137353
 11
404.55983044764008
 21
311.41644064137353
  0
LINE
  8
_0-f_
  6
CONTINUOUS
 62
    7
 10
404.13982244763997
 20
311.41644064137353
 11
403.6118304476401
 21
311.41644064137353
  0
LINE
  8
_0-f_
  6
CONTINUOUS
 62
    7
 10
403.19182244764005
 20
311.41644064137353
 11
402.71181444763999
 21
311.41644064137353
  0
LINE
  8
_0-f_
  6
CONTINUOUS
 62
    7
 10
406.67583044764018
 20
311.3364406413736
 11
406.2358304476399
 21
311.3364406413736
  0
LINE
  8
_0-f_
  6
CONTINUOUS
 62
    7
 10
405.03982244763995
 20
311.3364406413736
 11
404.55983044764008
 21
311.3364406413736
  0
LINE
  8
_0-f_
  6
CONTINUOUS
 62
    7
 10
404.13982244763997
 20
311.3364406413736
 11
403.6118304476401
 21
311.3364406413736
  0
LINE
  8
_0-f_
  6
CONTINUOUS
 62
    7
 10
403.19182244764005
 20
311.3364406413736
 11
402.71181444763999
 21
311.3364406413736
  0
LINE
  8
_0-f_
  6
CONTINUOUS
 62
    7
 10
406.67583044764018
 20
311.25644064137356
 11
406.2358304476399
 21
311.25644064137356
  0
LINE
  8
_0-f_
  6
CONTINUOUS
 62
    7
 10
405.03982244763995
 20
311.25644064137356
 11
404.55983044764008
 21
311.25644064137356
  0
LINE
  8
_0-f_
  6
CONTINUOUS
 62
    7
 10
404.13982244763997
 20
311.25644064137356
 11
403.6118304476401
 21
311.25644064137356
  0
LINE
  8
_0-f_
  6
CONTINUOUS
 62
    7
 10
403.19182244764005
 20
311.25644064137356
 11
402.71181444763999
 21
311.25644064137356
  0
LINE
  8
_0-f_
  6
CONTINUOUS
 62
    7
 10
406.67583044764018
 20
311.17644064137357
 11
406.2358304476399
 21
311.17644064137357
  0
LINE
  8
_0-f_
  6
CONTINUOUS
 62
    7
 10
405.03982244763995
 20
311.17644064137357
 11
404.55983044764008
 21
311.17644064137357
  0
LINE
  8
_0-f_
  6
CONTINUOUS
 62
    7
 10
404.13982244763997
 20
311.17644064137357
 11
403.6118304476401
 21
311.17644064137357
  0
LINE
  8
_0-f_
  6
CONTINUOUS
 62
    7
 10
403.19182244764005
 20
311.17644064137357
 11
402.71181444763999
 21
311.17644064137357
  0
LINE
  8
_0-f_
  6
CONTINUOUS
 62
    7
 10
406.67583044764018
 20
311.09644064137359
 11
406.2358304476399
 21
311.09644064137359
  0
LINE
  8
_0-f_
  6
CONTINUOUS
 62
    7
 10
405.03982244763995
 20
311.09644064137359
 11
404.55983044764008
 21
311.09644064137359
  0
LINE
  8
_0-f_
  6
CONTINUOUS
 62
    7
 10
404.13982244763997
 20
311.09644064137359
 11
403.6118304476401
 21
311.09644064137359
  0
LINE
  8
_0-f_
  6
CONTINUOUS
 62
    7
 10
403.19182244764005
 20
311.09644064137359
 11
402.71181444763999
 21
311.09644064137359
  0
LINE
  8
_0-f_
  6
CONTINUOUS
 62
    7
 10
406.67583044764018
 20
311.01644064137355
 11
406.2358304476399
 21
311.01644064137355
  0
LINE
  8
_0-f_
  6
CONTINUOUS
 62
    7
 10
405.03982244763995
 20
311.01644064137355
 11
404.55983044764008
 21
311.01644064137355
  0
LINE
  8
_0-f_
  6
CONTINUOUS
 62
    7
 10
404.13982244763997
 20
311.01644064137355
 11
403.6118304476401
 21
311.01644064137355
  0
LINE
  8
_0-f_
  6
CONTINUOUS
 62
    7
 10
403.19182244764005
 20
311.01644064137355
 11
402.71181444763999
 21
311.01644064137355
  0
LINE
  8
_0-f_
  6
CONTINUOUS
 62
    7
 10
406.67583044764018
 20
310.93644064137362
 11
406.2358304476399
 21
310.93644064137362
  0
LINE
  8
_0-f_
  6
CONTINUOUS
 62
    7
 10
405.03982244763995
 20
310.93644064137362
 11
404.55983044764008
 21
310.93644064137362
  0
LINE
  8
_0-f_
  6
CONTINUOUS
 62
    7
 10
404.13982244763997
 20
310.93644064137362
 11
403.6118304476401
 21
310.93644064137362
  0
LINE
  8
_0-f_
  6
CONTINUOUS
 62
    7
 10
403.19182244764005
 20
310.93644064137362
 11
402.71181444763999
 21
310.93644064137362
  0
LINE
  8
_0-f_
  6
CONTINUOUS
 62
    7
 10
406.67583044764018
 20
310.85644064137358
 11
406.2358304476399
 21
310.85644064137358
  0
LINE
  8
_0-f_
  6
CONTINUOUS
 62
    7
 10
405.03982244763995
 20
310.85644064137358
 11
404.55983044764008
 21
310.85644064137358
  0
LINE
  8
_0-f_
  6
CONTINUOUS
 62
    7
 10
404.13982244763997
 20
310.85644064137358
 11
403.6118304476401
 21
310.85644064137358
  0
LINE
  8
_0-f_
  6
CONTINUOUS
 62
    7
 10
403.19182244764005
 20
310.85644064137358
 11
402.71181444763999
 21
310.85644064137358
  0
LINE
  8
_0-f_
  6
CONTINUOUS
 62
    7
 10
406.67583044764018
 20
310.7764406413736
 11
406.2358304476399
 21
310.7764406413736
  0
LINE
  8
_0-f_
  6
CONTINUOUS
 62
    7
 10
405.03982244763995
 20
310.7764406413736
 11
404.55983044764008
 21
310.7764406413736
  0
LINE
  8
_0-f_
  6
CONTINUOUS
 62
    7
 10
404.13982244763997
 20
310.7764406413736
 11
403.6118304476401
 21
310.7764406413736
  0
LINE
  8
_0-f_
  6
CONTINUOUS
 62
    7
 10
403.19182244764005
 20
310.7764406413736
 11
402.71181444763999
 21
310.7764406413736
  0
LINE
  8
_0-f_
  6
CONTINUOUS
 62
    7
 10
406.67583044764018
 20
310.69644064137361
 11
406.2358304476399
 21
310.69644064137361
  0
LINE
  8
_0-f_
  6
CONTINUOUS
 62
    7
 10
405.03982244763995
 20
310.69644064137361
 11
404.55983044764008
 21
310.69644064137361
  0
LINE
  8
_0-f_
  6
CONTINUOUS
 62
    7
 10
404.13982244763997
 20
310.69644064137361
 11
403.6118304476401
 21
310.69644064137361
  0
LINE
  8
_0-f_
  6
CONTINUOUS
 62
    7
 10
403.19182244764005
 20
310.69644064137361
 11
402.71181444763999
 21
310.69644064137361
  0
LINE
  8
_0-f_
  6
CONTINUOUS
 62
    7
 10
406.67583044764018
 20
310.61644064137357
 11
406.2358304476399
 21
310.61644064137357
  0
LINE
  8
_0-f_
  6
CONTINUOUS
 62
    7
 10
405.04535988467495
 20
310.61644064137357
 11
404.55983044764008
 21
310.61644064137357
  0
LINE
  8
_0-f_
  6
CONTINUOUS
 62
    7
 10
404.13982244763997
 20
310.61644064137357
 11
403.6118304476401
 21
310.61644064137357
  0
LINE
  8
_0-f_
  6
CONTINUOUS
 62
    7
 10
403.19182244764005
 20
310.61644064137357
 11
402.70623924950809
 21
310.61644064137357
  0
LINE
  8
_0-f_
  6
CONTINUOUS
 62
    7
 10
406.67583044764018
 20
310.53644064137353
 11
406.2358304476399
 21
310.53644064137353
  0
LINE
  8
_0-f_
  6
CONTINUOUS
 62
    7
 10
405.09482354248064
 20
310.53644064137353
 11
404.55983044764008
 21
310.53644064137353
  0
LINE
  8
_0-f_
  6
CONTINUOUS
 62
    7
 10
404.13982244763997
 20
310.53644064137353
 11
403.6118304476401
 21
310.53644064137353
  0
LINE
  8
_0-f_
  6
CONTINUOUS
 62
    7
 10
403.19182244764005
 20
310.53644064137353
 11
402.65683012177084
 21
310.53644064137353
  0
LINE
  8
_0-f_
  6
CONTINUOUS
 62
    7
 10
407.29582244763998
 20
310.45644064137355
 11
405.65582244764022
 21
310.45644064137355
  0
LINE
  8
_0-f_
  6
CONTINUOUS
 62
    7
 10
405.25582244763984
 20
310.45644064137355
 11
404.55983044764008
 21
310.45644064137355
  0
LINE
  8
_0-f_
  6
CONTINUOUS
 62
    7
 10
404.13982244763997
 20
310.45644064137355
 11
403.6118304476401
 21
310.45644064137355
  0
LINE
  8
_0-f_
  6
CONTINUOUS
 62
    7
 10
403.19182244764005
 20
310.45644064137355
 11
402.4958144476401
 21
310.45644064137355
  0
LINE
  8
_0-f_
  6
CONTINUOUS
 62
    7
 10
407.29582244763998
 20
310.37644064137356
 11
405.65582244764022
 21
310.37644064137356
  0
LINE
  8
_0-f_
  6
CONTINUOUS
 62
    7
 10
405.25582244763984
 20
310.37644064137356
 11
404.56302533956006
 21
310.37644064137356
  0
LINE
  8
_0-f_
  6
CONTINUOUS
 62
    7
 10
404.13982244763997
 20
310.37644064137356
 11
403.6118304476401
 21
310.37644064137356
  0
LINE
  8
_0-f_
  6
CONTINUOUS
 62
    7
 10
403.188674262794
 20
310.37644064137356
 11
402.4958144476401
 21
310.37644064137356
  0
LINE
  8
_0-f_
  6
CONTINUOUS
 62
    7
 10
407.29582244763998
 20
310.29644064137352
 11
405.65582244764022
 21
310.29644064137352
  0
LINE
  8
_0-f_
  6
CONTINUOUS
 62
    7
 10
405.25582244763984
 20
310.29644064137352
 11
404.57876494138219
 21
310.29644064137352
  0
LINE
  8
_0-f_
  6
CONTINUOUS
 62
    7
 10
404.13982244763997
 20
310.29644064137352
 11
403.6118304476401
 21
310.29644064137352
  0
LINE
  8
_0-f_
  6
CONTINUOUS
 62
    7
 10
403.17311104552641
 20
310.29644064137352
 11
402.4958144476401
 21
310.29644064137352
  0
LINE
  8
_0-f_
  6
CONTINUOUS
 62
    7
 10
407.29582244763998
 20
310.21644064137359
 11
405.65582244764022
 21
310.21644064137359
  0
LINE
  8
_0-f_
  6
CONTINUOUS
 62
    7
 10
405.25582244763984
 20
310.21644064137359
 11
404.61456822918393
 21
310.21644064137359
  0
LINE
  8
_0-f_
  6
CONTINUOUS
 62
    7
 10
404.13982244763997
 20
310.21644064137359
 11
403.6118304476401
 21
310.21644064137359
  0
LINE
  8
_0-f_
  6
CONTINUOUS
 62
    7
 10
403.13694697299371
 20
310.21644064137359
 11
402.4958144476401
 21
310.21644064137359
  0
LINE
  8
_0-f_
  6
CONTINUOUS
 62
    7
 10
407.29582244763998
 20
310.13644064137355
 11
405.65582244764022
 21
310.13644064137355
  0
LINE
  8
_0-f_
  6
CONTINUOUS
 62
    7
 10
405.25582244763984
 20
310.13644064137355
 11
404.67485113321442
 21
310.13644064137355
  0
LINE
  8
_0-f_
  6
CONTINUOUS
 62
    7
 10
404.13982244763997
 20
310.13644064137355
 11
403.6118304476401
 21
310.13644064137355
  0
LINE
  8
_0-f_
  6
CONTINUOUS
 62
    7
 10
403.07709287191551
 20
310.13644064137355
 11
402.4958144476401
 21
310.13644064137355
  0
LINE
  8
_0-f_
  6
CONTINUOUS
 62
    7
 10
407.29582244763998
 20
310.05644064137357
 11
405.65582244764022
 21
310.05644064137357
  0
LINE
  8
_0-f_
  6
CONTINUOUS
 62
    7
 10
405.25582244763984
 20
310.05644064137357
 11
404.78633720537209
 21
310.05644064137357
  0
LINE
  8
_0-f_
  6
CONTINUOUS
 62
    7
 10
404.13982244763997
 20
310.05644064137357
 11
403.6118304476401
 21
310.05644064137357
  0
LINE
  8
_0-f_
  6
CONTINUOUS
 62
    7
 10
402.96473310434732
 20
310.05644064137357
 11
402.4958144476401
 21
310.05644064137357
  0
LINE
  8
_0-f_
  6
CONTINUOUS
 62
    7
 10
403.6118304476401
 20
312.45652064137363
 11
403.6118304476401
 21
310.01644064137361
  0
LINE
  8
_0-f_
  6
CONTINUOUS
 62
    7
 10
404.13982244763997
 20
312.45652064137363
 11
404.13982244763997
 21
310.01644064137361
  0
LINE
  8
_0-f_
  6
CONTINUOUS
 62
    7
 10
402.71181444764005
 20
311.97644064137359
 11
402.71181444764005
 21
310.65652064137356
  0
LINE
  8
_0-f_
  6
CONTINUOUS
 62
    7
 10
403.19182244764005
 20
311.97644064137359
 11
403.19182244764005
 21
310.41644064137358
  0
ARC
  8
_0-f_
  6
CONTINUOUS
 62
    7
 10
402.55182244764006
 20
310.65652064137356
 40
0.16
 50
270
 51
0
  0
LINE
  8
_0-f_
  6
CONTINUOUS
 62
    7
 10
402.49581444764004
 20
310.01644064137361
 11
402.79182244764007
 21
310.01644064137361
  0
LINE
  8
_0-f_
  6
CONTINUOUS
 62
    7
 10
402.49581444764004
 20
310.49652064137359
 11
402.55182244764006
 21
310.49652064137359
  0
LINE
  8
_0-f_
  6
CONTINUOUS
 62
    7
 10
402.49581444764004
 20
310.49652064137359
 11
402.49581444764004
 21
310.01644064137361
  0
ARC
  8
_0-f_
  6
CONTINUOUS
 62
    7
 10
402.79182244764007
 20
310.41644064137358
 40
0.4
 50
270
 51
0
  0
LINE
  8
_0-f_
  6
CONTINUOUS
 62
    7
 10
402.71181444764005
 20
311.97644064137359
 11
403.19182244764005
 21
311.97644064137359
  0
LINE
  8
_0-f_
  6
CONTINUOUS
 62
    7
 10
403.6118304476401
 20
310.01644064137361
 11
404.13982244763997
 21
310.01644064137361
  0
LINE
  8
_0-f_
  6
CONTINUOUS
 62
    7
 10
404.55983044764008
 20
311.97644064137359
 11
404.55983044764008
 21
310.41644064137358
  0
LINE
  8
_0-f_
  6
CONTINUOUS
 62
    7
 10
405.03982244764012
 20
311.97644064137359
 11
405.03982244764012
 21
310.65652064137356
  0
ARC
  8
_0-f_
  6
CONTINUOUS
 62
    7
 10
404.9598144476401
 20
310.41644064137358
 40
0.4
 50
180
 51
270
  0
LINE
  8
_0-f_
  6
CONTINUOUS
 62
    7
 10
404.9598144476401
 20
310.01644064137361
 11
405.25582244764001
 21
310.01644064137361
  0
LINE
  8
_0-f_
  6
CONTINUOUS
 62
    7
 10
405.25582244764001
 20
310.49652064137359
 11
405.25582244764001
 21
310.01644064137361
  0
LINE
  8
_0-f_
  6
CONTINUOUS
 62
    7
 10
405.19981444764005
 20
310.49652064137359
 11
405.25582244764001
 21
310.49652064137359
  0
ARC
  8
_0-f_
  6
CONTINUOUS
 62
    7
 10
405.19981444764005
 20
310.65652064137356
 40
0.16
 50
180
 51
270
  0
LINE
  8
_0-f_
  6
CONTINUOUS
 62
    7
 10
404.55983044764008
 20
311.97644064137359
 11
405.03982244764012
 21
311.97644064137359
  0
LINE
  8
_0-f_
  6
CONTINUOUS
 62
    7
 10
402.49581444764004
 20
314.01648064137362
 11
405.25582244764001
 21
314.01648064137362
  0
LINE
  8
_0-f_
  6
CONTINUOUS
 62
    7
 10
402.49581444764004
 20
313.57644064137361
 11
405.25582244764001
 21
313.57644064137361
  0
LINE
  8
_0-f_
  6
CONTINUOUS
 62
    7
 10
402.49581444764004
 20
312.89656064137358
 11
405.25582244764001
 21
312.89656064137358
  0
LINE
  8
_0-f_
  6
CONTINUOUS
 62
    7
 10
402.49581444764004
 20
312.45652064137363
 11
403.6118304476401
 21
312.45652064137363
  0
LINE
  8
_0-f_
  6
CONTINUOUS
 62
    7
 10
402.49581444764004
 20
312.89656064137358
 11
402.49581444764004
 21
312.45652064137363
  0
LINE
  8
_0-f_
  6
CONTINUOUS
 62
    7
 10
402.49581444764004
 20
314.01648064137362
 11
402.49581444764004
 21
313.57644064137361
  0
LINE
  8
_0-f_
  6
CONTINUOUS
 62
    7
 10
404.13982244763997
 20
312.45652064137363
 11
405.25582244764001
 21
312.45652064137363
  0
LINE
  8
_0-f_
  6
CONTINUOUS
 62
    7
 10
405.25582244764001
 20
312.89656064137358
 11
405.25582244764001
 21
312.45652064137363
  0
LINE
  8
_0-f_
  6
CONTINUOUS
 62
    7
 10
405.25582244764001
 20
314.01648064137362
 11
405.25582244764001
 21
313.57644064137361
  0
LINE
  8
_0-f_
  6
CONTINUOUS
 62
    7
 10
406.23583044764007
 20
312.65652064137356
 11
406.23583044764007
 21
310.49652064137359
  0
LINE
  8
_0-f_
  6
CONTINUOUS
 62
    7
 10
406.67583044764018
 20
312.65652064137356
 11
406.67583044764018
 21
310.49652064137359
  0
LINE
  8
_0-f_
  6
CONTINUOUS
 62
    7
 10
405.65582244764011
 20
310.01644064137361
 11
407.29582244764015
 21
310.01644064137361
  0
LINE
  8
_0-f_
  6
CONTINUOUS
 62
    7
 10
405.65582244764011
 20
310.49652064137359
 11
406.23583044764007
 21
310.49652064137359
  0
LINE
  8
_0-f_
  6
CONTINUOUS
 62
    7
 10
405.65582244764011
 20
310.49652064137359
 11
405.65582244764011
 21
310.01644064137361
  0
LINE
  8
_0-f_
  6
CONTINUOUS
 62
    7
 10
407.29582244764015
 20
310.49652064137359
 11
406.67583044764018
 21
310.49652064137359
  0
LINE
  8
_0-f_
  6
CONTINUOUS
 62
    7
 10
407.29582244764015
 20
310.49652064137359
 11
407.29582244764015
 21
310.01644064137361
  0
LINE
  8
_0-f_
  6
CONTINUOUS
 62
    7
 10
406.23583044764007
 20
314.01648064137362
 11
406.67583044764018
 21
314.01648064137362
  0
LINE
  8
_0-f_
  6
CONTINUOUS
 62
    7
 10
406.23583044764007
 20
314.01648064137362
 11
406.23583044764007
 21
313.09656064137363
  0
LINE
  8
_0-f_
  6
CONTINUOUS
 62
    7
 10
405.65582244764011
 20
313.09656064137363
 11
406.23583044764007
 21
313.09656064137363
  0
LINE
  8
_0-f_
  6
CONTINUOUS
 62
    7
 10
405.65582244764011
 20
312.65652064137356
 11
406.23583044764007
 21
312.65652064137356
  0
LINE
  8
_0-f_
  6
CONTINUOUS
 62
    7
 10
405.65582244764011
 20
313.09656064137363
 11
405.65582244764011
 21
312.65652064137356
  0
LINE
  8
_0-f_
  6
CONTINUOUS
 62
    7
 10
406.67583044764018
 20
314.01648064137362
 11
406.67583044764018
 21
313.09656064137363
  0
LINE
  8
_0-f_
  6
CONTINUOUS
 62
    7
 10
407.29582244764015
 20
312.65652064137356
 11
406.67583044764018
 21
312.65652064137356
  0
LINE
  8
_0-f_
  6
CONTINUOUS
 62
    7
 10
406.67583044764018
 20
313.09656064137363
 11
407.29582244764015
 21
313.09656064137363
  0
LINE
  8
_0-f_
  6
CONTINUOUS
 62
    7
 10
407.29582244764015
 20
313.09519264137361
 11
407.29582244764015
 21
312.65652064137356
  0
LINE
  8
_0-f_
  6
CONTINUOUS
 62
    7
 10
379.81917207307521
 20
314.01648064137362
 11
375.65916407307503
 21
314.01648064137362
  0
LINE
  8
_0-f_
  6
CONTINUOUS
 62
    7
 10
375.65916407307503
 20
314.01648064137362
 11
375.65916407307503
 21
313.53640064137358
  0
LINE
  8
_0-f_
  6
CONTINUOUS
 62
    7
 10
375.65916407307503
 20
313.53640064137358
 11
377.33914807307508
 21
313.53640064137363
  0
LINE
  8
_0-f_
  6
CONTINUOUS
 62
    7
 10
377.33914807307508
 20
313.53640064137363
 11
377.33914807307508
 21
310.49652064137359
  0
LINE
  8
_0-f_
  6
CONTINUOUS
 62
    7
 10
377.33914807307508
 20
310.49652064137359
 11
375.33917207307496
 21
310.49652064137359
  0
LINE
  8
_0-f_
  6
CONTINUOUS
 62
    7
 10
375.33917207307496
 20
310.49652064137359
 11
375.33917207307496
 21
310.01644064137361
  0
LINE
  8
_0-f_
  6
CONTINUOUS
 62
    7
 10
375.33917207307496
 20
310.01644064137361
 11
380.13914807307515
 21
310.01644064137361
  0
LINE
  8
_0-f_
  6
CONTINUOUS
 62
    7
 10
380.13914807307515
 20
310.01644064137361
 11
380.13914807307515
 21
310.49652064137359
  0
LINE
  8
_0-f_
  6
CONTINUOUS
 62
    7
 10
380.13914807307515
 20
310.49652064137359
 11
378.13914807307503
 21
310.49652064137359
  0
LINE
  8
_0-f_
  6
CONTINUOUS
 62
    7
 10
378.13914807307503
 20
310.49652064137359
 11
378.13914807307503
 21
313.53640064137358
  0
LINE
  8
_0-f_
  6
CONTINUOUS
 62
    7
 10
378.13914807307503
 20
313.53640064137358
 11
379.81917207307521
 21
313.53640064137363
  0
LINE
  8
_0-f_
  6
CONTINUOUS
 62
    7
 10
379.81917207307521
 20
313.53640064137363
 11
379.81917207307521
 21
314.01648064137362
  0
LINE
  8
_0-f_
  6
CONTINUOUS
 62
    7
 10
378.13914807307503
 20
311.97644064137359
 11
377.33914807307508
 21
311.97644064137359
  0
LINE
  8
_0-f_
  6
CONTINUOUS
 62
    7
 10
378.13914807307503
 20
312.05644064137363
 11
377.33914807307508
 21
312.05644064137363
  0
LINE
  8
_0-f_
  6
CONTINUOUS
 62
    7
 10
378.13914807307503
 20
312.13644064137355
 11
377.33914807307508
 21
312.13644064137355
  0
LINE
  8
_0-f_
  6
CONTINUOUS
 62
    7
 10
378.13914807307503
 20
312.21644064137359
 11
377.33914807307508
 21
312.21644064137359
  0
LINE
  8
_0-f_
  6
CONTINUOUS
 62
    7
 10
378.13914807307503
 20
312.29644064137358
 11
377.33914807307508
 21
312.29644064137358
  0
LINE
  8
_0-f_
  6
CONTINUOUS
 62
    7
 10
378.13914807307503
 20
312.37644064137356
 11
377.33914807307508
 21
312.37644064137356
  0
LINE
  8
_0-f_
  6
CONTINUOUS
 62
    7
 10
378.13914807307503
 20
312.4564406413736
 11
377.33914807307508
 21
312.4564406413736
  0
LINE
  8
_0-f_
  6
CONTINUOUS
 62
    7
 10
378.13914807307503
 20
312.53644064137364
 11
377.33914807307508
 21
312.53644064137364
  0
LINE
  8
_0-f_
  6
CONTINUOUS
 62
    7
 10
378.13914807307503
 20
312.61644064137363
 11
377.33914807307508
 21
312.61644064137363
  0
LINE
  8
_0-f_
  6
CONTINUOUS
 62
    7
 10
378.13914807307503
 20
312.69644064137361
 11
377.33914807307508
 21
312.69644064137361
  0
LINE
  8
_0-f_
  6
CONTINUOUS
 62
    7
 10
378.13914807307503
 20
312.77644064137365
 11
377.33914807307508
 21
312.77644064137365
  0
LINE
  8
_0-f_
  6
CONTINUOUS
 62
    7
 10
378.13914807307503
 20
312.85644064137358
 11
377.33914807307508
 21
312.85644064137358
  0
LINE
  8
_0-f_
  6
CONTINUOUS
 62
    7
 10
378.13914807307503
 20
312.93644064137362
 11
377.33914807307508
 21
312.93644064137362
  0
LINE
  8
_0-f_
  6
CONTINUOUS
 62
    7
 10
378.13914807307503
 20
313.01644064137361
 11
377.33914807307508
 21
313.01644064137361
  0
LINE
  8
_0-f_
  6
CONTINUOUS
 62
    7
 10
378.13914807307503
 20
313.09644064137359
 11
377.33914807307508
 21
313.09644064137359
  0
LINE
  8
_0-f_
  6
CONTINUOUS
 62
    7
 10
378.13914807307503
 20
313.17644064137363
 11
377.33914807307508
 21
313.17644064137363
  0
LINE
  8
_0-f_
  6
CONTINUOUS
 62
    7
 10
378.13914807307503
 20
313.25644064137356
 11
377.33914807307508
 21
313.25644064137356
  0
LINE
  8
_0-f_
  6
CONTINUOUS
 62
    7
 10
378.13914807307503
 20
313.3364406413736
 11
377.33914807307508
 21
313.3364406413736
  0
LINE
  8
_0-f_
  6
CONTINUOUS
 62
    7
 10
378.13914807307503
 20
313.41644064137364
 11
377.33914807307508
 21
313.41644064137364
  0
LINE
  8
_0-f_
  6
CONTINUOUS
 62
    7
 10
378.13914807307503
 20
313.49644064137357
 11
377.33914807307508
 21
313.49644064137357
  0
LINE
  8
_0-f_
  6
CONTINUOUS
 62
    7
 10
379.81917207307504
 20
313.57644064137361
 11
375.65916407307503
 21
313.57644064137361
  0
LINE
  8
_0-f_
  6
CONTINUOUS
 62
    7
 10
379.81917207307504
 20
313.65644064137365
 11
375.65916407307503
 21
313.65644064137365
  0
LINE
  8
_0-f_
  6
CONTINUOUS
 62
    7
 10
379.81917207307504
 20
313.73644064137363
 11
375.65916407307503
 21
313.73644064137363
  0
LINE
  8
_0-f_
  6
CONTINUOUS
 62
    7
 10
379.81917207307504
 20
313.81644064137362
 11
375.65916407307503
 21
313.81644064137362
  0
LINE
  8
_0-f_
  6
CONTINUOUS
 62
    7
 10
379.81917207307504
 20
313.89644064137366
 11
375.65916407307503
 21
313.89644064137366
  0
LINE
  8
_0-f_
  6
CONTINUOUS
 62
    7
 10
379.81917207307504
 20
313.97644064137359
 11
375.65916407307503
 21
313.97644064137359
  0
LINE
  8
_0-f_
  6
CONTINUOUS
 62
    7
 10
378.13914807307503
 20
311.8964406413736
 11
377.33914807307508
 21
311.8964406413736
  0
LINE
  8
_0-f_
  6
CONTINUOUS
 62
    7
 10
378.13914807307503
 20
311.81644064137362
 11
377.33914807307508
 21
311.81644064137362
  0
LINE
  8
_0-f_
  6
CONTINUOUS
 62
    7
 10
378.13914807307503
 20
311.73644064137358
 11
377.33914807307508
 21
311.73644064137358
  0
LINE
  8
_0-f_
  6
CONTINUOUS
 62
    7
 10
378.13914807307503
 20
311.65644064137354
 11
377.33914807307508
 21
311.65644064137354
  0
LINE
  8
_0-f_
  6
CONTINUOUS
 62
    7
 10
378.13914807307503
 20
311.57644064137361
 11
377.33914807307508
 21
311.57644064137361
  0
LINE
  8
_0-f_
  6
CONTINUOUS
 62
    7
 10
378.13914807307503
 20
311.49644064137357
 11
377.33914807307508
 21
311.49644064137357
  0
LINE
  8
_0-f_
  6
CONTINUOUS
 62
    7
 10
378.13914807307503
 20
311.41644064137353
 11
377.33914807307508
 21
311.41644064137353
  0
LINE
  8
_0-f_
  6
CONTINUOUS
 62
    7
 10
378.13914807307503
 20
311.3364406413736
 11
377.33914807307508
 21
311.3364406413736
  0
LINE
  8
_0-f_
  6
CONTINUOUS
 62
    7
 10
378.13914807307503
 20
311.25644064137356
 11
377.33914807307508
 21
311.25644064137356
  0
LINE
  8
_0-f_
  6
CONTINUOUS
 62
    7
 10
378.13914807307503
 20
311.17644064137357
 11
377.33914807307508
 21
311.17644064137357
  0
LINE
  8
_0-f_
  6
CONTINUOUS
 62
    7
 10
378.13914807307503
 20
311.09644064137359
 11
377.33914807307508
 21
311.09644064137359
  0
LINE
  8
_0-f_
  6
CONTINUOUS
 62
    7
 10
378.13914807307503
 20
311.01644064137355
 11
377.33914807307508
 21
311.01644064137355
  0
LINE
  8
_0-f_
  6
CONTINUOUS
 62
    7
 10
378.13914807307503
 20
310.93644064137362
 11
377.33914807307508
 21
310.93644064137362
  0
LINE
  8
_0-f_
  6
CONTINUOUS
 62
    7
 10
378.13914807307503
 20
310.85644064137358
 11
377.33914807307508
 21
310.85644064137358
  0
LINE
  8
_0-f_
  6
CONTINUOUS
 62
    7
 10
378.13914807307503
 20
310.7764406413736
 11
377.33914807307508
 21
310.7764406413736
  0
LINE
  8
_0-f_
  6
CONTINUOUS
 62
    7
 10
378.13914807307503
 20
310.69644064137361
 11
377.33914807307508
 21
310.69644064137361
  0
LINE
  8
_0-f_
  6
CONTINUOUS
 62
    7
 10
378.13914807307503
 20
310.61644064137357
 11
377.33914807307508
 21
310.61644064137357
  0
LINE
  8
_0-f_
  6
CONTINUOUS
 62
    7
 10
378.13914807307503
 20
310.53644064137353
 11
377.33914807307508
 21
310.53644064137353
  0
LINE
  8
_0-f_
  6
CONTINUOUS
 62
    7
 10
380.13914807307509
 20
310.45644064137355
 11
375.33917207307496
 21
310.45644064137355
  0
LINE
  8
_0-f_
  6
CONTINUOUS
 62
    7
 10
380.13914807307509
 20
310.37644064137356
 11
375.33917207307496
 21
310.37644064137356
  0
LINE
  8
_0-f_
  6
CONTINUOUS
 62
    7
 10
380.13914807307509
 20
310.29644064137352
 11
375.33917207307496
 21
310.29644064137352
  0
LINE
  8
_0-f_
  6
CONTINUOUS
 62
    7
 10
380.13914807307509
 20
310.21644064137359
 11
375.33917207307496
 21
310.21644064137359
  0
LINE
  8
_0-f_
  6
CONTINUOUS
 62
    7
 10
380.13914807307509
 20
310.13644064137355
 11
375.33917207307496
 21
310.13644064137355
  0
LINE
  8
_0-f_
  6
CONTINUOUS
 62
    7
 10
380.13914807307509
 20
310.05644064137357
 11
375.33917207307496
 21
310.05644064137357
  0
LINE
  8
_0-f_
  6
CONTINUOUS
 62
    7
 10
375.65916407307503
 20
314.01648064137362
 11
379.81917207307521
 21
314.01648064137362
  0
LINE
  8
_0-f_
  6
CONTINUOUS
 62
    7
 10
375.33917207307496
 20
310.01644064137361
 11
380.13914807307515
 21
310.01644064137361
  0
LINE
  8
_0-f_
  6
CONTINUOUS
 62
    7
 10
378.13914807307503
 20
310.49652064137359
 11
380.13914807307515
 21
310.49652064137359
  0
LINE
  8
_0-f_
  6
CONTINUOUS
 62
    7
 10
378.13914807307503
 20
313.53640064137363
 11
379.81917207307521
 21
313.53640064137363
  0
LINE
  8
_0-f_
  6
CONTINUOUS
 62
    7
 10
377.33914807307508
 20
313.53640064137363
 11
377.33914807307508
 21
310.49652064137359
  0
LINE
  8
_0-f_
  6
CONTINUOUS
 62
    7
 10
378.13914807307503
 20
313.53640064137363
 11
378.13914807307503
 21
310.49652064137359
  0
LINE
  8
_0-f_
  6
CONTINUOUS
 62
    7
 10
375.33917207307496
 20
310.49652064137359
 11
377.33914807307508
 21
310.49652064137359
  0
LINE
  8
_0-f_
  6
CONTINUOUS
 62
    7
 10
375.33917207307496
 20
310.49652064137359
 11
375.33917207307496
 21
310.01644064137361
  0
LINE
  8
_0-f_
  6
CONTINUOUS
 62
    7
 10
375.65916407307503
 20
313.53640064137358
 11
377.33914807307508
 21
313.53640064137363
  0
LINE
  8
_0-f_
  6
CONTINUOUS
 62
    7
 10
375.65916407307503
 20
314.01648064137362
 11
375.65916407307503
 21
313.53640064137358
  0
LINE
  8
_0-f_
  6
CONTINUOUS
 62
    7
 10
380.13914807307515
 20
310.49652064137359
 11
380.13914807307515
 21
310.01644064137361
  0
LINE
  8
_0-f_
  6
CONTINUOUS
 62
    7
 10
379.81917207307521
 20
314.01648064137362
 11
379.81917207307521
 21
313.53640064137358
  0
LINE
  8
_0-f_
  6
CONTINUOUS
 62
    7
 10
373.41922991506914
 20
312.57644064137361
 11
372.74966558230835
 21
310.73644064137363
  0
LINE
  8
_0-f_
  6
CONTINUOUS
 62
    7
 10
372.74966558230835
 20
310.73644064137363
 11
372.34961247081549
 21
310.73644064137363
  0
LINE
  8
_0-f_
  6
CONTINUOUS
 62
    7
 10
372.34961247081549
 20
310.73644064137363
 11
372.08723647081558
 21
310.01644064137361
  0
LINE
  8
_0-f_
  6
CONTINUOUS
 62
    7
 10
372.08723647081558
 20
310.01644064137361
 11
373.56174848966151
 21
310.01644064137361
  0
ARC
  8
_0-f_
  6
CONTINUOUS
 62
    7
 10
373.56174848966151
 20
310.41644064137358
 40
0.4000000000000004
 50
270
 51
339.99904441127069
  0
LINE
  8
_0-f_
  6
CONTINUOUS
 62
    7
 10
373.9376232562156
 20
310.27962631512122
 11
374.91851778753187
 21
312.97447204562212
  0
ARC
  8
_0-f_
  6
CONTINUOUS
 62
    7
 10
374.69299292759933
 20
313.05656064137361
 40
0.2399999999999993
 50
339.99904441126887
 51
90.000000000000014
  0
LINE
  8
_0-f_
  6
CONTINUOUS
 62
    7
 10
374.69299292759933
 20
313.29656064137356
 11
372.65366414051812
 21
313.29656064137356
  0
LINE
  8
_0-f_
  6
CONTINUOUS
 62
    7
 10
372.65366414051812
 20
313.29656064137356
 11
372.79844606384245
 21
313.69440696846635
  0
ARC
  8
_0-f_
  6
CONTINUOUS
 62
    7
 10
372.5729157727161
 20
313.77648064137355
 40
0.2399999999999989
 50
340.002835592856
 51
90.000000000000043
  0
LINE
  8
_0-f_
  6
CONTINUOUS
 62
    7
 10
372.5729157727161
 20
314.01648064137362
 11
371.56087644672704
 21
314.01648064137362
  0
LINE
  8
_0-f_
  6
CONTINUOUS
 62
    7
 10
371.56087644672704
 20
314.01648064137362
 11
371.29928442263827
 21
313.29656064137356
  0
LINE
  8
_0-f_
  6
CONTINUOUS
 62
    7
 10
371.29928442263827
 20
313.29656064137356
 11
370.65923647081559
 21
313.29656064137356
  0
LINE
  8
_0-f_
  6
CONTINUOUS
 62
    7
 10
370.65923647081559
 20
313.29656064137356
 11
370.3968051474742
 21
312.57644064137361
  0
LINE
  8
_0-f_
  6
CONTINUOUS
 62
    7
 10
370.3968051474742
 20
312.57644064137361
 11
371.03686485056625
 21
312.57644064137361
  0
LINE
  8
_0-f_
  6
CONTINUOUS
 62
    7
 10
371.03686485056625
 20
312.57644064137361
 11
370.36724447081554
 21
310.73644064137363
  0
LINE
  8
_0-f_
  6
CONTINUOUS
 62
    7
 10
370.36724447081554
 20
310.73644064137363
 11
369.72722847081548
 21
310.73644064137363
  0
LINE
  8
_0-f_
  6
CONTINUOUS
 62
    7
 10
369.72722847081548
 20
310.73644064137363
 11
369.46484962402064
 21
310.01644064137361
  0
LINE
  8
_0-f_
  6
CONTINUOUS
 62
    7
 10
369.46484962402064
 20
310.01644064137361
 11
371.12420160992917
 21
310.01644064137361
  0
ARC
  8
_0-f_
  6
CONTINUOUS
 62
    7
 10
371.12420160992917
 20
310.49644064137357
 40
0.4800000000000009
 50
270
 51
340.00100452272619
  0
LINE
  8
_0-f_
  6
CONTINUOUS
 62
    7
 10
371.57525694609706
 20
310.33227888055762
 11
372.39202047081551
 21
312.57644064137361
  0
LINE
  8
_0-f_
  6
CONTINUOUS
 62
    7
 10
372.39202047081551
 20
312.57644064137361
 11
373.41922991506914
 21
312.57644064137361
  0
LINE
  8
_0-f_
  6
CONTINUOUS
 62
    7
 10
374.55524521299105
 20
311.97644064137359
 11
373.20089371960364
 21
311.97644064137359
  0
LINE
  8
_0-f_
  6
CONTINUOUS
 62
    7
 10
372.17365024305934
 20
311.97644064137359
 11
370.8185103789084
 21
311.97644064137359
  0
LINE
  8
_0-f_
  6
CONTINUOUS
 62
    7
 10
374.58436434274938
 20
312.05644064137363
 11
373.2300052123324
 21
312.05644064137363
  0
LINE
  8
_0-f_
  6
CONTINUOUS
 62
    7
 10
372.20276627342679
 20
312.05644064137363
 11
370.8476243084628
 21
312.05644064137363
  0
LINE
  8
_0-f_
  6
CONTINUOUS
 62
    7
 10
374.61348347250782
 20
312.13644064137355
 11
373.2591167050611
 21
312.13644064137355
  0
LINE
  8
_0-f_
  6
CONTINUOUS
 62
    7
 10
372.23188230379429
 20
312.13644064137355
 11
370.8767382380172
 21
312.13644064137355
  0
LINE
  8
_0-f_
  6
CONTINUOUS
 62
    7
 10
374.64260260226627
 20
312.21644064137359
 11
373.28822819778986
 21
312.21644064137359
  0
LINE
  8
_0-f_
  6
CONTINUOUS
 62
    7
 10
372.2609983341618
 20
312.21644064137359
 11
370.90585216757154
 21
312.21644064137359
  0
LINE
  8
_0-f_
  6
CONTINUOUS
 62
    7
 10
374.67172173202459
 20
312.29644064137358
 11
373.31733969051857
 21
312.29644064137358
  0
LINE
  8
_0-f_
  6
CONTINUOUS
 62
    7
 10
372.2901143645293
 20
312.29644064137364
 11
370.93496609712588
 21
312.29644064137358
  0
LINE
  8
_0-f_
  6
CONTINUOUS
 62
    7
 10
374.70084086178298
 20
312.37644064137356
 11
373.34645118324727
 21
312.37644064137356
  0
LINE
  8
_0-f_
  6
CONTINUOUS
 62
    7
 10
372.31923039489675
 20
312.37644064137356
 11
370.96408002668028
 21
312.37644064137356
  0
LINE
  8
_0-f_
  6
CONTINUOUS
 62
    7
 10
374.72995999154136
 20
312.4564406413736
 11
373.37556267597608
 21
312.4564406413736
  0
LINE
  8
_0-f_
  6
CONTINUOUS
 62
    7
 10
372.34834642526425
 20
312.4564406413736
 11
370.99319395623468
 21
312.4564406413736
  0
LINE
  8
_0-f_
  6
CONTINUOUS
 62
    7
 10
374.75907912129975
 20
312.53644064137364
 11
373.40467416870479
 21
312.53644064137364
  0
LINE
  8
_0-f_
  6
CONTINUOUS
 62
    7
 10
372.37746245563176
 20
312.53644064137364
 11
371.02230788578908
 21
312.53644064137364
  0
LINE
  8
_0-f_
  6
CONTINUOUS
 62
    7
 10
374.78819825105813
 20
312.61644064137363
 11
370.41138223592293
 21
312.61644064137363
  0
LINE
  8
_0-f_
  6
CONTINUOUS
 62
    7
 10
374.81731738081658
 20
312.69644064137361
 11
370.44053641282028
 21
312.69644064137361
  0
LINE
  8
_0-f_
  6
CONTINUOUS
 62
    7
 10
374.84643651057496
 20
312.77644064137365
 11
370.46969058971763
 21
312.77644064137365
  0
LINE
  8
_0-f_
  6
CONTINUOUS
 62
    7
 10
374.87555564033335
 20
312.85644064137358
 11
370.49884476661492
 21
312.85644064137358
  0
LINE
  8
_0-f_
  6
CONTINUOUS
 62
    7
 10
374.90467477009167
 20
312.93644064137362
 11
370.52799894351233
 21
312.93644064137362
  0
LINE
  8
_0-f_
  6
CONTINUOUS
 62
    7
 10
374.92922952333311
 20
313.01644064137361
 11
370.55715312040962
 21
313.01644064137361
  0
LINE
  8
_0-f_
  6
CONTINUOUS
 62
    7
 10
374.92904096912059
 20
313.09644064137359
 11
370.58630729730692
 21
313.09644064137359
  0
LINE
  8
_0-f_
  6
CONTINUOUS
 62
    7
 10
374.90006735941108
 20
313.17644064137363
 11
370.61546147420427
 21
313.17644064137363
  0
LINE
  8
_0-f_
  6
CONTINUOUS
 62
    7
 10
374.82449908061949
 20
313.25644064137356
 11
370.64461565110162
 21
313.25644064137356
  0
LINE
  8
_0-f_
  6
CONTINUOUS
 62
    7
 10
372.66817703836074
 20
313.3364406413736
 11
371.31377532429491
 21
313.3364406413736
  0
LINE
  8
_0-f_
  6
CONTINUOUS
 62
    7
 10
372.69729017345139
 20
313.41644064137364
 11
371.34284433463927
 21
313.41644064137364
  0
LINE
  8
_0-f_
  6
CONTINUOUS
 62
    7
 10
372.72640330854193
 20
313.49644064137357
 11
371.37191334498357
 21
313.49644064137357
  0
LINE
  8
_0-f_
  6
CONTINUOUS
 62
    7
 10
372.75551644363247
 20
313.57644064137361
 11
371.40098235532793
 21
313.57644064137361
  0
LINE
  8
_0-f_
  6
CONTINUOUS
 62
    7
 10
372.78462957872313
 20
313.65644064137365
 11
371.43005136567228
 21
313.65644064137365
  0
LINE
  8
_0-f_
  6
CONTINUOUS
 62
    7
 10
372.80916253192413
 20
313.73644064137363
 11
371.4591203760167
 21
313.73644064137363
  0
LINE
  8
_0-f_
  6
CONTINUOUS
 62
    7
 10
372.80894799367672
 20
313.81644064137362
 11
371.488189386361
 21
313.81644064137362
  0
LINE
  8
_0-f_
  6
CONTINUOUS
 62
    7
 10
372.77994477709365
 20
313.89644064137366
 11
371.51725839670536
 21
313.89644064137366
  0
LINE
  8
_0-f_
  6
CONTINUOUS
 62
    7
 10
372.70430085751491
 20
313.97644064137359
 11
371.54632740704972
 21
313.97644064137359
  0
LINE
  8
_0-f_
  6
CONTINUOUS
 62
    7
 10
374.52612608323267
 20
311.8964406413736
 11
373.17178222687494
 21
311.8964406413736
  0
LINE
  8
_0-f_
  6
CONTINUOUS
 62
    7
 10
372.14453421269184
 20
311.8964406413736
 11
370.789396449354
 21
311.8964406413736
  0
LINE
  8
_0-f_
  6
CONTINUOUS
 62
    7
 10
374.49700695347428
 20
311.81644064137362
 11
373.14267073414618
 21
311.81644064137362
  0
LINE
  8
_0-f_
  6
CONTINUOUS
 62
    7
 10
372.11541818232433
 20
311.81644064137362
 11
370.76028251979966
 21
311.81644064137362
  0
LINE
  8
_0-f_
  6
CONTINUOUS
 62
    7
 10
374.4678878237159
 20
311.73644064137358
 11
373.11355924141748
 21
311.73644064137358
  0
LINE
  8
_0-f_
  6
CONTINUOUS
 62
    7
 10
372.08630215195683
 20
311.73644064137358
 11
370.73116859024526
 21
311.73644064137358
  0
LINE
  8
_0-f_
  6
CONTINUOUS
 62
    7
 10
374.43876869395751
 20
311.65644064137354
 11
373.08444774868872
 21
311.65644064137354
  0
LINE
  8
_0-f_
  6
CONTINUOUS
 62
    7
 10
372.05718612158933
 20
311.65644064137354
 11
370.70205466069086
 21
311.65644064137354
  0
LINE
  8
_0-f_
  6
CONTINUOUS
 62
    7
 10
374.40964956419907
 20
311.57644064137361
 11
373.05533625596001
 21
311.57644064137361
  0
LINE
  8
_0-f_
  6
CONTINUOUS
 62
    7
 10
372.02807009122188
 20
311.57644064137361
 11
370.67294073113646
 21
311.57644064137361
  0
LINE
  8
_0-f_
  6
CONTINUOUS
 62
    7
 10
374.38053043444074
 20
311.49644064137357
 11
373.02622476323131
 21
311.49644064137357
  0
LINE
  8
_0-f_
  6
CONTINUOUS
 62
    7
 10
371.99895406085437
 20
311.49644064137357
 11
370.64382680158212
 21
311.49644064137357
  0
LINE
  8
_0-f_
  6
CONTINUOUS
 62
    7
 10
374.3514113046823
 20
311.41644064137353
 11
372.9971132705025
 21
311.41644064137353
  0
LINE
  8
_0-f_
  6
CONTINUOUS
 62
    7
 10
371.96983803048693
 20
311.41644064137364
 11
370.61471287202778
 21
311.41644064137353
  0
LINE
  8
_0-f_
  6
CONTINUOUS
 62
    7
 10
374.32229217492397
 20
311.3364406413736
 11
372.96800177777379
 21
311.3364406413736
  0
LINE
  8
_0-f_
  6
CONTINUOUS
 62
    7
 10
371.94072200011942
 20
311.3364406413736
 11
370.58559894247338
 21
311.3364406413736
  0
LINE
  8
_0-f_
  6
CONTINUOUS
 62
    7
 10
374.29317304516553
 20
311.25644064137356
 11
372.93889028504509
 21
311.25644064137356
  0
LINE
  8
_0-f_
  6
CONTINUOUS
 62
    7
 10
371.91160596975192
 20
311.25644064137356
 11
370.55648501291898
 21
311.25644064137356
  0
LINE
  8
_0-f_
  6
CONTINUOUS
 62
    7
 10
374.26405391540715
 20
311.17644064137357
 11
372.90977879231633
 21
311.17644064137357
  0
LINE
  8
_0-f_
  6
CONTINUOUS
 62
    7
 10
371.88248993938441
 20
311.17644064137357
 11
370.52737108336459
 21
311.17644064137357
  0
LINE
  8
_0-f_
  6
CONTINUOUS
 62
    7
 10
374.23493478564876
 20
311.09644064137359
 11
372.88066729958763
 21
311.09644064137359
  0
LINE
  8
_0-f_
  6
CONTINUOUS
 62
    7
 10
371.85337390901697
 20
311.09644064137359
 11
370.49825715381024
 21
311.09644064137359
  0
LINE
  8
_0-f_
  6
CONTINUOUS
 62
    7
 10
374.20581565589038
 20
311.01644064137355
 11
372.85155580685887
 21
311.01644064137355
  0
LINE
  8
_0-f_
  6
CONTINUOUS
 62
    7
 10
371.82425787864952
 20
311.01644064137355
 11
370.46914322425584
 21
311.01644064137355
  0
LINE
  8
_0-f_
  6
CONTINUOUS
 62
    7
 10
374.17669652613199
 20
310.93644064137362
 11
372.82244431413017
 21
310.93644064137362
  0
LINE
  8
_0-f_
  6
CONTINUOUS
 62
    7
 10
371.79514184828201
 20
310.93644064137362
 11
370.44002929470145
 21
310.93644064137362
  0
LINE
  8
_0-f_
  6
CONTINUOUS
 62
    7
 10
374.14757739637366
 20
310.85644064137358
 11
372.79333282140141
 21
310.85644064137358
  0
LINE
  8
_0-f_
  6
CONTINUOUS
 62
    7
 10
371.76602581791451
 20
310.85644064137358
 11
370.41091536514705
 21
310.85644064137358
  0
LINE
  8
_0-f_
  6
CONTINUOUS
 62
    7
 10
374.11845826661522
 20
310.7764406413736
 11
372.7642213286727
 21
310.7764406413736
  0
LINE
  8
_0-f_
  6
CONTINUOUS
 62
    7
 10
371.73690978754701
 20
310.7764406413736
 11
370.38180143559271
 21
310.7764406413736
  0
LINE
  8
_0-f_
  6
CONTINUOUS
 62
    7
 10
374.08933913685678
 20
310.69644064137361
 11
372.33503602637103
 21
310.69644064137361
  0
LINE
  8
_0-f_
  6
CONTINUOUS
 62
    7
 10
371.7077937571795
 20
310.69644064137361
 11
369.71265186821569
 21
310.69644064137361
  0
LINE
  8
_0-f_
  6
CONTINUOUS
 62
    7
 10
374.06022000709845
 20
310.61644064137357
 11
372.30588313748217
 21
310.61644064137357
  0
LINE
  8
_0-f_
  6
CONTINUOUS
 62
    7
 10
371.678677726812
 20
310.61644064137357
 11
369.68349866301622
 21
310.61644064137357
  0
LINE
  8
_0-f_
  6
CONTINUOUS
 62
    7
 10
374.03110087734007
 20
310.53644064137353
 11
372.27673024859325
 21
310.53644064137353
  0
LINE
  8
_0-f_
  6
CONTINUOUS
 62
    7
 10
371.64956169644455
 20
310.53644064137353
 11
369.65434545781682
 21
310.53644064137353
  0
LINE
  8
_0-f_
  6
CONTINUOUS
 62
    7
 10
374.00198174758168
 20
310.45644064137355
 11
372.24757735970439
 21
310.45644064137355
  0
LINE
  8
_0-f_
  6
CONTINUOUS
 62
    7
 10
371.62044566607705
 20
310.4564406413736
 11
369.62519225261735
 21
310.45644064137355
  0
LINE
  8
_0-f_
  6
CONTINUOUS
 62
    7
 10
373.9728626178233
 20
310.37644064137356
 11
372.21842447081553
 21
310.37644064137356
  0
LINE
  8
_0-f_
  6
CONTINUOUS
 62
    7
 10
371.59132963570954
 20
310.37644064137356
 11
369.596039047418
 21
310.37644064137356
  0
LINE
  8
_0-f_
  6
CONTINUOUS
 62
    7
 10
373.94374348806491
 20
310.29644064137352
 11
372.18927158192662
 21
310.29644064137352
  0
LINE
  8
_0-f_
  6
CONTINUOUS
 62
    7
 10
371.55967425916793
 20
310.29644064137352
 11
369.5668858422186
 21
310.29644064137352
  0
LINE
  8
_0-f_
  6
CONTINUOUS
 62
    7
 10
373.90687301501782
 20
310.21644064137359
 11
372.16011869303776
 21
310.21644064137359
  0
LINE
  8
_0-f_
  6
CONTINUOUS
 62
    7
 10
371.51383881077345
 20
310.21644064137359
 11
369.53773263701919
 21
310.21644064137359
  0
LINE
  8
_0-f_
  6
CONTINUOUS
 62
    7
 10
373.84701891393752
 20
310.13644064137355
 11
372.1309658041489
 21
310.13644064137355
  0
LINE
  8
_0-f_
  6
CONTINUOUS
 62
    7
 10
371.43950587577717
 20
310.13644064137355
 11
369.50857943181973
 21
310.13644064137355
  0
LINE
  8
_0-f_
  6
CONTINUOUS
 62
    7
 10
373.73465914636824
 20
310.05644064137357
 11
372.10181291525998
 21
310.05644064137357
  0
LINE
  8
_0-f_
  6
CONTINUOUS
 62
    7
 10
371.31238072690275
 20
310.05644064137357
 11
369.47942622662032
 21
310.05644064137357
  0
LINE
  8
_0-f_
  6
CONTINUOUS
 62
    7
 10
372.39202047081551
 20
312.57644064137361
 11
373.41922991506914
 21
312.57644064137361
  0
LINE
  8
_0-f_
  6
CONTINUOUS
 62
    7
 10
372.74966558230835
 20
310.73644064137363
 11
373.41922991506914
 21
312.57644064137361
  0
LINE
  8
_0-f_
  6
CONTINUOUS
 62
    7
 10
372.08723647081558
 20
310.01644064137361
 11
373.56174848966151
 21
310.01644064137361
  0
LINE
  8
_0-f_
  6
CONTINUOUS
 62
    7
 10
372.65362047081544
 20
313.29656064137356
 11
374.69299292759933
 21
313.29656064137356
  0
ARC
  8
_0-f_
  6
CONTINUOUS
 62
    7
 10
372.5729157727161
 20
313.77648064137355
 40
0.2399999999999999
 50
340.00283559285606
 51
90.000000000000014
  0
LINE
  8
_0-f_
  6
CONTINUOUS
 62
    7
 10
370.36724447081554
 20
310.73644064137363
 11
371.03684447081554
 21
312.57638464137364
  0
LINE
  8
_0-f_
  6
CONTINUOUS
 62
    7
 10
371.57525675802316
 20
310.33227836380075
 11
372.39202047081551
 21
312.57644064137361
  0
LINE
  8
_0-f_
  6
CONTINUOUS
 62
    7
 10
369.46484962402064
 20
310.01644064137361
 11
371.12420160992917
 21
310.01644064137361
  0
LINE
  8
_0-f_
  6
CONTINUOUS
 62
    7
 10
369.72722847081548
 20
310.73644064137363
 11
370.36724447081554
 21
310.73644064137363
  0
LINE
  8
_0-f_
  6
CONTINUOUS
 62
    7
 10
369.46484962402064
 20
310.01644064137361
 11
369.72722847081548
 21
310.73644064137363
  0
ARC
  8
_0-f_
  6
CONTINUOUS
 62
    7
 10
371.12420160992917
 20
310.49644064137357
 40
0.4799999999999999
 50
270
 51
340.00093888113781
  0
LINE
  8
_0-f_
  6
CONTINUOUS
 62
    7
 10
372.08723647081558
 20
310.01644064137361
 11
372.34961247081549
 21
310.73644064137363
  0
LINE
  8
_0-f_
  6
CONTINUOUS
 62
    7
 10
372.34961247081549
 20
310.73644064137363
 11
372.74966558230835
 21
310.73644064137363
  0
LINE
  8
_0-f_
  6
CONTINUOUS
 62
    7
 10
370.39682847081576
 20
312.57650464137356
 11
370.65923647081559
 21
313.29656064137356
  0
LINE
  8
_0-f_
  6
CONTINUOUS
 62
    7
 10
370.39682847081576
 20
312.57644064137361
 11
371.03684447081554
 21
312.57644064137361
  0
LINE
  8
_0-f_
  6
CONTINUOUS
 62
    7
 10
371.56084447081565
 20
314.01648064137362
 11
372.5729157727161
 21
314.01648064137362
  0
LINE
  8
_0-f_
  6
CONTINUOUS
 62
    7
 10
371.29928442263827
 20
313.29656064137356
 11
371.56084447081565
 21
314.01639264137356
  0
LINE
  8
_0-f_
  6
CONTINUOUS
 62
    7
 10
370.65923647081559
 20
313.29656064137356
 11
371.29928442263827
 21
313.29656064137356
  0
LINE
  8
_0-f_
  6
CONTINUOUS
 62
    7
 10
372.65362047081544
 20
313.29644064137364
 11
372.79844606384245
 21
313.69440696846635
  0
LINE
  8
_0-f_
  6
CONTINUOUS
 62
    7
 10
373.9376232562156
 20
310.27962631512122
 11
374.91851778753187
 21
312.97447204562212
  0
ARC
  8
_0-f_
  6
CONTINUOUS
 62
    7
 10
373.56174848966151
 20
310.41644064137358
 40
0.4
 50
270
 51
339.99904441127069
  0
ARC
  8
_0-f_
  6
CONTINUOUS
 62
    7
 10
374.69299292759933
 20
313.05656064137361
 40
0.2399999999999999
 50
339.99904441127069
 51
90.000000000000043
  0
LINE
  8
_0-f_
  6
CONTINUOUS
 62
    7
 10
369.97315467879406
 20
312.57644064137361
 11
370.11800938495605
 21
312.97448696846646
  0
ARC
  8
_0-f_
  6
CONTINUOUS
 62
    7
 10
369.89247909382971
 20
313.05656064137361
 40
0.2399999999999993
 50
340.00283559286606
 51
89.999999999999915
  0
LINE
  8
_0-f_
  6
CONTINUOUS
 62
    7
 10
369.89247909382971
 20
313.29656064137356
 11
368.69802747477559
 21
313.29656064137356
  0
LINE
  8
_0-f_
  6
CONTINUOUS
 62
    7
 10
368.69802747477559
 20
313.29656064137356
 11
368.84282664210872
 21
313.69439641361095
  0
ARC
  8
_0-f_
  6
CONTINUOUS
 62
    7
 10
368.6173001923238
 20
313.77648064137355
 40
0.2399999999999979
 50
340.00015411793316
 51
89.999999999999986
  0
LINE
  8
_0-f_
  6
CONTINUOUS
 62
    7
 10
368.6173001923238
 20
314.01648064137362
 11
367.44515321091291
 21
314.01648064137362
  0
LINE
  8
_0-f_
  6
CONTINUOUS
 62
    7
 10
367.44515321091291
 20
314.01648064137362
 11
367.18272921091295
 21
313.29656064137356
  0
LINE
  8
_0-f_
  6
CONTINUOUS
 62
    7
 10
367.18272921091295
 20
313.29656064137356
 11
365.21715321091312
 21
313.29656064137356
  0
LINE
  8
_0-f_
  6
CONTINUOUS
 62
    7
 10
365.21715321091312
 20
313.29656064137356
 11
364.9547736148142
 21
312.57644064137361
  0
LINE
  8
_0-f_
  6
CONTINUOUS
 62
    7
 10
364.9547736148142
 20
312.57644064137361
 11
366.92113572322512
 21
312.57644064137361
  0
LINE
  8
_0-f_
  6
CONTINUOUS
 62
    7
 10
366.92113572322512
 20
312.57644064137361
 11
366.25077435705947
 21
310.73644064137363
  0
LINE
  8
_0-f_
  6
CONTINUOUS
 62
    7
 10
366.25077435705947
 20
310.73644064137363
 11
364.92594521091308
 21
310.73644064137363
  0
LINE
  8
_0-f_
  6
CONTINUOUS
 62
    7
 10
364.92594521091308
 20
310.73644064137363
 11
364.66434521091298
 21
310.01644064137361
  0
LINE
  8
_0-f_
  6
CONTINUOUS
 62
    7
 10
364.66434521091298
 20
310.01644064137361
 11
367.22370234721024
 21
310.01644064137361
  0
ARC
  8
_0-f_
  6
CONTINUOUS
 62
    7
 10
367.22370234721024
 20
310.41644064137358
 40
0.399999999999999
 50
270
 51
340.00026326049675
  0
LINE
  8
_0-f_
  6
CONTINUOUS
 62
    7
 10
367.59958002412117
 20
310.27963431111056
 11
368.43553721091291
 21
312.57644064137361
  0
LINE
  8
_0-f_
  6
CONTINUOUS
 62
    7
 10
368.43553721091291
 20
312.57644064137361
 11
369.97315467879406
 21
312.57644064137361
  0
LINE
  8
_0-f_
  6
CONTINUOUS
 62
    7
 10
368.21715819241831
 20
311.97644064137359
 11
366.70253962556239
 21
311.97644064137359
  0
LINE
  8
_0-f_
  6
CONTINUOUS
 62
    7
 10
368.24627539488426
 20
312.05644064137363
 11
366.73168577191745
 21
312.05644064137363
  0
LINE
  8
_0-f_
  6
CONTINUOUS
 62
    7
 10
368.27539259735022
 20
312.13644064137355
 11
366.76083191827246
 21
312.13644064137355
  0
LINE
  8
_0-f_
  6
CONTINUOUS
 62
    7
 10
368.30450979981617
 20
312.21644064137359
 11
366.78997806462752
 21
312.21644064137359
  0
LINE
  8
_0-f_
  6
CONTINUOUS
 62
    7
 10
368.33362700228213
 20
312.29644064137358
 11
366.81912421098252
 21
312.29644064137364
  0
LINE
  8
_0-f_
  6
CONTINUOUS
 62
    7
 10
368.36274420474808
 20
312.37644064137356
 11
366.84827035733753
 21
312.37644064137356
  0
LINE
  8
_0-f_
  6
CONTINUOUS
 62
    7
 10
368.39186140721404
 20
312.4564406413736
 11
366.87741650369253
 21
312.4564406413736
  0
LINE
  8
_0-f_
  6
CONTINUOUS
 62
    7
 10
368.42097860967993
 20
312.53644064137364
 11
366.90656265004759
 21
312.53644064137364
  0
LINE
  8
_0-f_
  6
CONTINUOUS
 62
    7
 10
369.9877112463393
 20
312.61644064137363
 11
364.96934783000609
 21
312.61644064137363
  0
LINE
  8
_0-f_
  6
CONTINUOUS
 62
    7
 10
370.01682438142984
 20
312.69644064137361
 11
364.99849626038974
 21
312.69644064137361
  0
LINE
  8
_0-f_
  6
CONTINUOUS
 62
    7
 10
370.04593751652044
 20
312.77644064137365
 11
365.02764469077346
 21
312.77644064137365
  0
LINE
  8
_0-f_
  6
CONTINUOUS
 62
    7
 10
370.07505065161104
 20
312.85644064137358
 11
365.05679312115717
 21
312.85644064137358
  0
LINE
  8
_0-f_
  6
CONTINUOUS
 62
    7
 10
370.10416378670158
 20
312.93644064137362
 11
365.08594155154083
 21
312.93644064137362
  0
LINE
  8
_0-f_
  6
CONTINUOUS
 62
    7
 10
370.12871674179769
 20
313.01644064137361
 11
365.11508998192454
 21
313.01644064137361
  0
LINE
  8
_0-f_
  6
CONTINUOUS
 62
    7
 10
370.128527594871
 20
313.09644064137359
 11
365.14423841230825
 21
313.09644064137359
  0
LINE
  8
_0-f_
  6
CONTINUOUS
 62
    7
 10
370.0995533653491
 20
313.17644064137363
 11
365.17338684269203
 21
313.17644064137363
  0
LINE
  8
_0-f_
  6
CONTINUOUS
 62
    7
 10
370.02398505851716
 20
313.25644064137356
 11
365.20253527307568
 21
313.25644064137356
  0
LINE
  8
_0-f_
  6
CONTINUOUS
 62
    7
 10
368.71254248623563
 20
313.3364406413736
 11
367.19726619991172
 21
313.3364406413736
  0
LINE
  8
_0-f_
  6
CONTINUOUS
 62
    7
 10
368.74165986128088
 20
313.41644064137364
 11
367.22642766229637
 21
313.41644064137358
  0
LINE
  8
_0-f_
  6
CONTINUOUS
 62
    7
 10
368.77077723632613
 20
313.49644064137357
 11
367.25558912468114
 21
313.49644064137357
  0
LINE
  8
_0-f_
  6
CONTINUOUS
 62
    7
 10
368.79989461137137
 20
313.57644064137361
 11
367.28475058706584
 21
313.57644064137361
  0
LINE
  8
_0-f_
  6
CONTINUOUS
 62
    7
 10
368.82901198641662
 20
313.65644064137365
 11
367.31391204945055
 21
313.65644064137365
  0
LINE
  8
_0-f_
  6
CONTINUOUS
 62
    7
 10
368.85354647310976
 20
313.73644064137363
 11
367.34307351183526
 21
313.73644064137363
  0
LINE
  8
_0-f_
  6
CONTINUOUS
 62
    7
 10
368.85333193816211
 20
313.81644064137362
 11
367.37223497421996
 21
313.81644064137362
  0
LINE
  8
_0-f_
  6
CONTINUOUS
 62
    7
 10
368.82432940042258
 20
313.89644064137366
 11
367.40139643660467
 21
313.89644064137366
  0
LINE
  8
_0-f_
  6
CONTINUOUS
 62
    7
 10
368.74868538202543
 20
313.97644064137359
 11
367.43055789898938
 21
313.97644064137359
  0
LINE
  8
_0-f_
  6
CONTINUOUS
 62
    7
 10
368.18804098995236
 20
311.8964406413736
 11
366.67339347920739
 21
311.8964406413736
  0
LINE
  8
_0-f_
  6
CONTINUOUS
 62
    7
 10
368.1589237874864
 20
311.81644064137362
 11
366.64424733285233
 21
311.81644064137362
  0
LINE
  8
_0-f_
  6
CONTINUOUS
 62
    7
 10
368.12980658502045
 20
311.73644064137358
 11
366.61510118649733
 21
311.73644064137358
  0
LINE
  8
_0-f_
  6
CONTINUOUS
 62
    7
 10
368.10068938255449
 20
311.65644064137354
 11
366.58595504014227
 21
311.65644064137354
  0
LINE
  8
_0-f_
  6
CONTINUOUS
 62
    7
 10
368.07157218008854
 20
311.57644064137361
 11
366.55680889378726
 21
311.57644064137361
  0
LINE
  8
_0-f_
  6
CONTINUOUS
 62
    7
 10
368.04245497762258
 20
311.49644064137357
 11
366.5276627474322
 21
311.49644064137357
  0
LINE
  8
_0-f_
  6
CONTINUOUS
 62
    7
 10
368.01333777515663
 20
311.41644064137364
 11
366.4985166010772
 21
311.41644064137353
  0
LINE
  8
_0-f_
  6
CONTINUOUS
 62
    7
 10
367.98422057269067
 20
311.3364406413736
 11
366.46937045472214
 21
311.3364406413736
  0
LINE
  8
_0-f_
  6
CONTINUOUS
 62
    7
 10
367.95510337022478
 20
311.25644064137356
 11
366.44022430836714
 21
311.25644064137356
  0
LINE
  8
_0-f_
  6
CONTINUOUS
 62
    7
 10
367.92598616775882
 20
311.17644064137357
 11
366.41107816201207
 21
311.17644064137357
  0
LINE
  8
_0-f_
  6
CONTINUOUS
 62
    7
 10
367.89686896529287
 20
311.09644064137359
 11
366.38193201565707
 21
311.09644064137359
  0
LINE
  8
_0-f_
  6
CONTINUOUS
 62
    7
 10
367.86775176282691
 20
311.01644064137355
 11
366.35278586930207
 21
311.01644064137355
  0
LINE
  8
_0-f_
  6
CONTINUOUS
 62
    7
 10
367.83863456036096
 20
310.93644064137362
 11
366.32363972294706
 21
310.93644064137362
  0
LINE
  8
_0-f_
  6
CONTINUOUS
 62
    7
 10
367.80951735789506
 20
310.85644064137358
 11
366.294493576592
 21
310.85644064137358
  0
LINE
  8
_0-f_
  6
CONTINUOUS
 62
    7
 10
367.78040015542911
 20
310.7764406413736
 11
366.26534743023694
 21
310.7764406413736
  0
LINE
  8
_0-f_
  6
CONTINUOUS
 62
    7
 10
367.75128295296315
 20
310.69644064137361
 11
364.91141187757967
 21
310.69644064137361
  0
LINE
  8
_0-f_
  6
CONTINUOUS
 62
    7
 10
367.7221657504972
 20
310.61644064137357
 11
364.88234521091306
 21
310.61644064137357
  0
LINE
  8
_0-f_
  6
CONTINUOUS
 62
    7
 10
367.69304854803124
 20
310.53644064137353
 11
364.85327854424634
 21
310.53644064137353
  0
LINE
  8
_0-f_
  6
CONTINUOUS
 62
    7
 10
367.66393134556529
 20
310.45644064137355
 11
364.82421187757973
 21
310.4564406413736
  0
LINE
  8
_0-f_
  6
CONTINUOUS
 62
    7
 10
367.63481414309933
 20
310.37644064137356
 11
364.79514521091301
 21
310.37644064137356
  0
LINE
  8
_0-f_
  6
CONTINUOUS
 62
    7
 10
367.60569694063338
 20
310.29644064137352
 11
364.76607854424634
 21
310.29644064137352
  0
LINE
  8
_0-f_
  6
CONTINUOUS
 62
    7
 10
367.56882687256615
 20
310.21644064137359
 11
364.73701187757962
 21
310.21644064137359
  0
LINE
  8
_0-f_
  6
CONTINUOUS
 62
    7
 10
367.50897277148744
 20
310.13644064137355
 11
364.70794521091295
 21
310.13644064137355
  0
LINE
  8
_0-f_
  6
CONTINUOUS
 62
    7
 10
367.39661300391629
 20
310.05644064137357
 11
364.67887854424629
 21
310.05644064137357
  0
LINE
  8
_0-f_
  6
CONTINUOUS
 62
    7
 10
365.21715321091312
 20
313.29656064137356
 11
367.18272921091295
 21
313.29656064137356
  0
LINE
  8
_0-f_
  6
CONTINUOUS
 62
    7
 10
367.18272921091295
 20
313.29656064137356
 11
365.21715321091312
 21
313.29656064137356
  0
LINE
  8
_0-f_
  6
CONTINUOUS
 62
    7
 10
366.92113572322512
 20
312.57644064137361
 11
364.9547736148142
 21
312.57644064137361
  0
LINE
  8
_0-f_
  6
CONTINUOUS
 62
    7
 10
366.25077435705947
 20
310.73644064137363
 11
366.92113572322512
 21
312.57644064137361
  0
LINE
  8
_0-f_
  6
CONTINUOUS
 62
    7
 10
364.66434521091298
 20
310.01644064137361
 11
367.22370234721024
 21
310.01644064137361
  0
LINE
  8
_0-f_
  6
CONTINUOUS
 62
    7
 10
364.92594521091308
 20
310.73644064137363
 11
366.25077435705947
 21
310.73644064137363
  0
LINE
  8
_0-f_
  6
CONTINUOUS
 62
    7
 10
364.66434521091298
 20
310.01644064137361
 11
364.92594521091308
 21
310.73644064137363
  0
LINE
  8
_0-f_
  6
CONTINUOUS
 62
    7
 10
364.9547736148142
 20
312.57644064137361
 11
365.21715321091312
 21
313.29656064137356
  0
LINE
  8
_0-f_
  6
CONTINUOUS
 62
    7
 10
367.59958002412117
 20
310.27963431111056
 11
368.43553721091291
 21
312.57644064137361
  0
ARC
  8
_0-f_
  6
CONTINUOUS
 62
    7
 10
367.22370234721024
 20
310.41644064137358
 40
0.4
 50
270
 51
340.00026326049698
  0
LINE
  8
_0-f_
  6
CONTINUOUS
 62
    7
 10
368.43553721091291
 20
312.57644064137361
 11
369.97315467879406
 21
312.57644064137361
  0
ARC
  8
_0-f_
  6
CONTINUOUS
 62
    7
 10
368.6173001923238
 20
313.77648064137355
 40
0.2399999999999999
 50
340.00015411793424
 51
89.999999999999957
  0
LINE
  8
_0-f_
  6
CONTINUOUS
 62
    7
 10
367.44515321091291
 20
314.01648064137362
 11
368.6173001923238
 21
314.01648064137362
  0
LINE
  8
_0-f_
  6
CONTINUOUS
 62
    7
 10
367.18272921091295
 20
313.29656064137356
 11
367.44515321091291
 21
314.01648064137362
  0
LINE
  8
_0-f_
  6
CONTINUOUS
 62
    7
 10
368.69802747477559
 20
313.29656064137356
 11
369.89247909382971
 21
313.29656064137356
  0
LINE
  8
_0-f_
  6
CONTINUOUS
 62
    7
 10
368.69802747477559
 20
313.29656064137356
 11
368.84282664210872
 21
313.69439641361095
  0
LINE
  8
_0-f_
  6
CONTINUOUS
 62
    7
 10
369.97315467879406
 20
312.57644064137361
 11
370.11800938495605
 21
312.97448696846646
  0
ARC
  8
_0-f_
  6
CONTINUOUS
 62
    7
 10
369.89247909382971
 20
313.05656064137361
 40
0.2399999999999999
 50
340.00283559286788
 51
89.999999999999986
  0
LINE
  8
_0-f_
  6
CONTINUOUS
 62
    7
 10
358.1344465332902
 20
313.24087143460054
 11
358.72323081708936
 21
313.70507475359449
  0
LINE
  8
_0-f_
  6
CONTINUOUS
 62
    7
 10
362.61899122584975
 20
310.40444064137358
 11
362.01727696618656
 21
310.26087004010611
  0
LINE
  8
_0-f_
  6
CONTINUOUS
 62
    7
 10
362.01727696618656
 20
310.26087004010611
 11
361.37644614607058
 21
310.19002294036642
  0
LINE
  8
_0-f_
  6
CONTINUOUS
 62
    7
 10
361.37644614607058
 20
310.19002294036642
 11
360.8445062956971
 21
310.18837642769364
  0
LINE
  8
_0-f_
  6
CONTINUOUS
 62
    7
 10
360.8445062956971
 20
310.18837642769364
 11
360.41858892878531
 21
310.22390730769581
  0
LINE
  8
_0-f_
  6
CONTINUOUS
 62
    7
 10
360.41858892878531
 20
310.22390730769581
 11
360.06908086884721
 21
310.29508142762819
  0
LINE
  8
_0-f_
  6
CONTINUOUS
 62
    7
 10
360.06908086884721
 20
310.29508142762819
 11
360.25180023499752
 21
310.97700019149437
  0
LINE
  8
_0-f_
  6
CONTINUOUS
 62
    7
 10
360.25180023499752
 20
310.97700019149437
 11
360.45903785474945
 21
311.75042243166217
  0
LINE
  8
_0-f_
  6
CONTINUOUS
 62
    7
 10
360.45903785474945
 20
311.75042243166217
 11
360.6115246899534
 21
311.67345061999248
  0
LINE
  8
_0-f_
  6
CONTINUOUS
 62
    7
 10
360.6115246899534
 20
311.67345061999248
 11
360.99365417729035
 21
311.29502000986815
  0
LINE
  8
_0-f_
  6
CONTINUOUS
 62
    7
 10
360.99365417729035
 20
311.29502000986815
 11
361.1583707425844
 21
311.1343324178975
  0
LINE
  8
_0-f_
  6
CONTINUOUS
 62
    7
 10
361.1583707425844
 20
311.1343324178975
 11
361.27028211150889
 21
311.06889677517819
  0
LINE
  8
_0-f_
  6
CONTINUOUS
 62
    7
 10
361.27028211150889
 20
311.06889677517819
 11
361.3972924799242
 21
311.0418046512529
  0
LINE
  8
_0-f_
  6
CONTINUOUS
 62
    7
 10
361.3972924799242
 20
311.0418046512529
 11
361.808696169001
 21
311.04149708957254
  0
LINE
  8
_0-f_
  6
CONTINUOUS
 62
    7
 10
361.808696169001
 20
311.04149708957254
 11
362.597462363349
 21
311.04191832139912
  0
LINE
  8
_0-f_
  6
CONTINUOUS
 62
    7
 10
362.597462363349
 20
311.04191832139912
 11
362.85712316223947
 21
311.29315980482244
  0
LINE
  8
_0-f_
  6
CONTINUOUS
 62
    7
 10
362.85712316223947
 20
311.29315980482244
 11
363.30490865501224
 21
312.96431766798588
  0
LINE
  8
_0-f_
  6
CONTINUOUS
 62
    7
 10
363.30490865501224
 20
312.96431766798588
 11
363.606146168333
 21
314.08855113956878
  0
LINE
  8
_0-f_
  6
CONTINUOUS
 62
    7
 10
363.606146168333
 20
314.08855113956878
 11
362.66250188579227
 21
314.48247740157609
  0
LINE
  8
_0-f_
  6
CONTINUOUS
 62
    7
 10
362.66250188579227
 20
314.48247740157609
 11
361.58269194274089
 21
314.67906517351247
  0
LINE
  8
_0-f_
  6
CONTINUOUS
 62
    7
 10
361.58269194274089
 20
314.67906517351247
 11
360.40032710170897
 21
314.65878913012722
  0
LINE
  8
_0-f_
  6
CONTINUOUS
 62
    7
 10
360.40032710170897
 20
314.65878913012722
 11
359.2742620383101
 21
314.40249429136657
  0
LINE
  8
_0-f_
  6
CONTINUOUS
 62
    7
 10
359.2742620383101
 20
314.40249429136657
 11
358.31603530478139
 21
313.92307869368136
  0
LINE
  8
_0-f_
  6
CONTINUOUS
 62
    7
 10
358.31603530478139
 20
313.92307869368136
 11
357.62708769614773
 21
313.25442334452219
  0
LINE
  8
_0-f_
  6
CONTINUOUS
 62
    7
 10
357.62708769614773
 20
313.25442334452219
 11
357.31233056895337
 21
312.47531326024301
  0
LINE
  8
_0-f_
  6
CONTINUOUS
 62
    7
 10
357.31233056895337
 20
312.47531326024301
 11
357.3993902701734
 21
311.65876344158477
  0
LINE
  8
_0-f_
  6
CONTINUOUS
 62
    7
 10
357.3993902701734
 20
311.65876344158477
 11
357.87836532146719
 21
310.92105183016059
  0
LINE
  8
_0-f_
  6
CONTINUOUS
 62
    7
 10
357.87836532146719
 20
310.92105183016059
 11
358.70333982108383
 21
310.32247161440392
  0
LINE
  8
_0-f_
  6
CONTINUOUS
 62
    7
 10
358.70333982108383
 20
310.32247161440392
 11
359.74004132331942
 21
309.93797226659268
  0
LINE
  8
_0-f_
  6
CONTINUOUS
 62
    7
 10
359.74004132331942
 20
309.93797226659268
 11
360.91756505401679
 21
309.78189741087607
  0
LINE
  8
_0-f_
  6
CONTINUOUS
 62
    7
 10
360.91756505401679
 20
309.78189741087607
 11
361.60439734413808
 21
309.80125545400409
  0
LINE
  8
_0-f_
  6
CONTINUOUS
 62
    7
 10
361.60439734413808
 20
309.80125545400409
 11
362.18088496304551
 21
309.88071151604191
  0
LINE
  8
_0-f_
  6
CONTINUOUS
 62
    7
 10
362.18088496304551
 20
309.88071151604191
 11
362.50757047816819
 21
309.988616099453
  0
LINE
  8
_0-f_
  6
CONTINUOUS
 62
    7
 10
362.50757047816819
 20
309.988616099453
 11
362.57418070775941
 21
310.23720685821121
  0
LINE
  8
_0-f_
  6
CONTINUOUS
 62
    7
 10
362.57418070775941
 20
310.23720685821121
 11
362.61899122584975
 21
310.40444064137358
  0
LINE
  8
_0-f_
  6
CONTINUOUS
 62
    7
 10
359.17597783343672
 20
312.71196222556597
 11
359.0205484935081
 21
312.13189201801544
  0
LINE
  8
_0-f_
  6
CONTINUOUS
 62
    7
 10
359.0205484935081
 20
312.13189201801544
 11
358.75540432539407
 21
311.14236048748461
  0
LINE
  8
_0-f_
  6
CONTINUOUS
 62
    7
 10
358.75540432539407
 20
311.14236048748461
 11
358.66513296443236
 21
310.80897193966877
  0
LINE
  8
_0-f_
  6
CONTINUOUS
 62
    7
 10
358.66513296443236
 20
310.80897193966877
 11
358.66212714741778
 21
310.81075475196934
  0
LINE
  8
_0-f_
  6
CONTINUOUS
 62
    7
 10
358.66212714741778
 20
310.81075475196934
 11
358.65911593769948
 21
310.81253264461526
  0
LINE
  8
_0-f_
  6
CONTINUOUS
 62
    7
 10
358.65911593769948
 20
310.81253264461526
 11
358.32066365855917
 21
311.05973666730739
  0
LINE
  8
_0-f_
  6
CONTINUOUS
 62
    7
 10
358.32066365855917
 20
311.05973666730739
 11
357.8857594362583
 21
311.57019991323864
  0
LINE
  8
_0-f_
  6
CONTINUOUS
 62
    7
 10
357.8857594362583
 20
311.57019991323864
 11
357.70358150059809
 21
312.13331524152312
  0
LINE
  8
_0-f_
  6
CONTINUOUS
 62
    7
 10
357.70358150059809
 20
312.13331524152312
 11
357.78929608739236
 21
312.70807390602153
  0
LINE
  8
_0-f_
  6
CONTINUOUS
 62
    7
 10
357.78929608739236
 20
312.70807390602153
 11
358.1344465332902
 21
313.24087143460054
  0
LINE
  8
_0-f_
  6
CONTINUOUS
 62
    7
 10
358.72323081708936
 20
313.70507475359449
 11
359.52885054467077
 21
314.06259382417176
  0
LINE
  8
_0-f_
  6
CONTINUOUS
 62
    7
 10
359.52885054467077
 20
314.06259382417176
 11
360.45846838413922
 21
314.25945575491409
  0
LINE
  8
_0-f_
  6
CONTINUOUS
 62
    7
 10
360.45846838413922
 20
314.25945575491409
 11
361.23072191816175
 21
314.29383473621726
  0
LINE
  8
_0-f_
  6
CONTINUOUS
 62
    7
 10
361.23072191816175
 20
314.29383473621726
 11
361.60388831812361
 21
314.27224881153285
  0
LINE
  8
_0-f_
  6
CONTINUOUS
 62
    7
 10
361.60388831812361
 20
314.27224881153285
 11
361.96712504873841
 21
314.22625026187353
  0
LINE
  8
_0-f_
  6
CONTINUOUS
 62
    7
 10
361.96712504873841
 20
314.22625026187353
 11
362.023836293589
 21
313.93327668471261
  0
LINE
  8
_0-f_
  6
CONTINUOUS
 62
    7
 10
362.023836293589
 20
313.93327668471261
 11
361.75596733394354
 21
312.93357631372368
  0
LINE
  8
_0-f_
  6
CONTINUOUS
 62
    7
 10
361.75596733394354
 20
312.93357631372368
 11
361.57282370019425
 21
312.25007510161021
  0
LINE
  8
_0-f_
  6
CONTINUOUS
 62
    7
 10
361.57282370019425
 20
312.25007510161021
 11
361.4016300739105
 21
312.41267984466373
  0
LINE
  8
_0-f_
  6
CONTINUOUS
 62
    7
 10
361.4016300739105
 20
312.41267984466373
 11
361.05859849875122
 21
312.75472087688132
  0
LINE
  8
_0-f_
  6
CONTINUOUS
 62
    7
 10
361.05859849875122
 20
312.75472087688132
 11
360.90172476274569
 21
312.91033808101025
  0
LINE
  8
_0-f_
  6
CONTINUOUS
 62
    7
 10
360.90172476274569
 20
312.91033808101025
 11
360.80439827872954
 21
312.9751554070225
  0
LINE
  8
_0-f_
  6
CONTINUOUS
 62
    7
 10
360.80439827872954
 20
312.9751554070225
 11
360.69311845929553
 21
313.00968092638544
  0
LINE
  8
_0-f_
  6
CONTINUOUS
 62
    7
 10
360.69311845929553
 20
313.00968092638544
 11
360.55054757876547
 21
313.01475112753559
  0
LINE
  8
_0-f_
  6
CONTINUOUS
 62
    7
 10
360.55054757876547
 20
313.01475112753559
 11
360.04692379982998
 21
313.01475112753559
  0
LINE
  8
_0-f_
  6
CONTINUOUS
 62
    7
 10
360.04692379982998
 20
313.01475112753559
 11
359.60021640686898
 21
313.01475112753559
  0
LINE
  8
_0-f_
  6
CONTINUOUS
 62
    7
 10
359.60021640686898
 20
313.01475112753559
 11
359.42930406618046
 21
312.98958062187859
  0
LINE
  8
_0-f_
  6
CONTINUOUS
 62
    7
 10
359.42930406618046
 20
312.98958062187859
 11
359.27011346564279
 21
312.88303643935382
  0
LINE
  8
_0-f_
  6
CONTINUOUS
 62
    7
 10
359.27011346564279
 20
312.88303643935382
 11
359.17597783343672
 21
312.71196222556597
  0
SOLID
  8
_0-f_
  6
CONTINUOUS
 62
    7
 10
361.3972924799242
 20
311.0418046512529
 11
361.808696169001
 21
311.04149708957254
 12
362.597462363349
 22
311.04191832139912
 13
362.597462363349
 23
311.04191832139912
  0
LINE
  8
_0-f_
  6
CONTINUOUS
 62
    7
 10
361.7487300920705
 20
309.82114852958404
 11
360.62143071820242
 21
309.82114852958404
  0
LINE
  8
_0-f_
  6
CONTINUOUS
 62
    7
 10
362.26882961103365
 20
309.90975972958398
 11
359.95289387845003
 21
309.90975972958398
  0
LINE
  8
_0-f_
  6
CONTINUOUS
 62
    7
 10
362.53392778880891
 20
310.08698212958399
 11
359.33827536535256
 21
310.08698212958399
  0
LINE
  8
_0-f_
  6
CONTINUOUS
 62
    7
 10
362.55767127953982
 20
310.17559332958405
 11
359.0993585383726
 21
310.17559332958405
  0
LINE
  8
_0-f_
  6
CONTINUOUS
 62
    7
 10
362.51018429807806
 20
309.99837092958404
 11
359.57719219233246
 21
309.99837092958404
  0
LINE
  8
_0-f_
  6
CONTINUOUS
 62
    7
 10
360.13203725299292
 20
310.53003812958406
 11
358.41726775005583
 21
310.53003812958406
  0
LINE
  8
_0-f_
  6
CONTINUOUS
 62
    7
 10
360.10829398157153
 20
310.441426929584
 11
358.53939337074314
 21
310.441426929584
  0
LINE
  8
_0-f_
  6
CONTINUOUS
 62
    7
 10
360.17952379583573
 20
310.707260529584
 11
358.1730165086812
 21
310.707260529584
  0
LINE
  8
_0-f_
  6
CONTINUOUS
 62
    7
 10
360.20326706725712
 20
310.79587172958401
 11
358.05089088799389
 21
310.79587172958401
  0
LINE
  8
_0-f_
  6
CONTINUOUS
 62
    7
 10
360.15578052441435
 20
310.618649329584
 11
358.29514212936857
 21
310.618649329584
  0
LINE
  8
_0-f_
  6
CONTINUOUS
 62
    7
 10
360.0845507101501
 20
310.35281572958399
 11
358.66151899143051
 21
310.35281572958399
  0
LINE
  8
_0-f_
  6
CONTINUOUS
 62
    7
 10
360.22070514945074
 20
310.26420452958399
 11
358.8604417113927
 21
310.26420452958399
  0
LINE
  8
_0-f_
  6
CONTINUOUS
 62
    7
 10
362.60515826100152
 20
310.35281572958399
 11
362.40262767158856
 21
310.35281572958399
  0
LINE
  8
_0-f_
  6
CONTINUOUS
 62
    7
 10
362.58141477027067
 20
310.26420452958399
 11
362.03125204081772
 21
310.26420452958399
  0
LINE
  8
_0-f_
  6
CONTINUOUS
 62
    7
 10
362.93756493608817
 20
311.59337252958397
 11
360.69238548402251
 21
311.59337252958397
  0
LINE
  8
_0-f_
  6
CONTINUOUS
 62
    7
 10
362.91382163168112
 20
311.50476132958397
 11
360.78186279247063
 21
311.50476132958397
  0
LINE
  8
_0-f_
  6
CONTINUOUS
 62
    7
 10
362.89007832727418
 20
311.41615012958397
 11
360.87134010091881
 21
311.41615012958397
  0
LINE
  8
_0-f_
  6
CONTINUOUS
 62
    7
 10
362.86633502286725
 20
311.32753892958402
 11
360.96081740936694
 21
311.32753892958402
  0
LINE
  8
_0-f_
  6
CONTINUOUS
 62
    7
 10
362.80107372410521
 20
311.23892772958396
 11
361.05029471781506
 21
311.23892772958396
  0
LINE
  8
_0-f_
  6
CONTINUOUS
 62
    7
 10
362.70949308754336
 20
311.15031652958402
 11
361.13977202626324
 21
311.15031652958402
  0
LINE
  8
_0-f_
  6
CONTINUOUS
 62
    7
 10
362.61791245098158
 20
311.06170532958402
 11
361.30399626979619
 21
311.06170532958402
  0
LINE
  8
_0-f_
  6
CONTINUOUS
 62
    7
 10
362.9613082404951
 20
311.68198372958403
 11
360.59461997057838
 21
311.68198372958403
  0
LINE
  8
_0-f_
  6
CONTINUOUS
 62
    7
 10
363.00303839562287
 20
314.34031972958405
 11
359.14999130633328
 21
314.34031972958405
  0
LINE
  8
_0-f_
  6
CONTINUOUS
 62
    7
 10
362.79077163325212
 20
314.42893092958406
 11
359.39041488334743
 21
314.42893092958406
  0
LINE
  8
_0-f_
  6
CONTINUOUS
 62
    7
 10
362.46989966246724
 20
314.51754212958411
 11
359.77973983826377
 21
314.517542129584
  0
LINE
  8
_0-f_
  6
CONTINUOUS
 62
    7
 10
361.98317938539617
 20
314.60615332958406
 11
360.16906479318078
 21
314.60615332958406
  0
LINE
  8
_0-f_
  6
CONTINUOUS
 62
    7
 10
363.21530515799361
 20
314.25170852958405
 11
361.7660887552297
 21
314.25170852958405
  0
LINE
  8
_0-f_
  6
CONTINUOUS
 62
    7
 10
363.42757192036436
 20
314.16309732958399
 11
361.97934963718359
 21
314.16309732958399
  0
LINE
  8
_0-f_
  6
CONTINUOUS
 62
    7
 10
363.60237745948405
 20
314.07448612958405
 11
361.99650221288141
 21
314.07448612958405
  0
LINE
  8
_0-f_
  6
CONTINUOUS
 62
    7
 10
363.578634155077
 20
313.9858749295841
 11
362.01365478857917
 21
313.9858749295841
  0
LINE
  8
_0-f_
  6
CONTINUOUS
 62
    7
 10
363.55489085066995
 20
313.89726372958404
 11
362.01418664945163
 21
313.89726372958404
  0
LINE
  8
_0-f_
  6
CONTINUOUS
 62
    7
 10
363.53114754626296
 20
313.80865252958409
 11
361.99044334531197
 21
313.80865252958409
  0
LINE
  8
_0-f_
  6
CONTINUOUS
 62
    7
 10
363.50740424185591
 20
313.72004132958403
 11
361.96670004117232
 21
313.72004132958403
  0
LINE
  8
_0-f_
  6
CONTINUOUS
 62
    7
 10
363.48366093744886
 20
313.63143012958403
 11
361.9429567370326
 21
313.63143012958403
  0
LINE
  8
_0-f_
  6
CONTINUOUS
 62
    7
 10
363.45991763304187
 20
313.54281892958403
 11
361.91921343289289
 21
313.54281892958403
  0
LINE
  8
_0-f_
  6
CONTINUOUS
 62
    7
 10
363.43617432863482
 20
313.45420772958397
 11
361.89547012875323
 21
313.45420772958397
  0
LINE
  8
_0-f_
  6
CONTINUOUS
 62
    7
 10
363.41243102422777
 20
313.36559652958402
 11
361.87172682461357
 21
313.36559652958402
  0
LINE
  8
_0-f_
  6
CONTINUOUS
 62
    7
 10
363.38868771982072
 20
313.27698532958402
 11
361.84798352047392
 21
313.27698532958402
  0
LINE
  8
_0-f_
  6
CONTINUOUS
 62
    7
 10
363.36494441541373
 20
313.18837412958402
 11
361.82424021633426
 21
313.18837412958402
  0
LINE
  8
_0-f_
  6
CONTINUOUS
 62
    7
 10
363.34120111100663
 20
313.09976292958407
 11
361.8004969121946
 21
313.09976292958407
  0
LINE
  8
_0-f_
  6
CONTINUOUS
 62
    7
 10
363.31745780659963
 20
313.01115172958401
 11
361.77675360805489
 21
313.01115172958401
  0
LINE
  8
_0-f_
  6
CONTINUOUS
 62
    7
 10
363.29371450219264
 20
312.92254052958401
 11
361.75301030391518
 21
312.92254052958401
  0
LINE
  8
_0-f_
  6
CONTINUOUS
 62
    7
 10
363.26997119778571
 20
312.83392932958401
 11
361.72926699977552
 21
312.83392932958401
  0
LINE
  8
_0-f_
  6
CONTINUOUS
 62
    7
 10
363.24622789337877
 20
312.74531812958406
 11
361.70552369563586
 21
312.74531812958406
  0
LINE
  8
_0-f_
  6
CONTINUOUS
 62
    7
 10
363.22248458897172
 20
312.656706929584
 11
361.6817803914962
 21
312.656706929584
  0
LINE
  8
_0-f_
  6
CONTINUOUS
 62
    7
 10
363.19874128456479
 20
312.568095729584
 11
361.65803708735655
 21
312.56809572958406
  0
LINE
  8
_0-f_
  6
CONTINUOUS
 62
    7
 10
363.17499798015785
 20
312.47948452958406
 11
361.63429378321689
 21
312.47948452958406
  0
LINE
  8
_0-f_
  6
CONTINUOUS
 62
    7
 10
363.15125467575086
 20
312.39087332958405
 11
361.61055047907718
 21
312.39087332958405
  0
LINE
  8
_0-f_
  6
CONTINUOUS
 62
    7
 10
363.12751137134387
 20
312.30226212958399
 11
361.58680717493746
 21
312.30226212958399
  0
LINE
  8
_0-f_
  6
CONTINUOUS
 62
    7
 10
360.42188457717361
 20
314.25170852958405
 11
358.97288063004311
 21
314.25170852958405
  0
LINE
  8
_0-f_
  6
CONTINUOUS
 62
    7
 10
360.00344637540394
 20
314.16309732958399
 11
358.79576995375294
 21
314.16309732958399
  0
LINE
  8
_0-f_
  6
CONTINUOUS
 62
    7
 10
359.58500817363426
 20
314.07448612958405
 11
358.61865927746277
 21
314.07448612958399
  0
LINE
  8
_0-f_
  6
CONTINUOUS
 62
    7
 10
359.35597513733023
 20
313.9858749295841
 11
358.44154860117283
 21
313.9858749295841
  0
LINE
  8
_0-f_
  6
CONTINUOUS
 62
    7
 10
359.15630206621415
 20
313.89726372958404
 11
358.28943691174646
 21
313.89726372958404
  0
LINE
  8
_0-f_
  6
CONTINUOUS
 62
    7
 10
358.95662899509836
 20
313.80865252958409
 11
358.19813655138159
 21
313.80865252958409
  0
LINE
  8
_0-f_
  6
CONTINUOUS
 62
    7
 10
358.75695592398239
 20
313.72004132958403
 11
358.11068892209528
 21
313.72004132958403
  0
LINE
  8
_0-f_
  6
CONTINUOUS
 62
    7
 10
358.62982175379864
 20
313.63143012958403
 11
358.01553583065174
 21
313.63143012958403
  0
LINE
  8
_0-f_
  6
CONTINUOUS
 62
    7
 10
358.51742944682064
 20
313.54281892958403
 11
357.92423547028682
 21
313.54281892958403
  0
LINE
  8
_0-f_
  6
CONTINUOUS
 62
    7
 10
358.40503713984259
 20
313.45420772958397
 11
357.83293510992189
 21
313.45420772958397
  0
LINE
  8
_0-f_
  6
CONTINUOUS
 62
    7
 10
358.29264483286465
 20
313.36559652958402
 11
357.74163474955708
 21
313.36559652958402
  0
LINE
  8
_0-f_
  6
CONTINUOUS
 62
    7
 10
358.1802525258866
 20
313.27698532958402
 11
357.6503343891921
 21
313.27698532958402
  0
LINE
  8
_0-f_
  6
CONTINUOUS
 62
    7
 10
358.10043836459022
 20
313.18837412958402
 11
357.600404097043
 21
313.18837412958402
  0
LINE
  8
_0-f_
  6
CONTINUOUS
 62
    7
 10
358.04303532957027
 20
313.09976292958407
 11
357.56460555289368
 21
313.09976292958407
  0
LINE
  8
_0-f_
  6
CONTINUOUS
 62
    7
 10
360.39321323862612
 20
311.50476132958397
 11
358.85250933603555
 21
311.50476132958397
  0
LINE
  8
_0-f_
  6
CONTINUOUS
 62
    7
 10
360.36946996720508
 20
311.41615012958397
 11
358.82876603712623
 21
311.41615012958397
  0
LINE
  8
_0-f_
  6
CONTINUOUS
 62
    7
 10
360.34572669578404
 20
311.32753892958402
 11
358.80502273821691
 21
311.32753892958402
  0
LINE
  8
_0-f_
  6
CONTINUOUS
 62
    7
 10
360.321983424363
 20
311.23892772958396
 11
358.78127943930758
 21
311.23892772958396
  0
LINE
  8
_0-f_
  6
CONTINUOUS
 62
    7
 10
360.29824015294207
 20
311.15031652958402
 11
358.75753614039826
 21
311.15031652958402
  0
LINE
  8
_0-f_
  6
CONTINUOUS
 62
    7
 10
360.27449688152103
 20
311.06170532958402
 11
358.73379284148893
 21
311.06170532958402
  0
LINE
  8
_0-f_
  6
CONTINUOUS
 62
    7
 10
360.25075361009999
 20
310.97309412958401
 11
358.71004954257961
 21
310.97309412958401
  0
LINE
  8
_0-f_
  6
CONTINUOUS
 62
    7
 10
360.22701033867855
 20
310.88448292958395
 11
358.68630624367029
 21
310.88448292958395
  0
LINE
  8
_0-f_
  6
CONTINUOUS
 62
    7
 10
361.15689629217968
 20
312.656706929584
 11
359.1611722218567
 21
312.656706929584
  0
LINE
  8
_0-f_
  6
CONTINUOUS
 62
    7
 10
361.24576410817144
 20
312.56809572958406
 11
359.13742892294738
 21
312.56809572958406
  0
LINE
  8
_0-f_
  6
CONTINUOUS
 62
    7
 10
361.33463192416326
 20
312.47948452958406
 11
359.11368562403806
 21
312.47948452958406
  0
LINE
  8
_0-f_
  6
CONTINUOUS
 62
    7
 10
361.42349974015508
 20
312.39087332958405
 11
359.08994232512873
 21
312.39087332958405
  0
LINE
  8
_0-f_
  6
CONTINUOUS
 62
    7
 10
361.51236755614684
 20
312.30226212958399
 11
359.06619902621941
 21
312.30226212958399
  0
LINE
  8
_0-f_
  6
CONTINUOUS
 62
    7
 10
363.10376806693694
 20
312.21365092958399
 11
359.04245572731008
 21
312.21365092958399
  0
LINE
  8
_0-f_
  6
CONTINUOUS
 62
    7
 10
363.08002476252994
 20
312.12503972958399
 11
359.01871242840076
 21
312.12503972958399
  0
LINE
  8
_0-f_
  6
CONTINUOUS
 62
    7
 10
363.05628145812301
 20
312.03642852958404
 11
358.99496912949144
 21
312.03642852958404
  0
LINE
  8
_0-f_
  6
CONTINUOUS
 62
    7
 10
363.03253815371602
 20
311.94781732958398
 11
358.97122583058217
 21
311.94781732958398
  0
LINE
  8
_0-f_
  6
CONTINUOUS
 62
    7
 10
363.00879484930908
 20
311.85920612958409
 11
358.94748253167279
 21
311.85920612958392
  0
LINE
  8
_0-f_
  6
CONTINUOUS
 62
    7
 10
362.98505154490209
 20
311.77059492958404
 11
358.92373923276352
 21
311.77059492958404
  0
LINE
  8
_0-f_
  6
CONTINUOUS
 62
    7
 10
360.4406997814682
 20
311.68198372958403
 11
358.89999593385414
 21
311.68198372958403
  0
LINE
  8
_0-f_
  6
CONTINUOUS
 62
    7
 10
360.41695651004716
 20
311.59337252958397
 11
358.87625263494488
 21
311.59337252958397
  0
LINE
  8
_0-f_
  6
CONTINUOUS
 62
    7
 10
360.9791606601961
 20
312.83392932958401
 11
359.24309169116469
 21
312.83392932958407
  0
LINE
  8
_0-f_
  6
CONTINUOUS
 62
    7
 10
361.06802847618781
 20
312.74531812958406
 11
359.19433231856351
 21
312.74531812958406
  0
LINE
  8
_0-f_
  6
CONTINUOUS
 62
    7
 10
360.88340217079167
 20
312.92254052958401
 11
359.32913761598508
 21
312.92254052958401
  0
LINE
  8
_0-f_
  6
CONTINUOUS
 62
    7
 10
360.65176039461619
 20
313.01115172958401
 11
359.57577583593434
 21
313.01115172958401
  0
LINE
  8
_0-f_
  6
CONTINUOUS
 62
    7
 10
357.98563229455033
 20
313.01115172958401
 11
357.52880700874437
 21
313.01115172958401
  0
LINE
  8
_0-f_
  6
CONTINUOUS
 62
    7
 10
357.92822925953044
 20
312.92254052958401
 11
357.49300846459505
 21
312.92254052958401
  0
LINE
  8
_0-f_
  6
CONTINUOUS
 62
    7
 10
357.87082622451055
 20
312.83392932958412
 11
357.45720992044573
 21
312.83392932958412
  0
LINE
  8
_0-f_
  6
CONTINUOUS
 62
    7
 10
357.81342318949061
 20
312.74531812958406
 11
357.42141137629642
 21
312.74531812958406
  0
LINE
  8
_0-f_
  6
CONTINUOUS
 62
    7
 10
357.78163565627199
 20
312.656706929584
 11
357.3856128321471
 21
312.656706929584
  0
LINE
  8
_0-f_
  6
CONTINUOUS
 62
    7
 10
357.76842094049221
 20
312.56809572958412
 11
357.34981428799779
 21
312.56809572958412
  0
LINE
  8
_0-f_
  6
CONTINUOUS
 62
    7
 10
357.75520622471231
 20
312.47948452958406
 11
357.31401574384847
 21
312.47948452958406
  0
LINE
  8
_0-f_
  6
CONTINUOUS
 62
    7
 10
357.74199150893253
 20
312.39087332958405
 11
357.32133346744928
 21
312.39087332958405
  0
LINE
  8
_0-f_
  6
CONTINUOUS
 62
    7
 10
357.72877679315269
 20
312.30226212958399
 11
357.33078110238898
 21
312.30226212958399
  0
LINE
  8
_0-f_
  6
CONTINUOUS
 62
    7
 10
357.71556207737285
 20
312.21365092958399
 11
357.34022873732863
 21
312.21365092958399
  0
LINE
  8
_0-f_
  6
CONTINUOUS
 62
    7
 10
357.70625877753565
 20
312.12503972958399
 11
357.34967637226833
 21
312.12503972958399
  0
LINE
  8
_0-f_
  6
CONTINUOUS
 62
    7
 10
357.73492609430281
 20
312.03642852958404
 11
357.35912400720804
 21
312.03642852958404
  0
LINE
  8
_0-f_
  6
CONTINUOUS
 62
    7
 10
357.76359341106996
 20
311.94781732958398
 11
357.36857164214769
 21
311.94781732958398
  0
LINE
  8
_0-f_
  6
CONTINUOUS
 62
    7
 10
357.79226072783717
 20
311.85920612958392
 11
357.37801927708739
 21
311.85920612958392
  0
LINE
  8
_0-f_
  6
CONTINUOUS
 62
    7
 10
357.82092804460427
 20
311.77059492958404
 11
357.38746691202704
 21
311.77059492958404
  0
LINE
  8
_0-f_
  6
CONTINUOUS
 62
    7
 10
357.84959536137143
 20
311.68198372958403
 11
357.39691454696674
 21
311.68198372958403
  0
LINE
  8
_0-f_
  6
CONTINUOUS
 62
    7
 10
357.87826267813858
 20
311.59337252958397
 11
357.44184671920402
 21
311.59337252958397
  0
LINE
  8
_0-f_
  6
CONTINUOUS
 62
    7
 10
357.9415117682031
 20
311.50476132958397
 11
357.49937943714957
 21
311.50476132958397
  0
LINE
  8
_0-f_
  6
CONTINUOUS
 62
    7
 10
358.01700669429295
 20
311.41615012958397
 11
357.55691215509506
 21
311.41615012958397
  0
LINE
  8
_0-f_
  6
CONTINUOUS
 62
    7
 10
358.09250162038273
 20
311.32753892958402
 11
357.61444487304055
 21
311.32753892958402
  0
LINE
  8
_0-f_
  6
CONTINUOUS
 62
    7
 10
358.16799654647258
 20
311.23892772958396
 11
357.6719775909861
 21
311.23892772958396
  0
LINE
  8
_0-f_
  6
CONTINUOUS
 62
    7
 10
358.24349147256237
 20
311.15031652958402
 11
357.72951030893159
 21
311.15031652958402
  0
LINE
  8
_0-f_
  6
CONTINUOUS
 62
    7
 10
358.31898639865216
 20
311.06170532958402
 11
357.78704302687709
 21
311.06170532958402
  0
LINE
  8
_0-f_
  6
CONTINUOUS
 62
    7
 10
358.43928779761495
 20
310.97309412958401
 11
357.84457574482263
 21
310.97309412958401
  0
LINE
  8
_0-f_
  6
CONTINUOUS
 62
    7
 10
358.56060727401649
 20
310.88448292958395
 11
357.92876526730663
 21
310.88448292958395
  0
TEXT
  8
_0-f_
 62
    7
 10
348.88661436286725
 20
263.49965151755441
 40
3
 41
1
 50
0
  1
②扉　　ｽﾁｰﾙ　t1.0　ﾎﾟﾘｯｼｭﾎﾜｲﾄ　焼付塗装
  0
LINE
  8
_0-0_
  6
CONTINUOUS
 62
    2
 10
211.46531296817102
 20
173.5738301182592
 11
211.46531296817102
 21
172.97381011825917
  0
LINE
  8
_0-0_
  6
CONTINUOUS
 62
    2
 10
212.46533296817103
 20
172.97386011825915
 11
212.46533296817103
 21
173.5738301182592
  0
ARC
  8
_0-0_
  6
CONTINUOUS
 62
    2
 10
211.96530396817104
 20
173.5738301182592
 40
0.4999953999999999
 50
0.0014189999999996
 51
179.99858
  0
ARC
  8
_0-0_
  6
CONTINUOUS
 62
    2
 10
211.965341968171
 20
172.97381011825917
 40
0.4999892
 50
179.99857999999998
 51
0.0014190000001121
  0
LINE
  8
_0-0_
  6
CENTER2
 62
    7
 10
210.46529196817102
 20
173.27381011825918
 11
213.46534496817105
 21
173.27381011825918
  0
LINE
  8
_0-0_
  6
CONTINUOUS
 62
    2
 10
211.96530306817101
 20
124.47385311825914
 11
211.96534106817103
 21
124.47385311825914
  0
ARC
  8
_0-0_
  6
CONTINUOUS
 62
    2
 10
211.96534106817103
 20
124.97382311825916
 40
0.4999892
 50
179.99857999999998
 51
0.0014190000001121
  0
LINE
  8
_0-0_
  6
CONTINUOUS
 62
    2
 10
211.46531206817104
 20
125.57384311825916
 11
211.46531206817104
 21
124.97382311825916
  0
LINE
  8
_0-0_
  6
CONTINUOUS
 62
    2
 10
212.46533206817105
 20
124.97387311825915
 11
212.46533206817105
 21
125.57384311825916
  0
ARC
  8
_0-0_
  6
CONTINUOUS
 62
    2
 10
211.96530306817101
 20
125.57384311825916
 40
0.4999953999999999
 50
0.0014189999999996
 51
179.99858
  0
LINE
  8
_0-0_
  6
CENTER2
 62
    7
 10
210.46529106817104
 20
125.27382311825914
 11
213.46534406817102
 21
125.27382311825914
  0
TEXT
  8
_0-f_
 62
    7
 10
394.88661436286725
 20
60.749651517554526
 40
2.5
 41
1
 50
0
  1
2020.02.15
  0
ENDSEC
  0
EOF
