  0
SECTION
  2
HEADER
  9
$ACADVER
  1
AC1009
  9
$INSBASE
 10
0
 20
0
 30
0
  9
$EXTMIN
 10
0
 20
0
  9
$EXTMAX
 10
420
 20
297
  9
$LIMMIN
 10
0
 20
0
  9
$LIMMAX
 10
420
 20
297
  9
$LTSCALE
 40
1
  0
ENDSEC
  0
SECTION
  2
TABLES
  0
TABLE
  2
LTYPE
 70
     9
  0
LTYPE
  2
CONTINUOUS
 70
    64
  3
実線
 72
    65
 73
     0
 40
0.0
  0
LTYPE
  2
DASHED1
 70
    64
  3
--  --  --  --  --  --  --  --  
 72
    65
 73
     2
 40
2.5
 49
1.25
 49
-1.25
  0
LTYPE
  2
DASHED2
 70
    64
  3
----    ----    ----    ----    
 72
    65
 73
     2
 40
5.0
 49
2.5
 49
-2.5
  0
LTYPE
  2
DASHED3
 70
    64
  3
------  ------  ------  ------  
 72
    65
 73
     2
 40
5.0
 49
3.75
 49
-1.25
  0
LTYPE
  2
CENTER1
 70
    64
  3
----- - ----- - ----- - ----- - 
 72
    65
 73
     4
 40
10.0
 49
6.25
 49
-1.25
 49
1.25
 49
-1.25
  0
LTYPE
  2
CENTER2
 70
    64
  3
----------  --  ----------  --  
 72
    65
 73
     4
 40
20.0
 49
12.5
 49
-2.5
 49
2.5
 49
-2.5
  0
LTYPE
  2
PHANTOM1
 70
    64
  3
--- - - --- - - --- - - --- - - 
 72
    65
 73
     6
 40
10.0
 49
3.25
 49
-1.25
 49
1.25
 49
-1.25
 49
1.25
 49
-1.25
  0
LTYPE
  2
PHANTOM2
 70
    64
  3
--------  -  -  --------  -  -  
 72
    65
 73
     6
 40
20.0
 49
10.0
 49
-2.5
 49
1.25
 49
-2.5
 49
1.25
 49
-2.5
  0
LTYPE
  2
DOT
 70
    64
  3
-   -   -   -   -   -   -   -   
 72
    65
 73
     2
 40
2.5
 49
0.625
 49
-1.875
  0
LTYPE
  2
DUMMY
 70
    64
  3
ダミー
 72
    65
 73
     0
 40
0.0
  0
LTYPE
  2
RAND1
 70
    64
  3
ランダム線1
 72
    65
 73
     4
 40
10.0
 49
1.0
 49
-2.0
 49
3.0
 49
-4.0
  0
LTYPE
  2
RAND2
 70
    64
  3
ランダム線2
 72
    65
 73
     4
 40
14.0
 49
2.0
 49
-3.0
 49
4.0
 49
-5.0
  0
LTYPE
  2
RAND3
 70
    64
  3
ランダム線3
 72
    65
 73
     4
 40
18.0
 49
3.0
 49
-4.0
 49
5.0
 49
-6.0
  0
LTYPE
  2
RAND4
 70
    64
  3
ランダム線4
 72
    65
 73
     4
 40
22.0
 49
4.0
 49
-5.0
 49
6.0
 49
-7.0
  0
LTYPE
  2
RAND5
 70
    64
  3
ランダム線5
 72
    65
 73
     4
 40
26.0
 49
5.0
 49
-6.0
 49
7.0
 49
-8.0
  0
LTYPE
  2
LONG1
 70
    64
  3
----------  --  ----------  --  
 72
    65
 73
     4
 40
40.0
 49
32.5
 49
-2.5
 49
2.5
 49
-2.5
  0
LTYPE
  2
LONG2
 70
    64
  3
--------  -  -  --------  -  -  
 72
    65
 73
     6
 40
40.0
 49
30.0
 49
-2.5
 49
1.25
 49
-2.5
 49
1.25
 49
-2.5
  0
LTYPE
  2
LONG3
 70
    64
  3
+++++++++++++++..+++++++++++++++
 72
    65
 73
     2
 40
40.0
 49
37.5
 49
-2.5
  0
LTYPE
  2
LONG4
 70
    64
  3
+++++++++++++++..+++++++++++++++
 72
    65
 73
     2
 40
80.0
 49
75.0
 49
-5.0
  0
LTYPE
  2
LONG5
 70
    64
  3
----------  --  ----------  --  
 72
    65
 73
     4
 40
60.0
 49
37.5
 49
-7.5
 49
7.5
 49
-7.5
  0
LTYPE
  2
dashed
 70
   64
  3
-------   -------------   ------
 72
   65
 73
    2
 40
7.5
 49
6
 49
-1.5
  0
LTYPE
  2
dashed_spaced
 70
   64
  3
----        --------        ----
 72
   65
 73
    2
 40
12
 49
6
 49
-6
  0
LTYPE
  2
long_dashed_dotted
 70
   64
  3
------------- --- --------------
 72
   65
 73
    4
 40
15.25
 49
12
 49
-1.5
 49
0.25
 49
-1.5
  0
LTYPE
  2
long_dashed_double-dotted
 70
   64
  3
----------- --- --- ------------
 72
   65
 73
    6
 40
17
 49
12
 49
-1.5
 49
0.25
 49
-1.5
 49
0.25
 49
-1.5
  0
LTYPE
  2
long_dashed_triplicate-dotted
 70
   64
  3
--------- --- --- --- ----------
 72
   65
 73
    8
 40
18.75
 49
12
 49
-1.5
 49
0.25
 49
-1.5
 49
0.25
 49
-1.5
 49
0.25
 49
-1.5
  0
LTYPE
  2
dotted
 70
   64
  3
   -       -       -       -    
 72
   65
 73
    2
 40
1.75
 49
0.25
 49
-1.5
  0
LTYPE
  2
chain
 70
   64
  3
-------------- -- --------------
 72
   65
 73
    4
 40
18.5
 49
12
 49
-1.5
 49
3.5
 49
-1.5
  0
LTYPE
  2
chain_double_dash
 70
   64
  3
------------ -- -- -------------
 72
   65
 73
    6
 40
23.5
 49
12
 49
-1.5
 49
3.5
 49
-1.5
 49
3.5
 49
-1.5
  0
LTYPE
  2
dashed_dotted
 70
   64
  3
-----------     -     ----------
 72
   65
 73
    4
 40
9.25
 49
6
 49
-1.5
 49
0.25
 49
-1.5
  0
LTYPE
  2
double-dashed_dotted
 70
   64
  3
------   -----------   -   -----
 72
   65
 73
    6
 40
16.75
 49
6
 49
-1.5
 49
6
 49
-1.5
 49
0.25
 49
-1.5
  0
LTYPE
  2
dashed_double-dotted
 70
   64
  3
---------    -    -    ---------
 72
   65
 73
    6
 40
11
 49
6
 49
-1.5
 49
0.25
 49
-1.5
 49
0.25
 49
-1.5
  0
LTYPE
  2
double-dashed_double-dotted
 70
   64
  3
-----   ---------   -   -   ----
 72
   65
 73
    8
 40
18.5
 49
6
 49
-1.5
 49
6
 49
-1.5
 49
0.25
 49
-1.5
 49
0.25
 49
-1.5
  0
LTYPE
  2
dashed_triplicate-dotted
 70
   64
  3
-------    -    -    -    ------
 72
   65
 73
    8
 40
12.75
 49
6
 49
-1.5
 49
0.25
 49
-1.5
 49
0.25
 49
-1.5
 49
0.25
 49
-1.5
  0
LTYPE
  2
double-dashed_triplicate-dotted
 70
   64
  3
-----  ---------  -  -  -  -----
 72
   65
 73
   10
 40
20.25
 49
6
 49
-1.5
 49
6
 49
-1.5
 49
0.25
 49
-1.5
 49
0.25
 49
-1.5
 49
0.25
 49
-1.5
  0
LTYPE
  2
undefined
 70
   64
  3
--------------------------------
 72
   65
 73
    0
 40
0
  0
LTYPE
  2
_
 70
   64
  3
                                
 72
   65
 73
    0
 40
0
  0
LTYPE
  2
__18
 70
   64
  3
                                
 72
   65
 73
    0
 40
0
  0
LTYPE
  2
__19
 70
   64
  3
                                
 72
   65
 73
    0
 40
0
  0
LTYPE
  2
__20
 70
   64
  3
                                
 72
   65
 73
    0
 40
0
  0
LTYPE
  2
__21
 70
   64
  3
                                
 72
   65
 73
    0
 40
0
  0
LTYPE
  2
__22
 70
   64
  3
                                
 72
   65
 73
    0
 40
0
  0
LTYPE
  2
__23
 70
   64
  3
                                
 72
   65
 73
    0
 40
0
  0
LTYPE
  2
__24
 70
   64
  3
                                
 72
   65
 73
    0
 40
0
  0
LTYPE
  2
__25
 70
   64
  3
                                
 72
   65
 73
    0
 40
0
  0
LTYPE
  2
__26
 70
   64
  3
                                
 72
   65
 73
    0
 40
0
  0
LTYPE
  2
__27
 70
   64
  3
                                
 72
   65
 73
    0
 40
0
  0
LTYPE
  2
__28
 70
   64
  3
                                
 72
   65
 73
    0
 40
0
  0
LTYPE
  2
__29
 70
   64
  3
                                
 72
   65
 73
    0
 40
0
  0
LTYPE
  2
__30
 70
   64
  3
                                
 72
   65
 73
    0
 40
0
  0
LTYPE
  2
__31
 70
   64
  3
                                
 72
   65
 73
    0
 40
0
  0
LTYPE
  2
__32
 70
   64
  3
                                
 72
   65
 73
    0
 40
0
  0
ENDTAB
  0
TABLE
  2
STYLE
  5
3
100
AcDbSymbolTable
 70
     1
  0
STYLE
  5
10
100
AcDbSymbolTableRecord
100
AcDbTextStyleTableRecord
  2
STANDARD
 70
     0
 40
0.0
 41
1.0
 50
0.0
 71
     0
 42
0.2
  3
txt
  4
bigfont.shx
  0
STYLE
  5
26
100
AcDbSymbolTableRecord
100
AcDbTextStyleTableRecord
  2
TATEGAKI
 70
    68
 40
0.0
 41
1.0
 50
0.0
 71
     0
 42
1.0
  3
txt
  4
bigfont.shx
  0
ENDTAB
  0
TABLE
  2
LAYER
 70
    5
  0
LAYER
  2
_0-0_
 70
   64
 62
    7
  6
CONTINUOUS
  0
LAYER
  2
_0-1_
 70
   64
 62
    7
  6
CONTINUOUS
  0
LAYER
  2
_0-f_
 70
   64
 62
    7
  6
CONTINUOUS
  0
LAYER
  2
_1-2_ADD_LINE
 70
   64
 62
    7
  6
CONTINUOUS
  0
LAYER
  2
ADD_LINE
 70
   64
 62
    7
  6
CONTINUOUS
  0
ENDTAB
  0
ENDSEC
  0
SECTION
  2
BLOCKS
  0
ENDSEC
  0
SECTION
  2
ENTITIES
  0
LINE
  8
_0-f_
  6
CONTINUOUS
 62
    7
 10
368.45066747259756
 20
24.00392096400995
 11
368.45066747259756
 21
-1.9960459059881259
  0
LINE
  8
_0-f_
  6
CONTINUOUS
 62
    7
 10
3.9506674725975017
 20
-1.9960790359900784
 11
403.95066747259756
 21
-1.9960790359900784
  0
LINE
  8
_0-f_
  6
CONTINUOUS
 62
    7
 10
403.95066747259756
 20
-1.9960790359900784
 11
403.95066747259756
 21
275.00392096400992
  0
LINE
  8
_0-f_
  6
CONTINUOUS
 62
    7
 10
403.95066747259756
 20
275.00392096400992
 11
3.9506674725975017
 21
275.00392096400992
  0
LINE
  8
_0-f_
  6
CONTINUOUS
 62
    7
 10
3.9506674725975017
 20
275.00392096400992
 11
3.9506674725975017
 21
-1.9960790359900784
  0
LINE
  8
_0-f_
  6
CONTINUOUS
 62
    7
 10
332.95066747259756
 20
275.00392096400992
 11
332.95066747259756
 21
-1.9960790359900784
  0
LINE
  8
_0-f_
  6
CONTINUOUS
 62
    7
 10
332.95066747259756
 20
260.00392096400981
 11
403.95066747259756
 21
260.00392096400981
  0
LINE
  8
_0-f_
  6
CONTINUOUS
 62
    7
 10
332.95066747259756
 20
245.00392096400981
 11
403.95066747259756
 21
245.00392096400981
  0
LINE
  8
_0-f_
  6
CONTINUOUS
 62
    7
 10
332.95066747259756
 20
230.00392096400986
 11
403.95066747259756
 21
230.00392096400986
  0
LINE
  8
_0-f_
  6
CONTINUOUS
 62
    7
 10
332.95066747259756
 20
11.00392096400995
 11
403.95066747259756
 21
11.00392096400995
  0
LINE
  8
_0-f_
  6
CONTINUOUS
 62
    7
 10
332.95066747259756
 20
24.00392096400995
 11
403.95066747259756
 21
24.00392096400995
  0
LINE
  8
_0-f_
  6
CONTINUOUS
 62
    7
 10
332.95066747259756
 20
44.00392096400995
 11
403.95066747259756
 21
44.00392096400995
  0
LINE
  8
ADD_LINE
  6
DOT
 62
    9
 10
333.95066747259756
 20
275.00392096400992
 11
333.95066747259756
 21
-1.9960790359900784
  0
LINE
  8
ADD_LINE
  6
DOT
 62
    9
 10
332.95066747259756
 20
259.00392096400981
 11
403.95066747259756
 21
259.00392096400981
  0
LINE
  8
ADD_LINE
  6
DOT
 62
    9
 10
332.95066747259756
 20
244.00392096400981
 11
403.95066747259756
 21
244.00392096400981
  0
LINE
  8
ADD_LINE
  6
DOT
 62
    9
 10
332.95066747259756
 20
229.00392096400986
 11
403.95066747259756
 21
229.00392096400986
  0
TEXT
  8
_0-f_
 62
    7
 10
333.95066747259756
 20
257.00392096400981
 40
2
 41
1
 50
0
  1
品　名　：
  0
TEXT
  8
_0-f_
 62
    7
 10
333.95066747259756
 20
242.00392096400981
 40
2
 41
1
 50
0
  1
形　式　：
  0
TEXT
  8
_0-f_
 62
    7
 10
333.95066747259756
 20
227.00392096400986
 40
2
 41
1
 50
0
  1
仕　様　：
  0
LINE
  8
ADD_LINE
  6
DOT
 62
    9
 10
332.95066747259756
 20
43.00392096400995
 11
403.95066747259756
 21
43.00392096400995
  0
LINE
  8
ADD_LINE
  6
DOT
 62
    9
 10
332.95066747259756
 20
23.00392096400995
 11
403.95066747259756
 21
23.00392096400995
  0
LINE
  8
ADD_LINE
  6
DOT
 62
    9
 10
332.95066747259756
 20
10.00392096400995
 11
403.95066747259756
 21
10.00392096400995
  0
LINE
  8
ADD_LINE
  6
DOT
 62
    9
 10
369.45066747259756
 20
24.00392096400995
 11
369.45066747259756
 21
-1.9960459059881259
  0
TEXT
  8
_0-f_
 62
    7
 10
333.95066747259756
 20
41.00392096400995
 40
2
 41
1
 50
0
  1
図面名称　：
  0
TEXT
  8
_0-f_
 62
    7
 10
333.95066747259756
 20
21.00392096400995
 40
2
 41
1
 50
0
  1
尺　度　：
  0
TEXT
  8
_0-f_
 62
    7
 10
333.95066747259756
 20
8.0039209640099216
 40
2
 41
1
 50
0
  1
サイズ　：
  0
TEXT
  8
_0-f_
 62
    7
 10
369.45066747259756
 20
21.00392096400995
 40
2
 41
1
 50
0
  1
作成日
  0
TEXT
  8
_0-f_
 62
    7
 10
369.45066747259756
 20
8.0039209640099216
 40
2
 41
1
 50
0
  1
File Name ：
  0
LINE
  8
ADD_LINE
  6
DOT
 62
    9
 10
350.70066747259756
 20
26.267625760342327
 11
350.70066747259756
 21
-5.7911396885752993
  0
LINE
  8
ADD_LINE
  6
DOT
 62
    9
 10
328.81262475609486
 20
17.50392096400995
 11
405.57162467952816
 21
17.50392096400995
  0
LINE
  8
ADD_LINE
  6
DOT
 62
    9
 10
330.83525980019039
 20
4.5039209640099216
 11
405.06596591850433
 21
4.5039209640099216
  0
TEXT
  8
_0-f_
 62
    7
 10
349.45066747259756
 20
3.2539209640099216
 40
2.5
 41
1
 50
0
  1
A3
  0
LINE
  8
ADD_LINE
  6
DOT
 62
    9
 10
386.20066747259756
 20
26.267625760342327
 11
386.20066747259756
 21
-5.7911396885752993
  0
TEXT
  8
_0-f_
 62
    7
 10
348.82566747259756
 20
16.25392096400995
 40
2.5
 41
1
 50
0
  1
1/5
  0
LINE
  8
ADD_LINE
  6
DOT
 62
    9
 10
332.95066747259756
 20
226.00392096400986
 11
403.95066747259756
 21
226.00392096400986
  0
LINE
  8
ADD_LINE
  6
DOT
 62
    9
 10
332.95066747259756
 20
222.00392096400986
 11
403.95066747259756
 21
222.00392096400986
  0
LINE
  8
ADD_LINE
  6
DOT
 62
    9
 10
332.95066747259756
 20
218.00392096400986
 11
403.95066747259756
 21
218.00392096400986
  0
LINE
  8
ADD_LINE
  6
DOT
 62
    9
 10
332.95066747259756
 20
214.00392096400986
 11
403.95066747259756
 21
214.00392096400986
  0
LINE
  8
ADD_LINE
  6
DOT
 62
    9
 10
332.95066747259756
 20
210.00392096400986
 11
403.95066747259756
 21
210.00392096400986
  0
LINE
  8
ADD_LINE
  6
DOT
 62
    9
 10
332.95066747259756
 20
206.00392096400986
 11
403.95066747259756
 21
206.00392096400986
  0
TEXT
  8
_0-f_
 62
    7
 10
333.95066747259756
 20
223.00392096400986
 40
3
 41
1
 50
0
  1
①本体　ｽﾁｰﾙ　t1.0　ｼﾙﾊﾞｰﾒﾀﾘｯｸ　焼付塗装
  0
TEXT
  8
_0-1_
 62
    7
 10
31.220697977479631
 20
14.679394376663538
 40
5
 41
1
 50
0
  1
※ご発注前にご収納されますＡＥＤ機器寸法をご確認下さい
  0
LINE
  8
_0-1_
  6
CONTINUOUS
 62
    7
 10
50.356191838321251
 20
175.69456004442083
 11
120.35612317377047
 21
175.69456004442083
  0
LINE
  8
_0-1_
  6
CONTINUOUS
 62
    4
 10
50.356191838321251
 20
175.69456004442083
 11
50.356191838321251
 21
182.06060313524114
  0
LINE
  8
_0-1_
  6
CONTINUOUS
 62
    4
 10
120.35612317377047
 20
175.69456004442083
 11
120.35612317377047
 21
182.06060313524114
  0
LINE
  8
_0-1_
  6
CONTINUOUS
 62
    7
 10
50.356191838321251
 20
155.04639720262395
 11
120.35612317377047
 21
155.04639720262395
  0
LINE
  8
_0-1_
  6
CONTINUOUS
 62
    4
 10
50.356191838321251
 20
155.04639720262395
 11
50.356191838321251
 21
146.14811229051458
  0
LINE
  8
_0-1_
  6
CONTINUOUS
 62
    4
 10
120.35612317377047
 20
155.04639720262395
 11
120.35612317377047
 21
146.14811229051458
  0
LINE
  8
_0-1_
  6
CONTINUOUS
 62
    7
 10
35.365102971133751
 20
214.13429545701848
 11
35.365102971133751
 21
184.13429545701848
  0
LINE
  8
_0-1_
  6
CONTINUOUS
 62
    4
 10
35.365102971133751
 20
214.13429545701848
 11
47.883581364688439
 21
214.13429545701848
  0
LINE
  8
_0-1_
  6
CONTINUOUS
 62
    4
 10
35.365102971133751
 20
184.13429545701848
 11
47.883581364688439
 21
184.13429545701848
  0
LINE
  8
_0-1_
  6
CONTINUOUS
 62
    4
 10
35.365102971133751
 20
144.13430308641301
 11
47.883581364688439
 21
144.13430308641301
  0
LINE
  8
_0-1_
  6
CONTINUOUS
 62
    7
 10
35.365102971133751
 20
144.13430308641301
 11
35.365102971133751
 21
64.134309285296069
  0
LINE
  8
_0-1_
  6
CONTINUOUS
 62
    4
 10
35.365102971133751
 20
64.134309285296069
 11
47.883581364688439
 21
64.134309285296069
  0
LINE
  8
_0-1_
  6
CONTINUOUS
 62
    7
 10
160.35625668817477
 20
155.04639720262395
 11
190.35625668817477
 21
155.04639720262395
  0
LINE
  8
_0-1_
  6
CONTINUOUS
 62
    4
 10
160.35625668817477
 20
155.04639720262395
 11
160.35625668817477
 21
146.14811229051458
  0
LINE
  8
_0-1_
  6
CONTINUOUS
 62
    4
 10
190.35625668817477
 20
155.04639720262395
 11
190.35625668817477
 21
146.14811229051458
  0
LINE
  8
_0-1_
  6
CONTINUOUS
 62
    7
 10
151.20831128412203
 20
144.13430308641301
 11
151.20831128412203
 21
141.13430308641301
  0
LINE
  8
_0-1_
  6
CONTINUOUS
 62
    4
 10
151.20831128412203
 20
144.13430308641301
 11
158.0606100206943
 21
144.13430308641301
  0
LINE
  8
_0-1_
  6
CONTINUOUS
 62
    4
 10
151.20831128412203
 20
141.13430308641301
 11
158.0606100206943
 21
141.13430308641301
  0
LINE
  8
_0-1_
  6
CONTINUOUS
 62
    7
 10
151.20831128412203
 20
141.13430308641301
 11
151.20831128412203
 21
67.134306901110278
  0
LINE
  8
_0-1_
  6
CONTINUOUS
 62
    4
 10
151.20831128412203
 20
67.134306901110278
 11
158.0606100206943
 21
67.134306901110278
  0
LINE
  8
_0-1_
  6
CONTINUOUS
 62
    7
 10
151.20831128412203
 20
67.134306901110278
 11
151.20831128412203
 21
64.134309285296069
  0
LINE
  8
_0-1_
  6
CONTINUOUS
 62
    4
 10
151.20831128412203
 20
64.134309285296069
 11
158.0606100206943
 21
64.134309285296069
  0
CIRCLE
  8
_0-1_
  6
CONTINUOUS
 62
    7
 10
85.356252873477501
 20
74.13431166948186
 40
1
  0
POINT
  8
_0-1_
 62
    7
 10
50.356191838321251
 20
175.69456004442083
  0
POINT
  8
_0-1_
 62
    7
 10
120.35612317377047
 20
175.69456004442083
  0
POINT
  8
_0-1_
 62
    7
 10
50.356191838321251
 20
155.04639720262395
  0
POINT
  8
_0-1_
 62
    7
 10
120.35612317377047
 20
155.04639720262395
  0
POINT
  8
_0-1_
 62
    7
 10
35.365102971133751
 20
214.13429545701848
  0
POINT
  8
_0-1_
 62
    7
 10
35.365102971133751
 20
184.13429545701848
  0
POINT
  8
_0-1_
 62
    7
 10
35.365102971133751
 20
144.13430308641301
  0
POINT
  8
_0-1_
 62
    7
 10
35.365102971133751
 20
64.134309285296069
  0
POINT
  8
_0-1_
 62
    7
 10
160.35625668817477
 20
155.04639720262395
  0
POINT
  8
_0-1_
 62
    7
 10
190.35625668817477
 20
155.04639720262395
  0
POINT
  8
_0-1_
 62
    7
 10
151.20831128412203
 20
144.13430308641301
  0
POINT
  8
_0-1_
 62
    7
 10
151.20831128412203
 20
141.13430308641301
  0
POINT
  8
_0-1_
 62
    7
 10
151.20831128412203
 20
67.134306901110278
  0
POINT
  8
_0-1_
 62
    7
 10
151.20831128412203
 20
64.134309285296069
  0
TEXT
  8
_0-1_
 62
    7
 10
83.231222355899376
 20
156.04639720262395
 40
4
 41
1
 50
0
  1
350
  0
TEXT
  8
_0-1_
 62
    7
 10
34.365041935977501
 20
197.00931071580754
 40
4
 41
1
 50
90
  1
150
  0
TEXT
  8
_0-1_
 62
    7
 10
173.23121854120211
 20
156.04639720262395
 40
4
 41
1
 50
0
  1
150
  0
TEXT
  8
_0-1_
 62
    7
 10
150.20825787836031
 20
141.63430308641301
 40
4
 41
1
 50
90
  1
15
  0
TEXT
  8
_0-1_
 62
    7
 10
150.20825787836031
 20
64.634308808458911
 40
4
 41
1
 50
90
  1
15
  0
TEXT
  8
_0-1_
 62
    7
 10
150.20825787836031
 20
102.00930308641301
 40
4
 41
1
 50
90
  1
370
  0
LINE
  8
_0-1_
  6
CONTINUOUS
 62
    7
 10
66.793687941491612
 20
108.31482201735062
 11
59.45417767623519
 21
115.91510738540063
  0
LINE
  8
_0-1_
  6
CONTINUOUS
 62
    7
 10
66.969242004873877
 20
108.31482201735062
 11
74.308752270130412
 21
115.91510738540063
  0
ARC
  8
_0-1_
  6
CONTINUOUS
 62
    7
 10
66.881464973182801
 20
108.47194685910867
 40
0.1799806189288726
 50
240.81030254096703
 51
299.18969745903297
  0
ARC
  8
_0-1_
  6
CONTINUOUS
 62
    7
 10
63.167821324709053
 20
118.63051681279023
 40
4.6004997017939226
 50
36.174202920704083
 51
216.17420292070403
  0
LINE
  8
_0-1_
  6
CONTINUOUS
 62
    7
 10
66.885188796702039
 20
116.68133846091473
 11
66.885188796702039
 21
119.30573846091471
  0
LINE
  8
_0-1_
  6
CONTINUOUS
 62
    7
 10
66.885188796702039
 20
116.68133846091473
 11
69.351318110692603
 21
117.57893612505862
  0
LINE
  8
_0-1_
  6
CONTINUOUS
 62
    7
 10
68.154659504280062
 20
118.26982729359901
 11
70.162854225294723
 21
120.663100566997
  0
LINE
  8
_0-1_
  6
CONTINUOUS
 62
    7
 10
69.351318110692603
 20
117.57893612505862
 11
68.154659504280062
 21
118.26982729359901
  0
LINE
  8
_0-1_
  6
CONTINUOUS
 62
    7
 10
70.162854225294723
 20
120.663100566997
 11
71.363833813268457
 21
119.83641318396138
  0
LINE
  8
_0-1_
  6
CONTINUOUS
 62
    7
 10
71.363833813268457
 20
119.83641318396138
 11
75.3089060697788
 21
123.44419933212927
  0
LINE
  8
_0-1_
  6
CONTINUOUS
 62
    7
 10
67.892307164922954
 20
118.44566548563429
 11
70.441181536197689
 21
123.54341422818376
  0
LINE
  8
_0-1_
  6
CONTINUOUS
 62
    7
 10
70.441181536197689
 20
123.54341422818376
 11
72.203922100027626
 21
122.16854585128689
  0
LINE
  8
_0-1_
  6
CONTINUOUS
 62
    7
 10
72.203922100027626
 20
122.16854585128689
 11
73.277496903146073
 21
124.83516713645207
  0
LINE
  8
_0-1_
  6
CONTINUOUS
 62
    7
 10
73.277496903146073
 20
124.83516713645207
 11
75.3089060697788
 21
123.44419933212927
  0
LINE
  8
_0-1_
  6
CONTINUOUS
 62
    7
 10
67.892689602877169
 20
118.44643036154275
 11
66.885188796702039
 21
119.30573846091471
  0
ARC
  8
_0-1_
  6
CONTINUOUS
 62
    7
 10
70.595108621656607
 20
118.63051681279023
 40
4.6004997017939209
 50
93.932939704953412
 51
143.82579707929585
  0
ARC
  8
_0-1_
  6
CONTINUOUS
 62
    7
 10
70.595108621656607
 20
118.63051681279023
 40
4.6004997017939209
 50
323.82579707929591
 51
47.069975771820232
  0
ARC
  8
_0-1_
  6
CONTINUOUS
 62
    7
 10
70.595108621656607
 20
118.63051681279023
 40
4.6004997017939209
 50
65.93938761805704
 51
86.813527032339678
  0
TEXT
  8
_0-1_
 62
    7
 10
76.999791041808407
 20
110.10594772741712
 40
12
 41
1
 50
0
  1
Ａ
  0
TEXT
  8
_0-1_
 62
    7
 10
87.946626247711379
 20
110.35194402417898
 40
12
 41
1
 50
0
  1
Ｅ
  0
TEXT
  8
_0-1_
 62
    7
 10
99.631450343899928
 20
110.22894587579805
 40
12
 41
1
 50
0
  1
Ｄ
  0
TEXT
  8
_0-1_
 62
    7
 10
83.297509903391699
 20
175.9362724123726
 40
4
 41
1
 50
0
  1
350
  0
CIRCLE
  8
_0-1_
  6
CONTINUOUS
 62
    7
 10
28.317628900326071
 20
138.34380603104773
 40
3.4095973463431131
  0
TEXT
  8
_0-1_
 62
    7
 10
26.338052029842999
 20
136.58591530007192
 40
4
 41
1
 50
0
  1
２
  0
LINE
  8
_0-1_
  6
CONTINUOUS
 62
    7
 10
31.450997801383238
 20
136.99942758950772
 11
63.642434978402434
 21
128.639146772533
  0
CIRCLE
  8
_0-1_
  6
CONTINUOUS
 62
    7
 10
142.49915106345037
 20
210.90853178835243
 40
3.4095973463431131
  0
LINE
  8
_0-1_
  6
CONTINUOUS
 62
    7
 10
115.27143211253821
 20
200.93648214992112
 11
139.3657821623932
 21
209.56415334681242
  0
TEXT
  8
_0-1_
 62
    7
 10
140.47872793393344
 20
209.15064105737667
 40
4
 41
1
 50
0
  1
１
  0
LINE
  8
_0-0_
  6
CONTINUOUS
 62
    7
 10
116.85613843255953
 20
184.18631266893254
 11
116.85613843255953
 21
182.46630381883489
  0
LINE
  8
_0-0_
  6
CONTINUOUS
 62
    7
 10
53.656240666446251
 20
184.23430918992864
 11
117.05626508050875
 21
184.23430918992864
  0
LINE
  8
_0-0_
  6
CONTINUOUS
 62
    7
 10
117.71623822504
 20
183.32630442918645
 11
115.99623700433688
 21
183.32630442918645
  0
LINE
  8
_0-0_
  6
CONTINUOUS
 62
    7
 10
50.356191838321251
 20
184.43429087938176
 11
50.356191838321251
 21
213.83430766404973
  0
LINE
  8
_0-0_
  6
CONTINUOUS
 62
    7
 10
120.35612317377047
 20
184.43429087938176
 11
120.35612317377047
 21
213.83430766404973
  0
LINE
  8
_0-0_
  6
CONTINUOUS
 62
    7
 10
114.97717877679781
 20
183.63429545701848
 11
110.93520184808688
 21
183.63429545701848
  0
LINE
  8
_0-0_
  6
CONTINUOUS
 62
    7
 10
115.05616589837985
 20
183.75430583299504
 11
110.85621472650485
 21
183.75430583299504
  0
LINE
  8
_0-0_
  6
CONTINUOUS
 62
    7
 10
115.05616589837985
 20
184.23430918992864
 11
115.05616589837985
 21
183.75430583299504
  0
LINE
  8
_0-0_
  6
CONTINUOUS
 62
    7
 10
115.05616589837985
 20
183.75430583299504
 11
114.97717877679781
 21
183.63429545701848
  0
LINE
  8
_0-0_
  6
CONTINUOUS
 62
    7
 10
110.85621472650485
 20
184.23430918992864
 11
110.85621472650485
 21
183.75430583299504
  0
LINE
  8
_0-0_
  6
CONTINUOUS
 62
    7
 10
110.85621472650485
 20
183.75430583299504
 11
110.93520184808688
 21
183.63429545701848
  0
LINE
  8
_0-0_
  6
CONTINUOUS
 62
    7
 10
115.05616589837985
 20
184.23430918992864
 11
117.05626508050875
 21
184.23430918992864
  0
LINE
  8
_0-0_
  6
CONTINUOUS
 62
    7
 10
55.256094182071251
 20
181.53427409471379
 11
59.256307805118126
 21
181.53427409471379
  0
LINE
  8
_0-0_
  6
CONTINUOUS
 62
    7
 10
59.256307805118126
 20
181.83429240526067
 11
55.256094182071251
 21
181.83429240526067
  0
LINE
  8
_0-0_
  6
CONTINUOUS
 62
    7
 10
55.256094182071251
 20
181.83429240526067
 11
55.256094182071251
 21
181.53427409471379
  0
LINE
  8
_0-0_
  6
CONTINUOUS
 62
    7
 10
59.256307805118126
 20
181.53427409471379
 11
59.256307805118126
 21
181.83429240526067
  0
LINE
  8
_0-0_
  6
CONTINUOUS
 62
    7
 10
57.856191838321251
 20
181.83429240526067
 11
57.856191838321251
 21
184.23430918992864
  0
LINE
  8
_0-0_
  6
CONTINUOUS
 62
    7
 10
56.656210148868126
 20
181.83429240526067
 11
56.656210148868126
 21
184.23430918992864
  0
LINE
  8
_0-0_
  6
CONTINUOUS
 62
    7
 10
56.656210148868126
 20
184.23430918992864
 11
57.856191838321251
 21
184.23430918992864
  0
LINE
  8
_0-0_
  6
CONTINUOUS
 62
    7
 10
120.0562269335361
 20
214.13429545701848
 11
50.656088078555626
 21
214.13429545701848
  0
LINE
  8
_0-0_
  6
CONTINUOUS
 62
    7
 10
50.656088078555626
 20
184.13429545701848
 11
120.0562269335361
 21
184.13429545701848
  0
LINE
  8
_0-0_
  6
CONTINUOUS
 62
    7
 10
116.9561063891025
 20
184.23430918992864
 11
116.9561063891025
 21
183.81621074022161
  0
LINE
  8
_0-0_
  6
CONTINUOUS
 62
    7
 10
116.71618481927828
 20
184.23430918992864
 11
116.71618481927828
 21
183.80631541551458
  0
CIRCLE
  8
_0-0_
  6
CONTINUOUS
 62
    7
 10
116.85613843255953
 20
183.32630442918645
 40
0.5
  0
CIRCLE
  8
_0-0_
  6
CONTINUOUS
 62
    7
 10
116.85613843255953
 20
183.32630442918645
 40
0.2000000029802322
  0
ARC
  8
_0-0_
  6
CONTINUOUS
 62
    7
 10
120.0562269335361
 20
184.43429087938176
 40
0.3000000119209289
 50
270
 51
0
  0
ARC
  8
_0-0_
  6
CONTINUOUS
 62
    7
 10
120.0562269335361
 20
213.83430766404973
 40
0.3000000119209289
 50
0
 51
90
  0
ARC
  8
_0-0_
  6
CONTINUOUS
 62
    7
 10
50.656088078555626
 20
213.83430766404973
 40
0.3000000119209289
 50
90
 51
180
  0
ARC
  8
_0-0_
  6
CONTINUOUS
 62
    7
 10
50.656088078555626
 20
184.43429087938176
 40
0.3000000119209289
 50
180
 51
270
  0
LINE
  8
_0-0_
  6
CONTINUOUS
 62
    7
 10
53.656240666446251
 20
184.23430918992864
 11
53.656240666446251
 21
185.03430918992865
  0
LINE
  8
_0-0_
  6
CONTINUOUS
 62
    7
 10
117.05626508050875
 20
185.03430918992865
 11
117.05626508050875
 21
184.23430918992864
  0
LINE
  8
_0-0_
  6
CONTINUOUS
 62
    7
 10
53.656240666446251
 20
185.03430918992865
 11
117.05626508050875
 21
185.03430918992865
  0
LINE
  8
_0-0_
  6
CONTINUOUS
 62
    7
 10
117.05626508050875
 20
129.54989909471379
 11
117.05626508050875
 21
140.83430766404973
  0
LINE
  8
_0-0_
  6
CONTINUOUS
 62
    7
 10
120.35612317377047
 20
144.13430308641301
 11
50.356191838321251
 21
144.13430308641301
  0
LINE
  8
_0-0_
  6
CONTINUOUS
 62
    7
 10
117.35616895013766
 20
141.13430308641301
 11
53.356146061954064
 21
141.13430308641301
  0
LINE
  8
_0-0_
  6
CONTINUOUS
 62
    7
 10
117.05626508050875
 20
140.83430766404973
 11
53.656240666446251
 21
140.83430766404973
  0
LINE
  8
_0-0_
  6
CONTINUOUS
 62
    7
 10
117.35616895013766
 20
127.63431071580754
 11
114.03790112787203
 21
127.63431071580754
  0
LINE
  8
_0-0_
  6
CONTINUOUS
 62
    7
 10
116.85613843255953
 20
129.68431376756536
 11
117.35616895013766
 21
129.34829997362004
  0
LINE
  8
_0-0_
  6
CONTINUOUS
 62
    7
 10
117.35616895013766
 20
129.34829997362004
 11
116.35611554437594
 21
129.34829997362004
  0
LINE
  8
_0-0_
  6
CONTINUOUS
 62
    7
 10
117.35616895013766
 20
129.20830821336614
 11
116.35611554437594
 21
129.20830821336614
  0
LINE
  8
_0-0_
  6
CONTINUOUS
 62
    7
 10
116.85613843255953
 20
129.68431376756536
 11
116.35611554437594
 21
129.34829997362004
  0
LINE
  8
_0-0_
  6
CONTINUOUS
 62
    7
 10
114.03790112787203
 20
127.63431071580754
 11
112.25435468011813
 21
127.63431071580754
  0
LINE
  8
_0-0_
  6
CONTINUOUS
 62
    7
 10
117.05626508050875
 20
139.53430461229192
 11
53.656240666446251
 21
139.53430461229192
  0
CIRCLE
  8
_0-0_
  6
CONTINUOUS
 62
    7
 10
85.356252873477501
 20
134.13430308641301
 40
1
  0
LINE
  8
_0-0_
  6
CENTER2
 62
    7
 10
85.356252873477501
 20
224.98858928026067
 11
85.356252873477501
 21
43.184908860338794
  0
LINE
  8
_0-0_
  6
CONTINUOUS
 62
    7
 10
53.356146061954064
 20
141.13430308641301
 11
53.356146061954064
 21
67.134306901110278
  0
LINE
  8
_0-0_
  6
CONTINUOUS
 62
    7
 10
55.256094182071251
 20
103.56862162889348
 11
55.256094182071251
 21
104.69998835862981
  0
LINE
  8
_0-0_
  6
CONTINUOUS
 62
    7
 10
54.856237614688439
 20
103.56862162889348
 11
54.856237614688439
 21
104.69998835862981
  0
LINE
  8
_0-0_
  6
CONTINUOUS
 62
    7
 10
54.856237614688439
 20
103.58430766404973
 11
55.256094182071251
 21
103.58430766404973
  0
LINE
  8
_0-0_
  6
CONTINUOUS
 62
    7
 10
54.856237614688439
 20
104.68430232347356
 11
55.256094182071251
 21
104.68430232347356
  0
LINE
  8
_0-0_
  6
CONTINUOUS
 62
    7
 10
53.256185734805626
 20
104.13430690111028
 11
56.856146061954064
 21
104.13430690111028
  0
LINE
  8
_0-0_
  6
CONTINUOUS
 62
    7
 10
53.656240666446251
 20
102.53429698289739
 11
53.656240666446251
 21
105.73430156053411
  0
LINE
  8
_0-0_
  6
CONTINUOUS
 62
    7
 10
53.456121647891564
 20
102.53429698289739
 11
53.456121647891564
 21
105.73430156053411
  0
LINE
  8
_0-0_
  6
CONTINUOUS
 62
    7
 10
57.256200993594689
 20
105.73430156053411
 11
53.456121647891564
 21
105.73430156053411
  0
LINE
  8
_0-0_
  6
CONTINUOUS
 62
    7
 10
57.256200993594689
 20
102.53429698289739
 11
53.456121647891564
 21
102.53429698289739
  0
LINE
  8
_0-0_
  6
CONTINUOUS
 62
    7
 10
53.656240666446251
 20
140.83430766404973
 11
53.656240666446251
 21
67.434308999193775
  0
LINE
  8
_0-0_
  6
CONTINUOUS
 62
    7
 10
56.956106389102501
 20
139.53430461229192
 11
56.956106389102501
 21
67.434308999193775
  0
LINE
  8
ADD_LINE
  6
DOT
 62
    7
 10
57.256200993594689
 20
101.19970607103215
 11
57.256200993594689
 21
106.92493342698918
  0
LINE
  8
ADD_LINE
  6
DOT
 62
    7
 10
55.056158268985314
 20
105.93430613817083
 11
55.056158268985314
 21
102.33430384935247
  0
CIRCLE
  8
_0-0_
  6
CONTINUOUS
 62
    7
 10
55.056158268985314
 20
104.13430690111028
 40
0.949999988079071
  0
CIRCLE
  8
_0-0_
  6
CONTINUOUS
 62
    7
 10
55.056158268985314
 20
104.13430690111028
 40
0.6000000238418579
  0
CIRCLE
  8
_0-0_
  6
CONTINUOUS
 62
    7
 10
55.056158268985314
 20
104.13430690111028
 40
1.5
  0
CIRCLE
  8
_0-0_
  6
CONTINUOUS
 62
    7
 10
57.256200993594689
 20
104.13430690111028
 40
0.4300000071525573
  0
LINE
  8
_0-0_
  6
CONTINUOUS
 62
    7
 10
50.356191838321251
 20
144.13430308641301
 11
50.356191838321251
 21
64.134309285296069
  0
LINE
  8
_0-0_
  6
CONTINUOUS
 62
    7
 10
50.356191838321251
 20
64.134309285296069
 11
120.35612317377047
 21
64.134309285296069
  0
LINE
  8
_0-0_
  6
CONTINUOUS
 62
    7
 10
56.956106389102501
 20
68.734308236254321
 11
115.75611707025485
 21
68.734308236254321
  0
LINE
  8
_0-0_
  6
CONTINUOUS
 62
    7
 10
53.656240666446251
 20
67.434308999193775
 11
117.05626508050875
 21
67.434308999193775
  0
LINE
  8
_0-0_
  6
CONTINUOUS
 62
    7
 10
53.356146061954064
 20
67.134306901110278
 11
117.35616895013766
 21
67.134306901110278
  0
LINE
  8
_0-0_
  6
CONTINUOUS
 62
    7
 10
120.35612317377047
 20
64.134309285296069
 11
120.35612317377047
 21
144.13430308641301
  0
LINE
  8
_0-0_
  6
CONTINUOUS
 62
    7
 10
117.35616895013766
 20
67.134306901110278
 11
117.35616895013766
 21
141.13430308641301
  0
LINE
  8
_0-0_
  6
CONTINUOUS
 62
    7
 10
117.05626508050875
 20
67.434308999193775
 11
117.05626508050875
 21
78.718708985460864
  0
LINE
  8
_0-0_
  6
CONTINUOUS
 62
    7
 10
115.75611707025485
 20
67.434308999193775
 11
115.75611707025485
 21
139.53430461229192
  0
LINE
  8
_0-0_
  6
CONTINUOUS
 62
    7
 10
117.35616895013766
 20
124.03430461229192
 11
114.03790112787203
 21
124.03430461229192
  0
LINE
  8
_0-0_
  6
CONTINUOUS
 62
    7
 10
117.35616895013766
 20
129.34829997362004
 11
117.35616895013766
 21
122.32030391038762
  0
LINE
  8
_0-0_
  6
CONTINUOUS
 62
    7
 10
116.35611554437594
 20
122.32030391038762
 11
116.35611554437594
 21
129.34829997362004
  0
LINE
  8
_0-0_
  6
CONTINUOUS
 62
    7
 10
116.85613843255953
 20
121.98430537523137
 11
117.35616895013766
 21
122.32030391038762
  0
LINE
  8
_0-0_
  6
CONTINUOUS
 62
    7
 10
117.35616895013766
 20
122.46030330003606
 11
116.35611554437594
 21
122.46030330003606
  0
LINE
  8
_0-0_
  6
CONTINUOUS
 62
    7
 10
117.35616895013766
 20
122.32030391038762
 11
116.35611554437594
 21
122.32030391038762
  0
LINE
  8
_0-0_
  6
CONTINUOUS
 62
    7
 10
116.85613843255953
 20
121.98430537523137
 11
116.35611554437594
 21
122.32030391038762
  0
LINE
  8
_0-0_
  6
CONTINUOUS
 62
    7
 10
114.03790112787203
 20
124.03430461229192
 11
112.25435468011813
 21
124.03430461229192
  0
LINE
  8
_0-0_
  6
CONTINUOUS
 62
    7
 10
112.65619489007906
 20
125.43430613817083
 11
113.25618573480563
 21
125.43430613817083
  0
LINE
  8
_0-0_
  6
CONTINUOUS
 62
    7
 10
113.25618573480563
 20
126.23430918992864
 11
112.65619489007906
 21
126.23430918992864
  0
LINE
  8
_0-0_
  6
CONTINUOUS
 62
    7
 10
117.35616895013766
 20
84.234303467882739
 11
114.03790112787203
 21
84.234303467882739
  0
LINE
  8
_0-0_
  6
CONTINUOUS
 62
    7
 10
117.35616895013766
 20
80.63430117906438
 11
114.03790112787203
 21
80.63430117906438
  0
LINE
  8
_0-0_
  6
CONTINUOUS
 62
    7
 10
117.35616895013766
 20
78.92031192125188
 11
117.35616895013766
 21
85.948307984484302
  0
LINE
  8
_0-0_
  6
CONTINUOUS
 62
    7
 10
116.35611554437594
 20
85.948307984484302
 11
116.35611554437594
 21
78.92031192125188
  0
LINE
  8
_0-0_
  6
CONTINUOUS
 62
    7
 10
116.85613843255953
 20
86.284306519640552
 11
117.35616895013766
 21
85.948307984484302
  0
LINE
  8
_0-0_
  6
CONTINUOUS
 62
    7
 10
117.35616895013766
 20
85.808306687487232
 11
116.35611554437594
 21
85.808306687487232
  0
LINE
  8
_0-0_
  6
CONTINUOUS
 62
    7
 10
117.35616895013766
 20
85.948307984484302
 11
116.35611554437594
 21
85.948307984484302
  0
LINE
  8
_0-0_
  6
CONTINUOUS
 62
    7
 10
116.85613843255953
 20
86.284306519640552
 11
116.35611554437594
 21
85.948307984484302
  0
LINE
  8
_0-0_
  6
CONTINUOUS
 62
    7
 10
116.85613843255953
 20
78.5843000346552
 11
117.35616895013766
 21
78.92031192125188
  0
LINE
  8
_0-0_
  6
CONTINUOUS
 62
    7
 10
117.35616895013766
 20
78.92031192125188
 11
116.35611554437594
 21
78.92031192125188
  0
LINE
  8
_0-0_
  6
CONTINUOUS
 62
    7
 10
117.35616895013766
 20
79.060299866808521
 11
116.35611554437594
 21
79.060299866808521
  0
LINE
  8
_0-0_
  6
CONTINUOUS
 62
    7
 10
116.85613843255953
 20
78.5843000346552
 11
116.35611554437594
 21
78.92031192125188
  0
LINE
  8
_0-0_
  6
CONTINUOUS
 62
    7
 10
114.03790112787203
 20
84.234303467882739
 11
112.25435468011813
 21
84.234303467882739
  0
LINE
  8
_0-0_
  6
CONTINUOUS
 62
    7
 10
112.65619489007906
 20
82.834301942003833
 11
113.25618573480563
 21
82.834301942003833
  0
LINE
  8
_0-0_
  6
CONTINUOUS
 62
    7
 10
114.03790112787203
 20
80.63430117906438
 11
112.25435468011813
 21
80.63430117906438
  0
LINE
  8
_0-0_
  6
CONTINUOUS
 62
    7
 10
113.25618573480563
 20
82.034304612291919
 11
112.65619489007906
 21
82.034304612291919
  0
LINE
  8
_0-0_
  6
CONTINUOUS
 62
    7
 10
117.05626508050875
 20
86.149909012926685
 11
117.05626508050875
 21
122.11870097459661
  0
LINE
  8
ADD_LINE
  6
DOT
 62
    7
 10
110.35619183832125
 20
125.83430766404973
 11
117.86015149408297
 21
125.83430766404973
  0
LINE
  8
ADD_LINE
  6
DOT
 62
    7
 10
112.95609113031344
 20
128.43430613817083
 11
112.95609113031344
 21
123.23430918992864
  0
LINE
  8
ADD_LINE
  6
DOT
 62
    7
 10
116.85613843255953
 20
130.18429850877629
 11
116.85613843255953
 21
121.48430156053411
  0
LINE
  8
ADD_LINE
  6
DOT
 62
    7
 10
112.95609113031344
 20
79.834303849352466
 11
112.95609113031344
 21
85.034300797594653
  0
LINE
  8
ADD_LINE
  6
DOT
 62
    7
 10
110.35619183832125
 20
82.43430232347356
 11
117.86015149408297
 21
82.43430232347356
  0
LINE
  8
ADD_LINE
  6
DOT
 62
    7
 10
116.85613843255953
 20
78.084298127306567
 11
116.85613843255953
 21
86.784308426989185
  0
ARC
  8
_0-0_
  6
CONTINUOUS
 62
    7
 10
112.65619489007906
 20
125.83430766404973
 40
0.4000000059604644
 50
90
 51
270
  0
ARC
  8
_0-0_
  6
CONTINUOUS
 62
    7
 10
113.25618573480563
 20
125.83430766404973
 40
0.4000000059604644
 50
270
 51
90
  0
CIRCLE
  8
_0-0_
  6
CONTINUOUS
 62
    7
 10
112.95609113031344
 20
125.83430766404973
 40
2.0999999046325684
  0
ARC
  8
_0-0_
  6
CONTINUOUS
 62
    7
 10
112.95609113031344
 20
125.83430766404973
 40
1.9319999217987061
 50
111.30223083496094
 51
248.69775390625
  0
ARC
  8
_0-0_
  6
CONTINUOUS
 62
    7
 10
112.65619489007906
 20
82.43430232347356
 40
0.4000000059604644
 50
90
 51
270
  0
ARC
  8
_0-0_
  6
CONTINUOUS
 62
    7
 10
113.25618573480563
 20
82.43430232347356
 40
0.4000000059604644
 50
270
 51
90
  0
CIRCLE
  8
_0-0_
  6
CONTINUOUS
 62
    7
 10
112.95609113031344
 20
82.43430232347356
 40
2.0999999046325684
  0
ARC
  8
_0-0_
  6
CONTINUOUS
 62
    7
 10
112.95609113031344
 20
82.43430232347356
 40
1.9319999217987061
 50
111.30223083496094
 51
248.69775390625
  0
LINE
  8
ADD_LINE
  6
DOT
 62
    7
 10
51.421179020938439
 20
104.13430690111028
 11
60.489538395938439
 21
104.13430690111028
  0
ARC
  8
_0-0_
  6
CONTINUOUS
 62
    7
 10
57.256200993594689
 20
104.13430690111028
 40
1.6000000238418579
 50
270
 51
90
  0
CIRCLE
  8
_0-0_
  6
CONTINUOUS
 62
    7
 10
57.256200993594689
 20
104.13430690111028
 40
2
  0
LINE
  8
_0-0_
  6
CONTINUOUS
 62
    7
 10
160.65615292840914
 20
67.134306901110278
 11
162.25620099359469
 21
67.134306901110278
  0
LINE
  8
_0-0_
  6
CONTINUOUS
 62
    7
 10
160.65615292840914
 20
141.13430308641301
 11
162.15623303705172
 21
141.13430308641301
  0
LINE
  8
_0-0_
  6
CONTINUOUS
 62
    7
 10
160.35625668817477
 20
143.83430766404973
 11
160.35625668817477
 21
141.43429850877629
  0
LINE
  8
_0-0_
  6
CONTINUOUS
 62
    7
 10
160.65615292840914
 20
144.13430308641301
 11
190.05616208368258
 21
144.13430308641301
  0
LINE
  8
_0-0_
  6
CONTINUOUS
 62
    7
 10
160.65615292840914
 20
64.134309285296069
 11
190.05616208368258
 21
64.134309285296069
  0
LINE
  8
_0-0_
  6
CONTINUOUS
 62
    7
 10
160.35625668817477
 20
64.434311860216724
 11
160.35625668817477
 21
66.834311001909839
  0
LINE
  8
_0-0_
  6
CONTINUOUS
 62
    7
 10
160.45622464471774
 20
140.83430766404973
 11
160.45622464471774
 21
67.434308999193775
  0
LINE
  8
_0-0_
  6
CONTINUOUS
 62
    7
 10
157.75615903192477
 20
106.13429927171575
 11
157.75615903192477
 21
102.13427256883489
  0
LINE
  8
_0-0_
  6
CONTINUOUS
 62
    7
 10
158.05625363641695
 20
102.13427256883489
 11
158.05625363641695
 21
106.13429927171575
  0
LINE
  8
_0-0_
  6
CONTINUOUS
 62
    7
 10
158.05625363641695
 20
106.13429927171575
 11
157.75615903192477
 21
106.13429927171575
  0
LINE
  8
_0-0_
  6
CONTINUOUS
 62
    7
 10
157.75615903192477
 20
102.13427256883489
 11
158.05625363641695
 21
102.13427256883489
  0
LINE
  8
_0-0_
  6
CONTINUOUS
 62
    7
 10
158.05625363641695
 20
103.53430079759465
 11
160.45622464471774
 21
103.53430079759465
  0
LINE
  8
_0-0_
  6
CONTINUOUS
 62
    7
 10
158.05625363641695
 20
104.73430918992864
 11
160.45622464471774
 21
104.73430918992864
  0
LINE
  8
_0-0_
  6
CONTINUOUS
 62
    7
 10
160.45622464471774
 20
104.73430918992864
 11
160.45622464471774
 21
103.53430079759465
  0
LINE
  8
_0-0_
  6
LONG3
 62
    7
 10
160.45622464471774
 20
140.4593000346552
 11
160.45622464471774
 21
132.76660441697942
  0
LINE
  8
_0-0_
  6
LONG3
 62
    7
 10
160.45622464471774
 20
140.4593000346552
 11
160.45622464471774
 21
132.76660441697942
  0
LINE
  8
_0-0_
  6
CONTINUOUS
 62
    7
 10
190.35625668817477
 20
64.434311860216724
 11
190.35625668817477
 21
143.83430766404973
  0
LINE
  8
_0-0_
  6
CONTINUOUS
 62
    7
 10
162.25620099359469
 20
67.134306901110278
 11
162.25620099359469
 21
141.03430461229192
  0
LINE
  8
ADD_LINE
  6
DOT
 62
    7
 10
165.30148907953219
 20
104.13430690111028
 11
156.69395276361422
 21
104.13430690111028
  0
ARC
  8
_0-0_
  6
CONTINUOUS
 62
    7
 10
160.65615292840914
 20
64.434311860216724
 40
0.3000000119209289
 50
180
 51
270
  0
ARC
  8
_0-0_
  6
CONTINUOUS
 62
    7
 10
162.15623303705172
 20
141.03430461229192
 40
0.1000000014901161
 50
0
 51
90
  0
ARC
  8
_0-0_
  6
CONTINUOUS
 62
    7
 10
160.65615292840914
 20
66.834311001909839
 40
0.3000000119209289
 50
90
 51
180
  0
ARC
  8
_0-0_
  6
CONTINUOUS
 62
    7
 10
190.05616208368258
 20
64.434311860216724
 40
0.3000000119209289
 50
270
 51
0
  0
ARC
  8
_0-0_
  6
CONTINUOUS
 62
    7
 10
160.65615292840914
 20
141.43429850877629
 40
0.3000000119209289
 50
180
 51
270
  0
ARC
  8
_0-0_
  6
CONTINUOUS
 62
    7
 10
160.65615292840914
 20
143.83430766404973
 40
0.3000000119209289
 50
90
 51
180
  0
ARC
  8
_0-0_
  6
CONTINUOUS
 62
    7
 10
190.05616208368258
 20
143.83430766404973
 40
0.3000000119209289
 50
0
 51
90
  0
LINE
  8
_0-0_
  6
CONTINUOUS
 62
    7
 10
160.45622464471774
 20
140.83430766404973
 11
161.25622464471769
 21
140.83430766404973
  0
LINE
  8
_0-0_
  6
CONTINUOUS
 62
    7
 10
160.45622464471774
 20
67.434308999193775
 11
161.25622464471769
 21
67.434308999193775
  0
LINE
  8
_0-0_
  6
CONTINUOUS
 62
    7
 10
161.25622464471769
 20
140.83430766404973
 11
161.25622464471769
 21
67.434308999193775
  0
TEXT
  8
_0-1_
 62
    7
 10
34.365041935977501
 20
102.00930308641301
 40
4
 41
1
 50
90
  1
400
  0
TEXT
  8
_0-f_
 62
    7
 10
345.57295452642364
 20
249.39661635721473
 40
5
 41
1
 50
0
  1
NDX-310
  0
LINE
  8
_0-f_
  6
CONTINUOUS
 62
    7
 10
368.87630170859813
 20
267.47270208782908
 11
368.87630170859813
 21
267.84867808782906
  0
LINE
  8
_0-f_
  6
CONTINUOUS
 62
    7
 10
368.87630170859813
 20
267.84867808782906
 11
370.5563017085982
 21
267.84867808782906
  0
LINE
  8
_0-f_
  6
CONTINUOUS
 62
    7
 10
370.5563017085982
 20
267.84867808782906
 11
370.5563017085982
 21
268.16079008782901
  0
LINE
  8
_0-f_
  6
CONTINUOUS
 62
    7
 10
370.5563017085982
 20
268.16079008782901
 11
369.74913341029952
 21
268.16079008782901
  0
LINE
  8
_0-f_
  6
CONTINUOUS
 62
    7
 10
369.74913341029952
 20
268.16079008782901
 11
369.84026678543125
 21
268.52875368292803
  0
LINE
  8
_0-f_
  6
CONTINUOUS
 62
    7
 10
369.84026678543125
 20
268.52875368292803
 11
370.87630170859813
 21
268.52875808782903
  0
LINE
  8
_0-f_
  6
CONTINUOUS
 62
    7
 10
370.87630170859813
 20
268.52875808782903
 11
370.87630170859813
 21
268.92875808782901
  0
LINE
  8
_0-f_
  6
CONTINUOUS
 62
    7
 10
370.87630170859813
 20
268.92875808782901
 11
370.23944877607516
 21
268.92875808782901
  0
LINE
  8
_0-f_
  6
CONTINUOUS
 62
    7
 10
370.23944877607516
 20
268.92875808782901
 11
370.40430170859827
 21
269.2144300878291
  0
LINE
  8
_0-f_
  6
CONTINUOUS
 62
    7
 10
370.40430170859827
 20
269.2144300878291
 11
369.8738857085981
 21
269.52077408782907
  0
LINE
  8
_0-f_
  6
CONTINUOUS
 62
    7
 10
369.8738857085981
 20
269.52077408782907
 11
369.53149708184998
 21
268.92875808782901
  0
LINE
  8
_0-f_
  6
CONTINUOUS
 62
    7
 10
369.53149708184998
 20
268.92875808782901
 11
369.43630970859829
 21
268.92875808782901
  0
LINE
  8
_0-f_
  6
CONTINUOUS
 62
    7
 10
369.43630970859829
 20
268.92875808782901
 11
369.43630970859829
 21
269.52075008782907
  0
LINE
  8
_0-f_
  6
CONTINUOUS
 62
    7
 10
369.43630970859829
 20
269.52075008782907
 11
368.71629370859807
 21
269.52075008782907
  0
LINE
  8
_0-f_
  6
CONTINUOUS
 62
    7
 10
368.71629370859807
 20
269.52075008782907
 11
368.71629370859807
 21
268.92875808782901
  0
LINE
  8
_0-f_
  6
CONTINUOUS
 62
    7
 10
368.71629370859807
 20
268.92875808782901
 11
368.23628570859807
 21
268.92875808782901
  0
LINE
  8
_0-f_
  6
CONTINUOUS
 62
    7
 10
368.23628570859807
 20
268.92875808782901
 11
368.23628570859807
 21
269.52075008782907
  0
LINE
  8
_0-f_
  6
CONTINUOUS
 62
    7
 10
368.23628570859807
 20
269.52075008782907
 11
367.51629370859808
 21
269.52075008782907
  0
LINE
  8
_0-f_
  6
CONTINUOUS
 62
    7
 10
367.51629370859808
 20
269.52075008782907
 11
367.51629370859808
 21
268.92875808782901
  0
LINE
  8
_0-f_
  6
CONTINUOUS
 62
    7
 10
367.51629370859808
 20
268.92875808782901
 11
367.4210740097293
 21
268.92875808782901
  0
LINE
  8
_0-f_
  6
CONTINUOUS
 62
    7
 10
367.4210740097293
 20
268.92875808782901
 11
367.07947770859806
 21
269.5207180878291
  0
LINE
  8
_0-f_
  6
CONTINUOUS
 62
    7
 10
367.07947770859806
 20
269.5207180878291
 11
366.54910170859813
 21
269.21436608782903
  0
LINE
  8
_0-f_
  6
CONTINUOUS
 62
    7
 10
366.54910170859813
 20
269.21436608782903
 11
366.71395712062986
 21
268.92875808782901
  0
LINE
  8
_0-f_
  6
CONTINUOUS
 62
    7
 10
366.71395712062986
 20
268.92875808782901
 11
366.07630170859812
 21
268.92875808782901
  0
LINE
  8
_0-f_
  6
CONTINUOUS
 62
    7
 10
366.07630170859812
 20
268.92875808782901
 11
366.07630170859812
 21
268.52875808782903
  0
LINE
  8
_0-f_
  6
CONTINUOUS
 62
    7
 10
366.07630170859812
 20
268.52875808782903
 11
367.11308977895055
 21
268.52875808782903
  0
LINE
  8
_0-f_
  6
CONTINUOUS
 62
    7
 10
367.11308977895055
 20
268.52875808782903
 11
367.20346381412685
 21
268.16079008782901
  0
LINE
  8
_0-f_
  6
CONTINUOUS
 62
    7
 10
367.20346381412685
 20
268.16079008782901
 11
366.39629370859814
 21
268.16079008782901
  0
LINE
  8
_0-f_
  6
CONTINUOUS
 62
    7
 10
366.39629370859814
 20
268.16079008782901
 11
366.39629370859814
 21
267.84867808782906
  0
LINE
  8
_0-f_
  6
CONTINUOUS
 62
    7
 10
366.39629370859814
 20
267.84867808782906
 11
368.07627770859813
 21
267.84867808782906
  0
LINE
  8
_0-f_
  6
CONTINUOUS
 62
    7
 10
368.07627770859813
 20
267.84867808782906
 11
368.07627770859807
 21
267.47270208782908
  0
LINE
  8
_0-f_
  6
CONTINUOUS
 62
    7
 10
368.07627770859807
 20
267.47270208782908
 11
366.39629370859814
 21
267.47270208782908
  0
LINE
  8
_0-f_
  6
CONTINUOUS
 62
    7
 10
366.39629370859814
 20
267.47270208782908
 11
366.39629370859808
 21
267.152782087829
  0
LINE
  8
_0-f_
  6
CONTINUOUS
 62
    7
 10
366.39629370859808
 20
267.152782087829
 11
368.07627770859807
 21
267.152782087829
  0
LINE
  8
_0-f_
  6
CONTINUOUS
 62
    7
 10
368.07627770859807
 20
267.152782087829
 11
368.07627770859813
 21
266.77680608782907
  0
LINE
  8
_0-f_
  6
CONTINUOUS
 62
    7
 10
368.07627770859813
 20
266.77680608782907
 11
366.07630170859812
 21
266.77680608782907
  0
LINE
  8
_0-f_
  6
CONTINUOUS
 62
    7
 10
366.07630170859812
 20
266.77680608782907
 11
366.07630170859812
 21
266.37679008782902
  0
LINE
  8
_0-f_
  6
CONTINUOUS
 62
    7
 10
366.07630170859812
 20
266.37679008782902
 11
367.20597370859815
 21
266.37679008782902
  0
LINE
  8
_0-f_
  6
CONTINUOUS
 62
    7
 10
367.20597370859815
 20
266.37679008782902
 11
366.70989370859803
 21
265.88071008782907
  0
LINE
  8
_0-f_
  6
CONTINUOUS
 62
    7
 10
366.70989370859803
 20
265.88071008782907
 11
366.07630170859812
 21
265.88071008782907
  0
LINE
  8
_0-f_
  6
CONTINUOUS
 62
    7
 10
366.07630170859812
 20
265.88071008782907
 11
366.07630170859812
 21
265.52071008782906
  0
LINE
  8
_0-f_
  6
CONTINUOUS
 62
    7
 10
366.07630170859812
 20
265.52071008782906
 11
366.90781624235092
 21
265.52071008782906
  0
ARC
  8
_0-f_
  6
CONTINUOUS
 62
    7
 10
366.90781624235092
 20
265.92071008782904
 40
0.3999999999999995
 50
270
 51
314.98511379092588
  0
LINE
  8
_0-f_
  6
CONTINUOUS
 62
    7
 10
367.19058545896416
 20
265.63779389858576
 11
367.92996575017906
 21
266.37679008782902
  0
LINE
  8
_0-f_
  6
CONTINUOUS
 62
    7
 10
367.92996575017906
 20
266.37679008782902
 11
368.07627770859813
 21
266.37679008782902
  0
LINE
  8
_0-f_
  6
CONTINUOUS
 62
    7
 10
368.07627770859813
 20
266.37679008782902
 11
368.07627770859807
 21
265.52071008782906
  0
LINE
  8
_0-f_
  6
CONTINUOUS
 62
    7
 10
368.07627770859807
 20
265.52071008782906
 11
368.87630170859813
 21
265.52071008782906
  0
LINE
  8
_0-f_
  6
CONTINUOUS
 62
    7
 10
368.87630170859813
 20
265.52071008782906
 11
368.87630170859813
 21
266.37679008782902
  0
LINE
  8
_0-f_
  6
CONTINUOUS
 62
    7
 10
368.87630170859813
 20
266.37679008782902
 11
369.02341374585171
 21
266.37679008782902
  0
LINE
  8
_0-f_
  6
CONTINUOUS
 62
    7
 10
369.02341374585171
 20
266.37679008782902
 11
369.76192651586916
 21
265.63793325409233
  0
ARC
  8
_0-f_
  6
CONTINUOUS
 62
    7
 10
370.04483509174105
 20
265.92071008782904
 40
0.3999999999999968
 50
224.98665642058054
 51
270
  0
LINE
  8
_0-f_
  6
CONTINUOUS
 62
    7
 10
370.04483509174105
 20
265.52071008782906
 11
370.87630170859808
 21
265.52071008782906
  0
LINE
  8
_0-f_
  6
CONTINUOUS
 62
    7
 10
370.87630170859808
 20
265.52071008782906
 11
370.87630170859813
 21
265.88071008782907
  0
LINE
  8
_0-f_
  6
CONTINUOUS
 62
    7
 10
370.87630170859813
 20
265.88071008782907
 11
370.24356572021287
 21
265.88071008782907
  0
LINE
  8
_0-f_
  6
CONTINUOUS
 62
    7
 10
370.24356572021287
 20
265.88071008782907
 11
369.74741369698347
 21
266.37679008782902
  0
LINE
  8
_0-f_
  6
CONTINUOUS
 62
    7
 10
369.74741369698347
 20
266.37679008782902
 11
370.87630170859813
 21
266.37679008782902
  0
LINE
  8
_0-f_
  6
CONTINUOUS
 62
    7
 10
370.87630170859813
 20
266.37679008782902
 11
370.87630170859813
 21
266.77680608782907
  0
LINE
  8
_0-f_
  6
CONTINUOUS
 62
    7
 10
370.87630170859813
 20
266.77680608782907
 11
368.87630170859813
 21
266.77680608782907
  0
LINE
  8
_0-f_
  6
CONTINUOUS
 62
    7
 10
368.87630170859813
 20
266.77680608782907
 11
368.87630170859813
 21
267.152782087829
  0
LINE
  8
_0-f_
  6
CONTINUOUS
 62
    7
 10
368.87630170859813
 20
267.152782087829
 11
370.5563017085982
 21
267.152782087829
  0
LINE
  8
_0-f_
  6
CONTINUOUS
 62
    7
 10
370.5563017085982
 20
267.152782087829
 11
370.5563017085982
 21
267.47270208782908
  0
LINE
  8
_0-f_
  6
CONTINUOUS
 62
    7
 10
370.5563017085982
 20
267.47270208782908
 11
368.87630170859813
 21
267.47270208782908
  0
LINE
  8
_0-f_
  6
CONTINUOUS
 62
    7
 10
367.92028812529759
 20
268.16079008782901
 11
367.83468796716545
 21
268.52874515582528
  0
LINE
  8
_0-f_
  6
CONTINUOUS
 62
    7
 10
367.83468796716545
 20
268.52874515582528
 11
369.11870238777442
 21
268.5287506150587
  0
LINE
  8
_0-f_
  6
CONTINUOUS
 62
    7
 10
369.11870238777442
 20
268.5287506150587
 11
369.03311176071395
 21
268.16079008782901
  0
LINE
  8
_0-f_
  6
CONTINUOUS
 62
    7
 10
369.03311176071395
 20
268.16079008782901
 11
367.92028812529759
 21
268.16079008782901
  0
LINE
  8
_0-f_
  6
CONTINUOUS
 62
    7
 10
368.87630170859796
 20
267.48071008782904
 11
368.0762777085979
 21
267.48071008782904
  0
LINE
  8
_0-f_
  6
CONTINUOUS
 62
    7
 10
368.87630170859796
 20
267.56071008782908
 11
368.0762777085979
 21
267.56071008782908
  0
LINE
  8
_0-f_
  6
CONTINUOUS
 62
    7
 10
368.87630170859796
 20
267.64071008782901
 11
368.0762777085979
 21
267.64071008782901
  0
LINE
  8
_0-f_
  6
CONTINUOUS
 62
    7
 10
368.87630170859796
 20
267.72071008782905
 11
368.0762777085979
 21
267.72071008782905
  0
LINE
  8
_0-f_
  6
CONTINUOUS
 62
    7
 10
368.87630170859796
 20
267.80071008782903
 11
368.0762777085979
 21
267.80071008782903
  0
LINE
  8
_0-f_
  6
CONTINUOUS
 62
    7
 10
370.55630170859837
 20
267.88071008782902
 11
366.39629370859808
 21
267.88071008782902
  0
LINE
  8
_0-f_
  6
CONTINUOUS
 62
    7
 10
370.55630170859837
 20
267.96071008782906
 11
366.39629370859808
 21
267.96071008782906
  0
LINE
  8
_0-f_
  6
CONTINUOUS
 62
    7
 10
370.55630170859837
 20
268.0407100878291
 11
366.39629370859808
 21
268.0407100878291
  0
LINE
  8
_0-f_
  6
CONTINUOUS
 62
    7
 10
370.55630170859837
 20
268.12071008782908
 11
366.39629370859808
 21
268.12071008782908
  0
LINE
  8
_0-f_
  6
CONTINUOUS
 62
    7
 10
369.75902037842263
 20
268.20071008782907
 11
369.04239747909787
 21
268.20071008782907
  0
LINE
  8
_0-f_
  6
CONTINUOUS
 62
    7
 10
367.91100123510432
 20
268.20071008782907
 11
367.19365934340021
 21
268.20071008782907
  0
LINE
  8
_0-f_
  6
CONTINUOUS
 62
    7
 10
369.77883394179588
 20
268.28071008782911
 11
369.06100613317381
 21
268.28071008782911
  0
LINE
  8
_0-f_
  6
CONTINUOUS
 62
    7
 10
367.8923902327125
 20
268.28071008782911
 11
367.17401110547166
 21
268.28071008782911
  0
LINE
  8
_0-f_
  6
CONTINUOUS
 62
    7
 10
369.79864750516913
 20
268.36071008782903
 11
369.0796147872498
 21
268.36071008782903
  0
LINE
  8
_0-f_
  6
CONTINUOUS
 62
    7
 10
367.87377923032068
 20
268.36071008782903
 11
367.15436286754311
 21
268.36071008782903
  0
LINE
  8
_0-f_
  6
CONTINUOUS
 62
    7
 10
369.81846106854232
 20
268.44071008782907
 11
369.09822344132579
 21
268.44071008782907
  0
LINE
  8
_0-f_
  6
CONTINUOUS
 62
    7
 10
367.85516822792886
 20
268.44071008782907
 11
367.13471462961451
 21
268.44071008782907
  0
LINE
  8
_0-f_
  6
CONTINUOUS
 62
    7
 10
369.83827463191562
 20
268.52071008782906
 11
369.11683209540183
 21
268.52071008782906
  0
LINE
  8
_0-f_
  6
CONTINUOUS
 62
    7
 10
367.83655722553692
 20
268.52071008782906
 11
367.1150663916859
 21
268.52071008782906
  0
LINE
  8
_0-f_
  6
CONTINUOUS
 62
    7
 10
370.87630170859825
 20
268.60071008782904
 11
366.07630170859801
 21
268.60071008782904
  0
LINE
  8
_0-f_
  6
CONTINUOUS
 62
    7
 10
370.87630170859825
 20
268.68071008782908
 11
366.07630170859801
 21
268.68071008782908
  0
LINE
  8
_0-f_
  6
CONTINUOUS
 62
    7
 10
370.87630170859825
 20
268.76071008782901
 11
366.07630170859801
 21
268.76071008782901
  0
LINE
  8
_0-f_
  6
CONTINUOUS
 62
    7
 10
370.87630170859825
 20
268.84071008782905
 11
366.07630170859801
 21
268.84071008782905
  0
LINE
  8
_0-f_
  6
CONTINUOUS
 62
    7
 10
370.87630170859825
 20
268.92071008782909
 11
366.07630170859801
 21
268.92071008782909
  0
LINE
  8
_0-f_
  6
CONTINUOUS
 62
    7
 10
370.28097016494382
 20
269.00071008782902
 11
369.57311005594488
 21
269.00071008782902
  0
LINE
  8
_0-f_
  6
CONTINUOUS
 62
    7
 10
369.43630970859817
 20
269.00071008782902
 11
368.71629370859785
 21
269.00071008782902
  0
LINE
  8
_0-f_
  6
CONTINUOUS
 62
    7
 10
368.23628570859796
 20
269.00071008782902
 11
367.5162937085982
 21
269.00071008782902
  0
LINE
  8
_0-f_
  6
CONTINUOUS
 62
    7
 10
367.37955340519704
 20
269.00071008782902
 11
366.67242580285711
 21
269.00071008782902
  0
LINE
  8
_0-f_
  6
CONTINUOUS
 62
    7
 10
370.327135818567
 20
269.08071008782906
 11
369.61937753881676
 21
269.08071008782906
  0
LINE
  8
_0-f_
  6
CONTINUOUS
 62
    7
 10
369.43630970859817
 20
269.08071008782906
 11
368.71629370859785
 21
269.08071008782906
  0
LINE
  8
_0-f_
  6
CONTINUOUS
 62
    7
 10
368.23628570859796
 20
269.08071008782906
 11
367.5162937085982
 21
269.08071008782906
  0
LINE
  8
_0-f_
  6
CONTINUOUS
 62
    7
 10
367.33338862363996
 20
269.08071008782906
 11
366.62624910975842
 21
269.08071008782906
  0
LINE
  8
_0-f_
  6
CONTINUOUS
 62
    7
 10
370.37330147219018
 20
269.1607100878291
 11
369.66564502168859
 21
269.1607100878291
  0
LINE
  8
_0-f_
  6
CONTINUOUS
 62
    7
 10
369.43630970859817
 20
269.1607100878291
 11
368.71629370859785
 21
269.1607100878291
  0
LINE
  8
_0-f_
  6
CONTINUOUS
 62
    7
 10
368.23628570859796
 20
269.1607100878291
 11
367.5162937085982
 21
269.1607100878291
  0
LINE
  8
_0-f_
  6
CONTINUOUS
 62
    7
 10
367.28722384208294
 20
269.1607100878291
 11
366.58007241665968
 21
269.1607100878291
  0
LINE
  8
_0-f_
  6
CONTINUOUS
 62
    7
 10
370.35879948730411
 20
269.24071008782909
 11
369.71191250456047
 21
269.24071008782909
  0
LINE
  8
_0-f_
  6
CONTINUOUS
 62
    7
 10
369.43630970859817
 20
269.24071008782909
 11
368.71629370859785
 21
269.24071008782909
  0
LINE
  8
_0-f_
  6
CONTINUOUS
 62
    7
 10
368.23628570859796
 20
269.24071008782909
 11
367.5162937085982
 21
269.24071008782909
  0
LINE
  8
_0-f_
  6
CONTINUOUS
 62
    7
 10
367.24105906052591
 20
269.24071008782909
 11
366.59471011116773
 21
269.24071008782909
  0
LINE
  8
_0-f_
  6
CONTINUOUS
 62
    7
 10
370.22028435398988
 20
269.32071008782907
 11
369.7581799874323
 21
269.32071008782907
  0
LINE
  8
_0-f_
  6
CONTINUOUS
 62
    7
 10
369.43630970859817
 20
269.32071008782907
 11
368.71629370859785
 21
269.32071008782907
  0
LINE
  8
_0-f_
  6
CONTINUOUS
 62
    7
 10
368.23628570859796
 20
269.32071008782907
 11
367.5162937085982
 21
269.32071008782907
  0
LINE
  8
_0-f_
  6
CONTINUOUS
 62
    7
 10
367.19489427896883
 20
269.32071008782907
 11
366.73321118183145
 21
269.32071008782907
  0
LINE
  8
_0-f_
  6
CONTINUOUS
 62
    7
 10
370.08176922067571
 20
269.40071008782911
 11
369.80444747030413
 21
269.40071008782911
  0
LINE
  8
_0-f_
  6
CONTINUOUS
 62
    7
 10
369.43630970859817
 20
269.40071008782911
 11
368.71629370859785
 21
269.40071008782911
  0
LINE
  8
_0-f_
  6
CONTINUOUS
 62
    7
 10
368.23628570859796
 20
269.40071008782911
 11
367.5162937085982
 21
269.40071008782911
  0
LINE
  8
_0-f_
  6
CONTINUOUS
 62
    7
 10
367.14872949741186
 20
269.40071008782911
 11
366.87171225249529
 21
269.40071008782911
  0
LINE
  8
_0-f_
  6
CONTINUOUS
 62
    7
 10
369.94325408736148
 20
269.48071008782904
 11
369.85071495317595
 21
269.48071008782904
  0
LINE
  8
_0-f_
  6
CONTINUOUS
 62
    7
 10
369.43630970859817
 20
269.48071008782904
 11
368.71629370859785
 21
269.48071008782904
  0
LINE
  8
_0-f_
  6
CONTINUOUS
 62
    7
 10
368.23628570859796
 20
269.48071008782904
 11
367.5162937085982
 21
269.48071008782904
  0
LINE
  8
_0-f_
  6
CONTINUOUS
 62
    7
 10
367.10256471585484
 20
269.48071008782904
 11
367.01021332315906
 21
269.48071008782904
  0
LINE
  8
_0-f_
  6
CONTINUOUS
 62
    7
 10
370.5563017085982
 20
267.40071008782905
 11
366.3962937085978
 21
267.40071008782905
  0
LINE
  8
_0-f_
  6
CONTINUOUS
 62
    7
 10
370.5563017085982
 20
267.32071008782907
 11
366.3962937085978
 21
267.32071008782907
  0
LINE
  8
_0-f_
  6
CONTINUOUS
 62
    7
 10
370.5563017085982
 20
267.24071008782903
 11
366.3962937085978
 21
267.24071008782903
  0
LINE
  8
_0-f_
  6
CONTINUOUS
 62
    7
 10
370.5563017085982
 20
267.16071008782899
 11
366.3962937085978
 21
267.16071008782899
  0
LINE
  8
_0-f_
  6
CONTINUOUS
 62
    7
 10
368.87630170859796
 20
267.08071008782906
 11
368.07627770859801
 21
267.08071008782906
  0
LINE
  8
_0-f_
  6
CONTINUOUS
 62
    7
 10
368.87630170859796
 20
267.00071008782902
 11
368.07627770859801
 21
267.00071008782902
  0
LINE
  8
_0-f_
  6
CONTINUOUS
 62
    7
 10
368.87630170859796
 20
266.92071008782898
 11
368.07627770859801
 21
266.92071008782898
  0
LINE
  8
_0-f_
  6
CONTINUOUS
 62
    7
 10
368.87630170859796
 20
266.84071008782905
 11
368.07627770859807
 21
266.84071008782905
  0
LINE
  8
_0-f_
  6
CONTINUOUS
 62
    7
 10
370.87630170859802
 20
266.76071008782901
 11
366.07630170859829
 21
266.76071008782901
  0
LINE
  8
_0-f_
  6
CONTINUOUS
 62
    7
 10
370.87630170859802
 20
266.68071008782903
 11
366.07630170859829
 21
266.68071008782903
  0
LINE
  8
_0-f_
  6
CONTINUOUS
 62
    7
 10
370.87630170859802
 20
266.60071008782904
 11
366.07630170859829
 21
266.60071008782904
  0
LINE
  8
_0-f_
  6
CONTINUOUS
 62
    7
 10
370.87630170859802
 20
266.520710087829
 11
366.07630170859829
 21
266.520710087829
  0
LINE
  8
_0-f_
  6
CONTINUOUS
 62
    7
 10
370.87630170859802
 20
266.44071008782907
 11
366.07630170859829
 21
266.44071008782907
  0
LINE
  8
_0-f_
  6
CONTINUOUS
 62
    7
 10
369.76349603155359
 20
266.36071008782903
 11
369.03948625787245
 21
266.36071008782903
  0
LINE
  8
_0-f_
  6
CONTINUOUS
 62
    7
 10
368.87630170859802
 20
266.36071008782903
 11
368.07627770859807
 21
266.36071008782903
  0
LINE
  8
_0-f_
  6
CONTINUOUS
 62
    7
 10
367.91387739240986
 20
266.36071008782903
 11
367.18989370859811
 21
266.36071008782903
  0
LINE
  8
_0-f_
  6
CONTINUOUS
 62
    7
 10
369.84350764633012
 20
266.28071008782905
 11
369.11944900424459
 21
266.28071008782905
  0
LINE
  8
_0-f_
  6
CONTINUOUS
 62
    7
 10
368.87630170859802
 20
266.28071008782905
 11
368.07627770859807
 21
266.28071008782905
  0
LINE
  8
_0-f_
  6
CONTINUOUS
 62
    7
 10
367.83383581146779
 20
266.28071008782905
 11
367.10989370859807
 21
266.28071008782905
  0
LINE
  8
_0-f_
  6
CONTINUOUS
 62
    7
 10
369.92351926110666
 20
266.20071008782907
 11
369.19941175061672
 21
266.20071008782907
  0
LINE
  8
_0-f_
  6
CONTINUOUS
 62
    7
 10
368.87630170859802
 20
266.20071008782907
 11
368.07627770859807
 21
266.20071008782907
  0
LINE
  8
_0-f_
  6
CONTINUOUS
 62
    7
 10
367.75379423052573
 20
266.20071008782907
 11
367.02989370859802
 21
266.20071008782907
  0
LINE
  8
_0-f_
  6
CONTINUOUS
 62
    7
 10
370.00353087588326
 20
266.12071008782902
 11
369.27937449698879
 21
266.12071008782902
  0
LINE
  8
_0-f_
  6
CONTINUOUS
 62
    7
 10
368.87630170859802
 20
266.12071008782902
 11
368.07627770859807
 21
266.12071008782902
  0
LINE
  8
_0-f_
  6
CONTINUOUS
 62
    7
 10
367.67375264958366
 20
266.12071008782902
 11
366.94989370859804
 21
266.12071008782902
  0
LINE
  8
_0-f_
  6
CONTINUOUS
 62
    7
 10
370.08354249065974
 20
266.04071008782898
 11
369.35933724336098
 21
266.04071008782898
  0
LINE
  8
_0-f_
  6
CONTINUOUS
 62
    7
 10
368.87630170859802
 20
266.04071008782898
 11
368.07627770859807
 21
266.04071008782898
  0
LINE
  8
_0-f_
  6
CONTINUOUS
 62
    7
 10
367.5937110686416
 20
266.04071008782898
 11
366.86989370859806
 21
266.04071008782898
  0
LINE
  8
_0-f_
  6
CONTINUOUS
 62
    7
 10
370.16355410543633
 20
265.960710087829
 11
369.43929998973306
 21
265.960710087829
  0
LINE
  8
_0-f_
  6
CONTINUOUS
 62
    7
 10
368.87630170859802
 20
265.960710087829
 11
368.07627770859807
 21
265.960710087829
  0
LINE
  8
_0-f_
  6
CONTINUOUS
 62
    7
 10
367.51366948769953
 20
265.960710087829
 11
366.78989370859802
 21
265.960710087829
  0
LINE
  8
_0-f_
  6
CONTINUOUS
 62
    7
 10
370.87630170859813
 20
265.88071008782902
 11
370.24356572021287
 21
265.88071008782902
  0
LINE
  8
_0-f_
  6
CONTINUOUS
 62
    7
 10
366.70989370859797
 20
265.88071008782902
 11
366.07630170859812
 21
265.88071008782902
  0
LINE
  8
_0-f_
  6
CONTINUOUS
 62
    7
 10
370.87630170859813
 20
265.80071008782897
 11
369.59922548247732
 21
265.80071008782897
  0
LINE
  8
_0-f_
  6
CONTINUOUS
 62
    7
 10
368.87630170859802
 20
265.80071008782897
 11
368.07627770859807
 21
265.80071008782897
  0
LINE
  8
_0-f_
  6
CONTINUOUS
 62
    7
 10
367.35358632581546
 20
265.80071008782897
 11
366.07630170859812
 21
265.80071008782897
  0
LINE
  8
_0-f_
  6
CONTINUOUS
 62
    7
 10
370.87630170859813
 20
265.72071008782905
 11
369.67918822884945
 21
265.72071008782905
  0
LINE
  8
_0-f_
  6
CONTINUOUS
 62
    7
 10
368.87630170859802
 20
265.72071008782905
 11
368.07627770859807
 21
265.72071008782905
  0
LINE
  8
_0-f_
  6
CONTINUOUS
 62
    7
 10
367.27354474487339
 20
265.72071008782905
 11
366.07630170859812
 21
265.72071008782905
  0
LINE
  8
_0-f_
  6
CONTINUOUS
 62
    7
 10
370.87630170859813
 20
265.64071008782901
 11
369.75915097522159
 21
265.64071008782901
  0
LINE
  8
_0-f_
  6
CONTINUOUS
 62
    7
 10
368.87630170859802
 20
265.64071008782901
 11
368.07627770859807
 21
265.64071008782901
  0
LINE
  8
_0-f_
  6
CONTINUOUS
 62
    7
 10
367.19350316393127
 20
265.64071008782901
 11
366.07630170859812
 21
265.64071008782901
  0
LINE
  8
_0-f_
  6
CONTINUOUS
 62
    7
 10
370.87630170859813
 20
265.56071008782902
 11
369.87193823701193
 21
265.56071008782902
  0
LINE
  8
_0-f_
  6
CONTINUOUS
 62
    7
 10
368.87630170859802
 20
265.56071008782902
 11
368.07627770859801
 21
265.56071008782902
  0
LINE
  8
_0-f_
  6
CONTINUOUS
 62
    7
 10
367.08072689905828
 20
265.56071008782902
 11
366.07630170859812
 21
265.56071008782902
  0
LINE
  8
_0-f_
  6
CONTINUOUS
 62
    7
 10
367.42110170859826
 20
268.92871008782902
 11
367.07947770859806
 21
269.5207180878291
  0
LINE
  8
_0-f_
  6
CONTINUOUS
 62
    7
 10
366.39629370859814
 20
267.84867808782906
 11
368.07627770859813
 21
267.84867808782906
  0
LINE
  8
_0-f_
  6
CONTINUOUS
 62
    7
 10
366.39629370859814
 20
267.47270208782908
 11
368.07627770859813
 21
267.47270208782908
  0
LINE
  8
_0-f_
  6
CONTINUOUS
 62
    7
 10
366.39629370859814
 20
267.152782087829
 11
368.07627770859813
 21
267.152782087829
  0
LINE
  8
_0-f_
  6
CONTINUOUS
 62
    7
 10
366.07630170859812
 20
266.77680608782907
 11
368.07627770859813
 21
266.77680608782907
  0
LINE
  8
_0-f_
  6
CONTINUOUS
 62
    7
 10
367.19058545896416
 20
265.63779389858576
 11
367.92996575017906
 21
266.37679008782902
  0
LINE
  8
_0-f_
  6
CONTINUOUS
 62
    7
 10
366.07630170859812
 20
266.37679008782902
 11
367.20597370859809
 21
266.37679008782902
  0
LINE
  8
_0-f_
  6
CONTINUOUS
 62
    7
 10
366.07630170859812
 20
265.88071008782907
 11
366.70989370859803
 21
265.88071008782907
  0
LINE
  8
_0-f_
  6
CONTINUOUS
 62
    7
 10
366.07630170859812
 20
265.52071008782906
 11
366.90781624235092
 21
265.52071008782906
  0
LINE
  8
_0-f_
  6
CONTINUOUS
 62
    7
 10
366.07630170859812
 20
266.77680608782907
 11
366.07630170859812
 21
266.37679008782902
  0
LINE
  8
_0-f_
  6
CONTINUOUS
 62
    7
 10
366.07630170859812
 20
265.88071008782907
 11
366.07630170859812
 21
265.52071008782906
  0
LINE
  8
_0-f_
  6
CONTINUOUS
 62
    7
 10
366.70989370859803
 20
265.88071008782907
 11
367.20597370859809
 21
266.37679008782902
  0
ARC
  8
_0-f_
  6
CONTINUOUS
 62
    7
 10
366.90781624235092
 20
265.92071008782904
 40
0.4
 50
270.0000000000004
 51
314.98511379092611
  0
LINE
  8
_0-f_
  6
CONTINUOUS
 62
    7
 10
367.20589370859813
 20
266.37679008782902
 11
367.20597370859809
 21
266.37679008782902
  0
LINE
  8
_0-f_
  6
CONTINUOUS
 62
    7
 10
366.39629370859814
 20
267.47270208782908
 11
366.39629370859808
 21
267.152782087829
  0
LINE
  8
_0-f_
  6
CONTINUOUS
 62
    7
 10
366.07630170859812
 20
268.92875808782901
 11
366.71395712062986
 21
268.92875808782901
  0
LINE
  8
_0-f_
  6
CONTINUOUS
 62
    7
 10
366.07630170859812
 20
268.52875808782903
 11
367.11309370859817
 21
268.52875808782903
  0
LINE
  8
_0-f_
  6
CONTINUOUS
 62
    7
 10
366.07630170859812
 20
268.92875808782901
 11
366.07630170859812
 21
268.52875808782903
  0
LINE
  8
_0-f_
  6
CONTINUOUS
 62
    7
 10
366.71395712062986
 20
268.92875808782901
 11
366.54910170859813
 21
269.21436608782903
  0
LINE
  8
_0-f_
  6
CONTINUOUS
 62
    7
 10
366.39629370859814
 20
268.16079008782901
 11
367.20346970859816
 21
268.16079008782901
  0
LINE
  8
_0-f_
  6
CONTINUOUS
 62
    7
 10
366.39629370859814
 20
268.16079008782901
 11
366.39629370859814
 21
267.84867808782906
  0
LINE
  8
_0-f_
  6
CONTINUOUS
 62
    7
 10
367.11309370859817
 20
268.52874208782907
 11
367.20346970859816
 21
268.16076608782907
  0
LINE
  8
_0-f_
  6
CONTINUOUS
 62
    7
 10
366.54910170859813
 20
269.21436608782903
 11
367.07947770859806
 21
269.5207180878291
  0
LINE
  8
_0-f_
  6
CONTINUOUS
 62
    7
 10
368.87630170859813
 20
267.84867808782906
 11
368.87630170859813
 21
267.47270208782908
  0
LINE
  8
_0-f_
  6
CONTINUOUS
 62
    7
 10
368.07627770859813
 20
267.84867808782906
 11
368.07627770859807
 21
267.47270208782908
  0
LINE
  8
_0-f_
  6
CONTINUOUS
 62
    7
 10
368.87630170859813
 20
267.47270208782908
 11
370.5563017085982
 21
267.47270208782908
  0
LINE
  8
_0-f_
  6
CONTINUOUS
 62
    7
 10
369.76192651586916
 20
265.63793325409233
 11
369.02341374585171
 21
266.37679008782902
  0
LINE
  8
_0-f_
  6
CONTINUOUS
 62
    7
 10
368.87630170859813
 20
266.77680608782907
 11
370.87630170859813
 21
266.77680608782907
  0
LINE
  8
_0-f_
  6
CONTINUOUS
 62
    7
 10
368.87630170859813
 20
267.152782087829
 11
370.5563017085982
 21
267.152782087829
  0
LINE
  8
_0-f_
  6
CONTINUOUS
 62
    7
 10
368.07627770859813
 20
265.52071008782906
 11
368.87630170859813
 21
265.52071008782906
  0
LINE
  8
_0-f_
  6
CONTINUOUS
 62
    7
 10
367.92996575017906
 20
266.37679008782902
 11
368.07627770859813
 21
266.37679008782902
  0
LINE
  8
_0-f_
  6
CONTINUOUS
 62
    7
 10
368.07627770859813
 20
266.37679008782902
 11
368.07627770859813
 21
265.52071008782906
  0
LINE
  8
_0-f_
  6
CONTINUOUS
 62
    7
 10
368.07627770859807
 20
267.152782087829
 11
368.07627770859813
 21
266.77680608782907
  0
LINE
  8
_0-f_
  6
CONTINUOUS
 62
    7
 10
368.87630170859813
 20
266.37679008782902
 11
369.02341374585171
 21
266.37679008782902
  0
LINE
  8
_0-f_
  6
CONTINUOUS
 62
    7
 10
368.87630170859813
 20
266.37679008782902
 11
368.87630170859813
 21
265.52071008782906
  0
LINE
  8
_0-f_
  6
CONTINUOUS
 62
    7
 10
368.87630170859813
 20
267.152782087829
 11
368.87630170859813
 21
266.77680608782907
  0
LINE
  8
_0-f_
  6
CONTINUOUS
 62
    7
 10
370.04483509174105
 20
265.52071008782906
 11
370.87630170859813
 21
265.52071008782906
  0
LINE
  8
_0-f_
  6
CONTINUOUS
 62
    7
 10
370.24356572021287
 20
265.88071008782907
 11
370.87630170859813
 21
265.88071008782907
  0
LINE
  8
_0-f_
  6
CONTINUOUS
 62
    7
 10
369.74741369698347
 20
266.37679008782902
 11
370.87630170859813
 21
266.37679008782902
  0
LINE
  8
_0-f_
  6
CONTINUOUS
 62
    7
 10
370.24356572021287
 20
265.88071008782907
 11
369.74741369698347
 21
266.37679008782902
  0
ARC
  8
_0-f_
  6
CONTINUOUS
 62
    7
 10
370.04483509174105
 20
265.92071008782904
 40
0.4
 50
224.98665642058006
 51
269.9999999999996
  0
LINE
  8
_0-f_
  6
CONTINUOUS
 62
    7
 10
370.5563017085982
 20
267.47270208782902
 11
370.5563017085982
 21
267.152782087829
  0
LINE
  8
_0-f_
  6
CONTINUOUS
 62
    7
 10
370.87630170859813
 20
266.77680608782907
 11
370.87630170859813
 21
266.37679008782902
  0
LINE
  8
_0-f_
  6
CONTINUOUS
 62
    7
 10
370.87630170859813
 20
265.88071008782907
 11
370.87630170859808
 21
265.52071008782906
  0
LINE
  8
_0-f_
  6
CONTINUOUS
 62
    7
 10
368.87630170859813
 20
267.84867808782906
 11
370.5563017085982
 21
267.84867808782906
  0
LINE
  8
_0-f_
  6
CONTINUOUS
 62
    7
 10
369.43630970859829
 20
268.92875808782901
 11
369.53149708184998
 21
268.92875808782901
  0
LINE
  8
_0-f_
  6
CONTINUOUS
 62
    7
 10
368.23628570859807
 20
268.92875808782901
 11
368.71629370859807
 21
268.92875808782901
  0
LINE
  8
_0-f_
  6
CONTINUOUS
 62
    7
 10
367.83468796716545
 20
268.52874515582528
 11
369.11870238777442
 21
268.5287506150587
  0
LINE
  8
_0-f_
  6
CONTINUOUS
 62
    7
 10
367.92028812529759
 20
268.16079008782901
 11
369.03311176071395
 21
268.16079008782901
  0
LINE
  8
_0-f_
  6
CONTINUOUS
 62
    7
 10
368.23628570859807
 20
269.52075008782907
 11
368.23628570859807
 21
268.92875808782901
  0
LINE
  8
_0-f_
  6
CONTINUOUS
 62
    7
 10
367.51629370859808
 20
269.52075008782907
 11
367.51629370859808
 21
268.92875808782901
  0
LINE
  8
_0-f_
  6
CONTINUOUS
 62
    7
 10
367.83468796716545
 20
268.52874515582528
 11
367.92029370859825
 21
268.16076608782907
  0
LINE
  8
_0-f_
  6
CONTINUOUS
 62
    7
 10
367.4210740097293
 20
268.92875808782901
 11
367.51629370859808
 21
268.92875808782901
  0
LINE
  8
_0-f_
  6
CONTINUOUS
 62
    7
 10
367.51629370859808
 20
269.52075008782907
 11
368.23628570859807
 21
269.52075008782907
  0
LINE
  8
_0-f_
  6
CONTINUOUS
 62
    7
 10
369.43630970859829
 20
269.52075008782907
 11
369.43630970859829
 21
268.92875808782901
  0
LINE
  8
_0-f_
  6
CONTINUOUS
 62
    7
 10
368.71629370859807
 20
269.52075008782907
 11
368.71629370859807
 21
268.92875808782901
  0
LINE
  8
_0-f_
  6
CONTINUOUS
 62
    7
 10
369.11870970859815
 20
268.52878208782909
 11
369.03308570859826
 21
268.16067808782907
  0
LINE
  8
_0-f_
  6
CONTINUOUS
 62
    7
 10
368.71629370859807
 20
269.52075008782907
 11
369.43630970859829
 21
269.52075008782907
  0
LINE
  8
_0-f_
  6
CONTINUOUS
 62
    7
 10
369.84026678543125
 20
268.52875368292803
 11
370.87630170859808
 21
268.52875808782903
  0
LINE
  8
_0-f_
  6
CONTINUOUS
 62
    7
 10
370.23944877607516
 20
268.92875808782901
 11
370.87630170859813
 21
268.92875808782901
  0
LINE
  8
_0-f_
  6
CONTINUOUS
 62
    7
 10
370.23944877607516
 20
268.92875808782901
 11
370.40430170859827
 21
269.2144300878291
  0
LINE
  8
_0-f_
  6
CONTINUOUS
 62
    7
 10
369.53149708184998
 20
268.92875808782901
 11
369.87388570859821
 21
269.52077408782907
  0
LINE
  8
_0-f_
  6
CONTINUOUS
 62
    7
 10
369.74913341029952
 20
268.16079008782901
 11
370.5563017085982
 21
268.16079008782901
  0
LINE
  8
_0-f_
  6
CONTINUOUS
 62
    7
 10
369.84028570859812
 20
268.52883008782908
 11
369.74910170859812
 21
268.160662087829
  0
LINE
  8
_0-f_
  6
CONTINUOUS
 62
    7
 10
370.5563017085982
 20
268.16079008782901
 11
370.5563017085982
 21
267.84867808782906
  0
LINE
  8
_0-f_
  6
CONTINUOUS
 62
    7
 10
370.40430170859827
 20
269.2144300878291
 11
369.87388570859821
 21
269.52077408782907
  0
LINE
  8
_0-f_
  6
CONTINUOUS
 62
    7
 10
370.87630170859813
 20
268.92875808782901
 11
370.87630170859813
 21
268.52875808782903
  0
LINE
  8
_0-f_
  6
CONTINUOUS
 62
    7
 10
370.24356572021293
 20
265.88071008782902
 11
369.51926273610525
 21
265.88071008782902
  0
LINE
  8
_0-f_
  6
CONTINUOUS
 62
    7
 10
368.87630170859813
 20
265.88071008782902
 11
368.07627770859807
 21
265.88071008782902
  0
LINE
  8
_0-f_
  6
CONTINUOUS
 62
    7
 10
367.43362790675735
 20
265.88071008782902
 11
366.70989370859797
 21
265.88071008782902
  0
LINE
  8
_0-f_
  6
CONTINUOUS
 62
    7
 10
373.22823076391921
 20
268.40083008782904
 11
373.22823076391921
 21
268.84087008782905
  0
LINE
  8
_0-f_
  6
CONTINUOUS
 62
    7
 10
373.22823076391921
 20
268.84087008782905
 11
372.5602387639193
 21
268.84087008782905
  0
LINE
  8
_0-f_
  6
CONTINUOUS
 62
    7
 10
372.5602387639193
 20
268.84087008782905
 11
372.5602387639193
 21
269.52075008782907
  0
LINE
  8
_0-f_
  6
CONTINUOUS
 62
    7
 10
372.5602387639193
 20
269.52075008782907
 11
372.04022276391925
 21
269.52075008782907
  0
LINE
  8
_0-f_
  6
CONTINUOUS
 62
    7
 10
372.04022276391925
 20
269.52075008782907
 11
372.04022276391925
 21
268.84087008782905
  0
LINE
  8
_0-f_
  6
CONTINUOUS
 62
    7
 10
372.04022276391925
 20
268.84087008782905
 11
371.36424676391925
 21
268.84087008782905
  0
LINE
  8
_0-f_
  6
CONTINUOUS
 62
    7
 10
371.36424676391925
 20
268.84087008782905
 11
371.36424676391925
 21
268.40083008782904
  0
LINE
  8
_0-f_
  6
CONTINUOUS
 62
    7
 10
371.36424676391925
 20
268.40083008782904
 11
372.04358033952224
 21
268.40083008782904
  0
LINE
  8
_0-f_
  6
CONTINUOUS
 62
    7
 10
372.04358033952224
 20
268.40083008782904
 11
371.34251522929208
 21
266.71371808782908
  0
LINE
  8
_0-f_
  6
CONTINUOUS
 62
    7
 10
371.34251522929208
 20
266.71371808782908
 11
371.28423876391923
 21
266.71371808782908
  0
LINE
  8
_0-f_
  6
CONTINUOUS
 62
    7
 10
371.28423876391923
 20
266.71371808782908
 11
371.28423876391923
 21
266.23383008782906
  0
LINE
  8
_0-f_
  6
CONTINUOUS
 62
    7
 10
371.28423876391923
 20
266.23383008782906
 11
371.48243284615364
 21
266.23383008782906
  0
ARC
  8
_0-f_
  6
CONTINUOUS
 62
    7
 10
371.48243284615364
 20
266.43383008782905
 40
0.2
 50
270
 51
338.12209204226002
  0
LINE
  8
_0-f_
  6
CONTINUOUS
 62
    7
 10
371.66802884638048
 20
266.35930408766933
 11
372.04022276391925
 21
267.28619808782901
  0
LINE
  8
_0-f_
  6
CONTINUOUS
 62
    7
 10
372.04022276391925
 20
267.28619808782901
 11
372.04022276391925
 21
265.52071008782906
  0
LINE
  8
_0-f_
  6
CONTINUOUS
 62
    7
 10
372.04022276391925
 20
265.52071008782906
 11
372.5602387639193
 21
265.52071008782906
  0
LINE
  8
_0-f_
  6
CONTINUOUS
 62
    7
 10
372.5602387639193
 20
265.52071008782906
 11
372.5602387639193
 21
267.29151008782901
  0
LINE
  8
_0-f_
  6
CONTINUOUS
 62
    7
 10
372.5602387639193
 20
267.29151008782901
 11
372.83823473134464
 21
266.56256341873416
  0
ARC
  8
_0-f_
  6
CONTINUOUS
 62
    7
 10
373.02510651058412
 20
266.63383008782904
 40
0.200000000000003
 50
200.87518418962418
 51
270
  0
LINE
  8
_0-f_
  6
CONTINUOUS
 62
    7
 10
373.02510651058412
 20
266.43383008782905
 11
373.30823876391923
 21
266.43383008782905
  0
LINE
  8
_0-f_
  6
CONTINUOUS
 62
    7
 10
373.30823876391923
 20
266.43383008782905
 11
373.30823876391923
 21
266.91371808782907
  0
LINE
  8
_0-f_
  6
CONTINUOUS
 62
    7
 10
373.30823876391923
 20
266.91371808782907
 11
373.16398691355016
 21
266.91371808782907
  0
LINE
  8
_0-f_
  6
CONTINUOUS
 62
    7
 10
373.16398691355016
 20
266.91371808782907
 11
372.55696016834781
 21
268.40083008782904
  0
LINE
  8
_0-f_
  6
CONTINUOUS
 62
    7
 10
372.55696016834781
 20
268.40083008782904
 11
373.22823076391921
 21
268.40083008782904
  0
LINE
  8
_0-f_
  6
CONTINUOUS
 62
    7
 10
375.0642467639193
 20
267.72895008782905
 11
375.0642467639193
 21
268.40083008782904
  0
LINE
  8
_0-f_
  6
CONTINUOUS
 62
    7
 10
375.0642467639193
 20
268.40083008782904
 11
376.0842387639193
 21
268.40083008782904
  0
LINE
  8
_0-f_
  6
CONTINUOUS
 62
    7
 10
376.0842387639193
 20
268.40083008782904
 11
376.0842387639193
 21
268.84087008782905
  0
LINE
  8
_0-f_
  6
CONTINUOUS
 62
    7
 10
376.0842387639193
 20
268.84087008782905
 11
375.0642467639193
 21
268.84087008782905
  0
LINE
  8
_0-f_
  6
CONTINUOUS
 62
    7
 10
375.0642467639193
 20
268.84087008782905
 11
375.0642467639193
 21
269.52075008782907
  0
LINE
  8
_0-f_
  6
CONTINUOUS
 62
    7
 10
375.0642467639193
 20
269.52075008782907
 11
374.54424676391932
 21
269.52075008782907
  0
LINE
  8
_0-f_
  6
CONTINUOUS
 62
    7
 10
374.54424676391932
 20
269.52075008782907
 11
374.54424676391932
 21
268.84087008782905
  0
LINE
  8
_0-f_
  6
CONTINUOUS
 62
    7
 10
374.54424676391932
 20
268.84087008782905
 11
374.08023076391919
 21
268.84087008782905
  0
LINE
  8
_0-f_
  6
CONTINUOUS
 62
    7
 10
374.08023076391919
 20
268.84087008782905
 11
374.08023076391919
 21
269.52075008782907
  0
LINE
  8
_0-f_
  6
CONTINUOUS
 62
    7
 10
374.08023076391919
 20
269.52075008782907
 11
373.58023076391919
 21
269.52075008782907
  0
LINE
  8
_0-f_
  6
CONTINUOUS
 62
    7
 10
373.58023076391919
 20
269.52075008782907
 11
373.58023076391919
 21
268.40083008782904
  0
LINE
  8
_0-f_
  6
CONTINUOUS
 62
    7
 10
373.58023076391919
 20
268.40083008782904
 11
374.54424676391932
 21
268.40083008782904
  0
LINE
  8
_0-f_
  6
CONTINUOUS
 62
    7
 10
374.54424676391932
 20
268.40083008782904
 11
374.54424676391932
 21
267.72895008782905
  0
LINE
  8
_0-f_
  6
CONTINUOUS
 62
    7
 10
374.54424676391932
 20
267.72895008782905
 11
373.58023076391919
 21
267.72895008782905
  0
LINE
  8
_0-f_
  6
CONTINUOUS
 62
    7
 10
373.58023076391919
 20
267.72895008782905
 11
373.58023076391919
 21
267.28891008782909
  0
LINE
  8
_0-f_
  6
CONTINUOUS
 62
    7
 10
373.58023076391919
 20
267.28891008782909
 11
374.25301238740087
 21
267.28891008782909
  0
LINE
  8
_0-f_
  6
CONTINUOUS
 62
    7
 10
374.25301238740087
 20
267.28891008782909
 11
373.71974309957244
 21
265.99498516659537
  0
ARC
  8
_0-f_
  6
CONTINUOUS
 62
    7
 10
373.60879612314596
 20
266.0407100878291
 40
0.1199999999999984
 50
270
 51
337.60181985621841
  0
LINE
  8
_0-f_
  6
CONTINUOUS
 62
    7
 10
373.60879612314596
 20
265.92071008782904
 11
373.54825476391932
 21
265.92071008782904
  0
LINE
  8
_0-f_
  6
CONTINUOUS
 62
    7
 10
373.54825476391932
 20
265.92071008782904
 11
373.54825476391932
 21
265.52071008782906
  0
LINE
  8
_0-f_
  6
CONTINUOUS
 62
    7
 10
373.54825476391932
 20
265.52071008782906
 11
373.85592454736616
 21
265.52071008782906
  0
ARC
  8
_0-f_
  6
CONTINUOUS
 62
    7
 10
373.85592454736616
 20
265.76071008782901
 40
0.2399999999999966
 50
270
 51
337.13773188217931
  0
LINE
  8
_0-f_
  6
CONTINUOUS
 62
    7
 10
374.07707049816281
 20
265.66746595425343
 11
374.54424676391932
 21
266.77546208782906
  0
LINE
  8
_0-f_
  6
CONTINUOUS
 62
    7
 10
374.54424676391932
 20
266.77546208782906
 11
374.54424676391932
 21
265.52071008782906
  0
LINE
  8
_0-f_
  6
CONTINUOUS
 62
    7
 10
374.54424676391932
 20
265.52071008782906
 11
375.0642467639193
 21
265.52071008782906
  0
LINE
  8
_0-f_
  6
CONTINUOUS
 62
    7
 10
375.0642467639193
 20
265.52071008782906
 11
375.0642467639193
 21
266.77552608782906
  0
LINE
  8
_0-f_
  6
CONTINUOUS
 62
    7
 10
375.0642467639193
 20
266.77552608782906
 11
375.54014966382425
 21
265.6660967074406
  0
ARC
  8
_0-f_
  6
CONTINUOUS
 62
    7
 10
375.76071327880072
 20
265.76071008782901
 40
0.2399999999999991
 50
203.21748710460054
 51
270
  0
LINE
  8
_0-f_
  6
CONTINUOUS
 62
    7
 10
375.76071327880072
 20
265.52071008782906
 11
376.0842387639193
 21
265.52071008782906
  0
LINE
  8
_0-f_
  6
CONTINUOUS
 62
    7
 10
376.0842387639193
 20
265.52071008782906
 11
376.0842387639193
 21
265.92071008782904
  0
LINE
  8
_0-f_
  6
CONTINUOUS
 62
    7
 10
376.0842387639193
 20
265.92071008782904
 11
376.00758055046441
 21
265.92071008782904
  0
ARC
  8
_0-f_
  6
CONTINUOUS
 62
    7
 10
376.00758055046441
 20
266.0407100878291
 40
0.1200000000000003
 50
202.69813627100072
 51
270
  0
LINE
  8
_0-f_
  6
CONTINUOUS
 62
    7
 10
375.89687447344841
 20
265.99440496379589
 11
375.35542072541904
 21
267.28891008782909
  0
LINE
  8
_0-f_
  6
CONTINUOUS
 62
    7
 10
375.35542072541904
 20
267.28891008782909
 11
376.0842387639193
 21
267.28891008782909
  0
LINE
  8
_0-f_
  6
CONTINUOUS
 62
    7
 10
376.0842387639193
 20
267.28891008782909
 11
376.0842387639193
 21
267.72895008782905
  0
LINE
  8
_0-f_
  6
CONTINUOUS
 62
    7
 10
376.0842387639193
 20
267.72895008782905
 11
375.0642467639193
 21
267.72895008782905
  0
LINE
  8
_0-f_
  6
CONTINUOUS
 62
    7
 10
376.08423876391925
 20
267.48071008782904
 11
373.58023076391885
 21
267.48071008782904
  0
LINE
  8
_0-f_
  6
CONTINUOUS
 62
    7
 10
372.93254549668586
 20
267.48071008782904
 11
371.66123226231991
 21
267.48071008782904
  0
LINE
  8
_0-f_
  6
CONTINUOUS
 62
    7
 10
376.08423876391925
 20
267.56071008782908
 11
373.58023076391885
 21
267.56071008782908
  0
LINE
  8
_0-f_
  6
CONTINUOUS
 62
    7
 10
372.89989016230874
 20
267.56071008782908
 11
371.69447558512149
 21
267.56071008782908
  0
LINE
  8
_0-f_
  6
CONTINUOUS
 62
    7
 10
376.08423876391925
 20
267.64071008782901
 11
373.58023076391885
 21
267.64071008782901
  0
LINE
  8
_0-f_
  6
CONTINUOUS
 62
    7
 10
372.86723482793167
 20
267.64071008782901
 11
371.72771890792308
 21
267.64071008782901
  0
LINE
  8
_0-f_
  6
CONTINUOUS
 62
    7
 10
376.08423876391925
 20
267.72071008782905
 11
373.58023076391885
 21
267.72071008782905
  0
LINE
  8
_0-f_
  6
CONTINUOUS
 62
    7
 10
372.83457949355454
 20
267.72071008782905
 11
371.76096223072466
 21
267.72071008782905
  0
LINE
  8
_0-f_
  6
CONTINUOUS
 62
    7
 10
375.06424676391936
 20
267.80071008782903
 11
374.54424676391909
 21
267.80071008782903
  0
LINE
  8
_0-f_
  6
CONTINUOUS
 62
    7
 10
372.80192415917747
 20
267.80071008782903
 11
371.79420555352624
 21
267.80071008782903
  0
LINE
  8
_0-f_
  6
CONTINUOUS
 62
    7
 10
375.06424676391936
 20
267.88071008782902
 11
374.54424676391909
 21
267.88071008782902
  0
LINE
  8
_0-f_
  6
CONTINUOUS
 62
    7
 10
372.76926882480035
 20
267.88071008782902
 11
371.82744887632782
 21
267.88071008782902
  0
LINE
  8
_0-f_
  6
CONTINUOUS
 62
    7
 10
375.06424676391936
 20
267.96071008782906
 11
374.54424676391909
 21
267.96071008782906
  0
LINE
  8
_0-f_
  6
CONTINUOUS
 62
    7
 10
372.73661349042334
 20
267.96071008782906
 11
371.8606921991294
 21
267.96071008782906
  0
LINE
  8
_0-f_
  6
CONTINUOUS
 62
    7
 10
375.06424676391936
 20
268.0407100878291
 11
374.54424676391909
 21
268.0407100878291
  0
LINE
  8
_0-f_
  6
CONTINUOUS
 62
    7
 10
372.70395815604616
 20
268.0407100878291
 11
371.89393552193098
 21
268.0407100878291
  0
LINE
  8
_0-f_
  6
CONTINUOUS
 62
    7
 10
375.06424676391936
 20
268.12071008782908
 11
374.54424676391909
 21
268.12071008782908
  0
LINE
  8
_0-f_
  6
CONTINUOUS
 62
    7
 10
372.67130282166909
 20
268.12071008782908
 11
371.92717884473257
 21
268.12071008782908
  0
LINE
  8
_0-f_
  6
CONTINUOUS
 62
    7
 10
375.06424676391936
 20
268.20071008782907
 11
374.54424676391909
 21
268.20071008782907
  0
LINE
  8
_0-f_
  6
CONTINUOUS
 62
    7
 10
372.63864748729202
 20
268.20071008782907
 11
371.96042216753415
 21
268.20071008782907
  0
LINE
  8
_0-f_
  6
CONTINUOUS
 62
    7
 10
375.06424676391936
 20
268.28071008782911
 11
374.54424676391909
 21
268.28071008782911
  0
LINE
  8
_0-f_
  6
CONTINUOUS
 62
    7
 10
372.60599215291495
 20
268.28071008782911
 11
371.99366549033573
 21
268.28071008782911
  0
LINE
  8
_0-f_
  6
CONTINUOUS
 62
    7
 10
375.06424676391936
 20
268.36071008782903
 11
374.54424676391909
 21
268.36071008782903
  0
LINE
  8
_0-f_
  6
CONTINUOUS
 62
    7
 10
372.57333681853788
 20
268.36071008782903
 11
372.02690881313725
 21
268.36071008782903
  0
LINE
  8
_0-f_
  6
CONTINUOUS
 62
    7
 10
376.08423876391942
 20
268.44071008782907
 11
373.58023076391919
 21
268.44071008782907
  0
LINE
  8
_0-f_
  6
CONTINUOUS
 62
    7
 10
373.22823076391887
 20
268.44071008782907
 11
371.36424676391943
 21
268.44071008782907
  0
LINE
  8
_0-f_
  6
CONTINUOUS
 62
    7
 10
376.08423876391942
 20
268.52071008782906
 11
373.58023076391919
 21
268.52071008782906
  0
LINE
  8
_0-f_
  6
CONTINUOUS
 62
    7
 10
373.22823076391887
 20
268.52071008782906
 11
371.36424676391943
 21
268.52071008782906
  0
LINE
  8
_0-f_
  6
CONTINUOUS
 62
    7
 10
376.08423876391942
 20
268.60071008782904
 11
373.58023076391919
 21
268.60071008782904
  0
LINE
  8
_0-f_
  6
CONTINUOUS
 62
    7
 10
373.22823076391887
 20
268.60071008782904
 11
371.36424676391943
 21
268.60071008782904
  0
LINE
  8
_0-f_
  6
CONTINUOUS
 62
    7
 10
376.08423876391942
 20
268.68071008782908
 11
373.58023076391919
 21
268.68071008782908
  0
LINE
  8
_0-f_
  6
CONTINUOUS
 62
    7
 10
373.22823076391887
 20
268.68071008782908
 11
371.36424676391943
 21
268.68071008782908
  0
LINE
  8
_0-f_
  6
CONTINUOUS
 62
    7
 10
376.08423876391942
 20
268.76071008782901
 11
373.58023076391919
 21
268.76071008782901
  0
LINE
  8
_0-f_
  6
CONTINUOUS
 62
    7
 10
373.22823076391887
 20
268.76071008782901
 11
371.36424676391943
 21
268.76071008782901
  0
LINE
  8
_0-f_
  6
CONTINUOUS
 62
    7
 10
376.08423876391942
 20
268.84071008782905
 11
373.58023076391919
 21
268.84071008782905
  0
LINE
  8
_0-f_
  6
CONTINUOUS
 62
    7
 10
373.22823076391887
 20
268.84071008782905
 11
371.36424676391943
 21
268.84071008782905
  0
LINE
  8
_0-f_
  6
CONTINUOUS
 62
    7
 10
375.06424676391896
 20
268.92071008782904
 11
374.54424676391909
 21
268.92071008782909
  0
LINE
  8
_0-f_
  6
CONTINUOUS
 62
    7
 10
374.08023076391908
 20
268.92071008782909
 11
373.58023076391919
 21
268.92071008782909
  0
LINE
  8
_0-f_
  6
CONTINUOUS
 62
    7
 10
372.56023876391941
 20
268.92071008782909
 11
372.0402227639193
 21
268.92071008782909
  0
LINE
  8
_0-f_
  6
CONTINUOUS
 62
    7
 10
375.06424676391896
 20
269.00071008782902
 11
374.54424676391909
 21
269.00071008782902
  0
LINE
  8
_0-f_
  6
CONTINUOUS
 62
    7
 10
374.08023076391908
 20
269.00071008782902
 11
373.58023076391919
 21
269.00071008782902
  0
LINE
  8
_0-f_
  6
CONTINUOUS
 62
    7
 10
372.56023876391941
 20
269.00071008782902
 11
372.0402227639193
 21
269.00071008782902
  0
LINE
  8
_0-f_
  6
CONTINUOUS
 62
    7
 10
375.06424676391896
 20
269.08071008782906
 11
374.54424676391909
 21
269.08071008782906
  0
LINE
  8
_0-f_
  6
CONTINUOUS
 62
    7
 10
374.08023076391908
 20
269.08071008782906
 11
373.58023076391919
 21
269.08071008782906
  0
LINE
  8
_0-f_
  6
CONTINUOUS
 62
    7
 10
372.56023876391941
 20
269.08071008782906
 11
372.0402227639193
 21
269.08071008782906
  0
LINE
  8
_0-f_
  6
CONTINUOUS
 62
    7
 10
375.06424676391896
 20
269.1607100878291
 11
374.54424676391909
 21
269.1607100878291
  0
LINE
  8
_0-f_
  6
CONTINUOUS
 62
    7
 10
374.08023076391908
 20
269.1607100878291
 11
373.58023076391919
 21
269.1607100878291
  0
LINE
  8
_0-f_
  6
CONTINUOUS
 62
    7
 10
372.56023876391941
 20
269.1607100878291
 11
372.0402227639193
 21
269.1607100878291
  0
LINE
  8
_0-f_
  6
CONTINUOUS
 62
    7
 10
375.06424676391896
 20
269.24071008782909
 11
374.54424676391909
 21
269.24071008782909
  0
LINE
  8
_0-f_
  6
CONTINUOUS
 62
    7
 10
374.08023076391908
 20
269.24071008782909
 11
373.58023076391919
 21
269.24071008782909
  0
LINE
  8
_0-f_
  6
CONTINUOUS
 62
    7
 10
372.56023876391941
 20
269.24071008782909
 11
372.0402227639193
 21
269.24071008782909
  0
LINE
  8
_0-f_
  6
CONTINUOUS
 62
    7
 10
375.06424676391896
 20
269.32071008782907
 11
374.54424676391909
 21
269.32071008782907
  0
LINE
  8
_0-f_
  6
CONTINUOUS
 62
    7
 10
374.08023076391908
 20
269.32071008782907
 11
373.58023076391919
 21
269.32071008782907
  0
LINE
  8
_0-f_
  6
CONTINUOUS
 62
    7
 10
372.56023876391941
 20
269.32071008782907
 11
372.0402227639193
 21
269.32071008782907
  0
LINE
  8
_0-f_
  6
CONTINUOUS
 62
    7
 10
375.06424676391896
 20
269.40071008782911
 11
374.54424676391909
 21
269.40071008782911
  0
LINE
  8
_0-f_
  6
CONTINUOUS
 62
    7
 10
374.08023076391908
 20
269.40071008782911
 11
373.58023076391919
 21
269.40071008782911
  0
LINE
  8
_0-f_
  6
CONTINUOUS
 62
    7
 10
372.56023876391941
 20
269.40071008782911
 11
372.0402227639193
 21
269.40071008782911
  0
LINE
  8
_0-f_
  6
CONTINUOUS
 62
    7
 10
375.06424676391896
 20
269.48071008782904
 11
374.54424676391909
 21
269.48071008782904
  0
LINE
  8
_0-f_
  6
CONTINUOUS
 62
    7
 10
374.08023076391908
 20
269.48071008782904
 11
373.58023076391919
 21
269.48071008782904
  0
LINE
  8
_0-f_
  6
CONTINUOUS
 62
    7
 10
372.56023876391941
 20
269.48071008782904
 11
372.0402227639193
 21
269.48071008782904
  0
LINE
  8
_0-f_
  6
CONTINUOUS
 62
    7
 10
376.08423876391925
 20
267.40071008782905
 11
373.58023076391885
 21
267.40071008782905
  0
LINE
  8
_0-f_
  6
CONTINUOUS
 62
    7
 10
372.96520083106293
 20
267.40071008782905
 11
371.62798893951833
 21
267.40071008782905
  0
LINE
  8
_0-f_
  6
CONTINUOUS
 62
    7
 10
376.08423876391925
 20
267.32071008782907
 11
373.58023076391885
 21
267.32071008782907
  0
LINE
  8
_0-f_
  6
CONTINUOUS
 62
    7
 10
372.99785616544
 20
267.32071008782907
 11
371.59474561671675
 21
267.32071008782907
  0
LINE
  8
_0-f_
  6
CONTINUOUS
 62
    7
 10
375.37558137999702
 20
267.24071008782903
 11
374.23314757202292
 21
267.24071008782903
  0
LINE
  8
_0-f_
  6
CONTINUOUS
 62
    7
 10
373.03051149981707
 20
267.24071008782903
 11
372.57961219100781
 21
267.24071008782903
  0
LINE
  8
_0-f_
  6
CONTINUOUS
 62
    7
 10
372.56023876391936
 20
267.24071008782903
 11
372.04022276391925
 21
267.24071008782903
  0
LINE
  8
_0-f_
  6
CONTINUOUS
 62
    7
 10
372.02195707559019
 20
267.24071008782903
 11
371.56150229391517
 21
267.24071008782903
  0
LINE
  8
_0-f_
  6
CONTINUOUS
 62
    7
 10
375.40904304734624
 20
267.16071008782899
 11
374.2001769240926
 21
267.16071008782899
  0
LINE
  8
_0-f_
  6
CONTINUOUS
 62
    7
 10
373.06316683419425
 20
267.16071008782899
 11
372.61012152500564
 21
267.16071008782899
  0
LINE
  8
_0-f_
  6
CONTINUOUS
 62
    7
 10
372.56023876391936
 20
267.16071008782899
 11
372.04022276391925
 21
267.16071008782899
  0
LINE
  8
_0-f_
  6
CONTINUOUS
 62
    7
 10
371.98983310737162
 20
267.16071008782899
 11
371.52825897111359
 21
267.16071008782899
  0
LINE
  8
_0-f_
  6
CONTINUOUS
 62
    7
 10
375.44250471469559
 20
267.08071008782906
 11
374.16720627616223
 21
267.08071008782906
  0
LINE
  8
_0-f_
  6
CONTINUOUS
 62
    7
 10
373.09582216857132
 20
267.08071008782906
 11
372.64063085900352
 21
267.08071008782906
  0
LINE
  8
_0-f_
  6
CONTINUOUS
 62
    7
 10
372.56023876391936
 20
267.08071008782906
 11
372.04022276391925
 21
267.08071008782906
  0
LINE
  8
_0-f_
  6
CONTINUOUS
 62
    7
 10
371.95770913915305
 20
267.08071008782906
 11
371.49501564831201
 21
267.08071008782906
  0
LINE
  8
_0-f_
  6
CONTINUOUS
 62
    7
 10
375.47596638204482
 20
267.00071008782902
 11
374.13423562823186
 21
267.00071008782902
  0
LINE
  8
_0-f_
  6
CONTINUOUS
 62
    7
 10
373.12847750294839
 20
267.00071008782902
 11
372.67114019300135
 21
267.00071008782902
  0
LINE
  8
_0-f_
  6
CONTINUOUS
 62
    7
 10
372.56023876391936
 20
267.00071008782902
 11
372.04022276391925
 21
267.00071008782902
  0
LINE
  8
_0-f_
  6
CONTINUOUS
 62
    7
 10
371.92558517093448
 20
267.00071008782902
 11
371.46177232551048
 21
267.00071008782902
  0
LINE
  8
_0-f_
  6
CONTINUOUS
 62
    7
 10
375.50942804939416
 20
266.92071008782909
 11
374.10126498030161
 21
266.92071008782898
  0
LINE
  8
_0-f_
  6
CONTINUOUS
 62
    7
 10
373.16113283732545
 20
266.92071008782898
 11
372.70164952699918
 21
266.92071008782898
  0
LINE
  8
_0-f_
  6
CONTINUOUS
 62
    7
 10
372.56023876391936
 20
266.92071008782898
 11
372.04022276391925
 21
266.92071008782898
  0
LINE
  8
_0-f_
  6
CONTINUOUS
 62
    7
 10
371.89346120271591
 20
266.92071008782909
 11
371.4285290027089
 21
266.92071008782898
  0
LINE
  8
_0-f_
  6
CONTINUOUS
 62
    7
 10
375.54288971674339
 20
266.84071008782905
 11
374.06829433237124
 21
266.84071008782905
  0
LINE
  8
_0-f_
  6
CONTINUOUS
 62
    7
 10
373.30823876391923
 20
266.84071008782905
 11
372.732158860997
 21
266.84071008782905
  0
LINE
  8
_0-f_
  6
CONTINUOUS
 62
    7
 10
372.56023876391936
 20
266.84071008782905
 11
372.04022276391925
 21
266.84071008782905
  0
LINE
  8
_0-f_
  6
CONTINUOUS
 62
    7
 10
371.86133723449734
 20
266.84071008782905
 11
371.39528567990726
 21
266.84071008782905
  0
LINE
  8
_0-f_
  6
CONTINUOUS
 62
    7
 10
375.57635138409273
 20
266.76071008782901
 11
375.07060226296193
 21
266.76071008782901
  0
LINE
  8
_0-f_
  6
CONTINUOUS
 62
    7
 10
375.06424676391919
 20
266.76071008782901
 11
374.54424676391943
 21
266.76071008782901
  0
LINE
  8
_0-f_
  6
CONTINUOUS
 62
    7
 10
374.5380267203077
 20
266.76071008782901
 11
374.03532368444087
 21
266.76071008782901
  0
LINE
  8
_0-f_
  6
CONTINUOUS
 62
    7
 10
373.30823876391923
 20
266.76071008782901
 11
372.76266819499483
 21
266.76071008782901
  0
LINE
  8
_0-f_
  6
CONTINUOUS
 62
    7
 10
372.56023876391936
 20
266.76071008782901
 11
372.04022276391925
 21
266.76071008782901
  0
LINE
  8
_0-f_
  6
CONTINUOUS
 62
    7
 10
371.82921326627883
 20
266.76071008782901
 11
371.36204235710574
 21
266.76071008782901
  0
LINE
  8
_0-f_
  6
CONTINUOUS
 62
    7
 10
375.60981305144196
 20
266.68071008782903
 11
375.10491921243647
 21
266.68071008782903
  0
LINE
  8
_0-f_
  6
CONTINUOUS
 62
    7
 10
375.06424676391919
 20
266.68071008782903
 11
374.54424676391943
 21
266.68071008782903
  0
LINE
  8
_0-f_
  6
CONTINUOUS
 62
    7
 10
374.50429546427893
 20
266.68071008782903
 11
374.0023530365105
 21
266.68071008782903
  0
LINE
  8
_0-f_
  6
CONTINUOUS
 62
    7
 10
373.30823876391923
 20
266.68071008782903
 11
372.79317752899271
 21
266.68071008782903
  0
LINE
  8
_0-f_
  6
CONTINUOUS
 62
    7
 10
372.56023876391936
 20
266.68071008782903
 11
372.04022276391925
 21
266.68071008782903
  0
LINE
  8
_0-f_
  6
CONTINUOUS
 62
    7
 10
371.7970892980602
 20
266.68071008782903
 11
371.28423876391935
 21
266.68071008782903
  0
LINE
  8
_0-f_
  6
CONTINUOUS
 62
    7
 10
375.6432747187913
 20
266.60071008782904
 11
375.13923616191107
 21
266.60071008782904
  0
LINE
  8
_0-f_
  6
CONTINUOUS
 62
    7
 10
375.06424676391919
 20
266.60071008782904
 11
374.54424676391943
 21
266.60071008782904
  0
LINE
  8
_0-f_
  6
CONTINUOUS
 62
    7
 10
374.47056420825015
 20
266.60071008782904
 11
373.96938238858019
 21
266.60071008782904
  0
LINE
  8
_0-f_
  6
CONTINUOUS
 62
    7
 10
373.30823876391923
 20
266.60071008782904
 11
372.8236868629906
 21
266.60071008782904
  0
LINE
  8
_0-f_
  6
CONTINUOUS
 62
    7
 10
372.56023876391936
 20
266.60071008782904
 11
372.04022276391925
 21
266.60071008782904
  0
LINE
  8
_0-f_
  6
CONTINUOUS
 62
    7
 10
371.76496532984174
 20
266.60071008782904
 11
371.28423876391935
 21
266.60071008782904
  0
LINE
  8
_0-f_
  6
CONTINUOUS
 62
    7
 10
375.67673638614059
 20
266.520710087829
 11
375.17355311138567
 21
266.520710087829
  0
LINE
  8
_0-f_
  6
CONTINUOUS
 62
    7
 10
375.06424676391919
 20
266.520710087829
 11
374.54424676391943
 21
266.520710087829
  0
LINE
  8
_0-f_
  6
CONTINUOUS
 62
    7
 10
374.43683295222144
 20
266.520710087829
 11
373.93641174064987
 21
266.520710087829
  0
LINE
  8
_0-f_
  6
CONTINUOUS
 62
    7
 10
373.30823876391923
 20
266.520710087829
 11
372.86091802053852
 21
266.520710087829
  0
LINE
  8
_0-f_
  6
CONTINUOUS
 62
    7
 10
372.56023876391936
 20
266.520710087829
 11
372.04022276391925
 21
266.520710087829
  0
LINE
  8
_0-f_
  6
CONTINUOUS
 62
    7
 10
371.73284136162317
 20
266.520710087829
 11
371.28423876391935
 21
266.520710087829
  0
LINE
  8
_0-f_
  6
CONTINUOUS
 62
    7
 10
375.71019805348988
 20
266.44071008782907
 11
375.20787006086022
 21
266.44071008782907
  0
LINE
  8
_0-f_
  6
CONTINUOUS
 62
    7
 10
375.06424676391919
 20
266.44071008782907
 11
374.54424676391943
 21
266.44071008782907
  0
LINE
  8
_0-f_
  6
CONTINUOUS
 62
    7
 10
374.40310169619266
 20
266.44071008782907
 11
373.90344109271956
 21
266.44071008782907
  0
LINE
  8
_0-f_
  6
CONTINUOUS
 62
    7
 10
373.30823876391923
 20
266.44071008782907
 11
372.97318051678673
 21
266.44071008782907
  0
LINE
  8
_0-f_
  6
CONTINUOUS
 62
    7
 10
372.56023876391936
 20
266.44071008782907
 11
372.04022276391925
 21
266.44071008782907
  0
LINE
  8
_0-f_
  6
CONTINUOUS
 62
    7
 10
371.7007173934046
 20
266.44071008782907
 11
371.28423876391935
 21
266.44071008782907
  0
LINE
  8
_0-f_
  6
CONTINUOUS
 62
    7
 10
375.74365972083916
 20
266.36071008782903
 11
375.24218701033476
 21
266.36071008782903
  0
LINE
  8
_0-f_
  6
CONTINUOUS
 62
    7
 10
375.06424676391919
 20
266.36071008782903
 11
374.54424676391943
 21
266.36071008782903
  0
LINE
  8
_0-f_
  6
CONTINUOUS
 62
    7
 10
374.36937044016389
 20
266.36071008782903
 11
373.87047044478925
 21
266.36071008782903
  0
LINE
  8
_0-f_
  6
CONTINUOUS
 62
    7
 10
372.56023876391936
 20
266.36071008782903
 11
372.04022276391925
 21
266.36071008782903
  0
LINE
  8
_0-f_
  6
CONTINUOUS
 62
    7
 10
371.66859342518603
 20
266.36071008782903
 11
371.28423876391935
 21
266.36071008782903
  0
LINE
  8
_0-f_
  6
CONTINUOUS
 62
    7
 10
375.77712138818845
 20
266.28071008782905
 11
375.27650395980936
 21
266.28071008782905
  0
LINE
  8
_0-f_
  6
CONTINUOUS
 62
    7
 10
375.06424676391919
 20
266.28071008782905
 11
374.54424676391943
 21
266.28071008782905
  0
LINE
  8
_0-f_
  6
CONTINUOUS
 62
    7
 10
374.33563918413512
 20
266.28071008782905
 11
373.83749979685888
 21
266.28071008782905
  0
LINE
  8
_0-f_
  6
CONTINUOUS
 62
    7
 10
372.56023876391936
 20
266.28071008782905
 11
372.04022276391925
 21
266.28071008782905
  0
LINE
  8
_0-f_
  6
CONTINUOUS
 62
    7
 10
371.61015618977137
 20
266.28071008782905
 11
371.28423876391935
 21
266.28071008782905
  0
LINE
  8
_0-f_
  6
CONTINUOUS
 62
    7
 10
375.81058305553773
 20
266.20071008782907
 11
375.31082090928396
 21
266.20071008782907
  0
LINE
  8
_0-f_
  6
CONTINUOUS
 62
    7
 10
375.06424676391919
 20
266.20071008782907
 11
374.54424676391943
 21
266.20071008782907
  0
LINE
  8
_0-f_
  6
CONTINUOUS
 62
    7
 10
374.30190792810635
 20
266.20071008782907
 11
373.80452914892857
 21
266.20071008782907
  0
LINE
  8
_0-f_
  6
CONTINUOUS
 62
    7
 10
372.56023876391936
 20
266.20071008782907
 11
372.04022276391925
 21
266.20071008782907
  0
LINE
  8
_0-f_
  6
CONTINUOUS
 62
    7
 10
375.84404472288708
 20
266.12071008782902
 11
375.34513785875856
 21
266.12071008782902
  0
LINE
  8
_0-f_
  6
CONTINUOUS
 62
    7
 10
375.06424676391919
 20
266.12071008782902
 11
374.54424676391943
 21
266.12071008782902
  0
LINE
  8
_0-f_
  6
CONTINUOUS
 62
    7
 10
374.26817667207763
 20
266.12071008782902
 11
373.77155850099825
 21
266.12071008782902
  0
LINE
  8
_0-f_
  6
CONTINUOUS
 62
    7
 10
372.56023876391936
 20
266.12071008782902
 11
372.04022276391925
 21
266.12071008782902
  0
LINE
  8
_0-f_
  6
CONTINUOUS
 62
    7
 10
375.87750639023636
 20
266.04071008782898
 11
375.37945480823311
 21
266.04071008782898
  0
LINE
  8
_0-f_
  6
CONTINUOUS
 62
    7
 10
375.06424676391919
 20
266.04071008782898
 11
374.54424676391943
 21
266.04071008782898
  0
LINE
  8
_0-f_
  6
CONTINUOUS
 62
    7
 10
374.23444541604886
 20
266.04071008782898
 11
373.73858785306788
 21
266.04071008782898
  0
LINE
  8
_0-f_
  6
CONTINUOUS
 62
    7
 10
372.56023876391936
 20
266.04071008782898
 11
372.04022276391925
 21
266.04071008782898
  0
LINE
  8
_0-f_
  6
CONTINUOUS
 62
    7
 10
375.91836594807978
 20
265.96071008782906
 11
375.41377175770765
 21
265.960710087829
  0
LINE
  8
_0-f_
  6
CONTINUOUS
 62
    7
 10
375.06424676391919
 20
265.960710087829
 11
374.54424676391943
 21
265.960710087829
  0
LINE
  8
_0-f_
  6
CONTINUOUS
 62
    7
 10
374.20071416002008
 20
265.960710087829
 11
373.69779330869875
 21
265.960710087829
  0
LINE
  8
_0-f_
  6
CONTINUOUS
 62
    7
 10
372.56023876391936
 20
265.960710087829
 11
372.04022276391925
 21
265.960710087829
  0
LINE
  8
_0-f_
  6
CONTINUOUS
 62
    7
 10
376.08423876391873
 20
265.88071008782902
 11
375.44808870718225
 21
265.88071008782902
  0
LINE
  8
_0-f_
  6
CONTINUOUS
 62
    7
 10
375.06424676391919
 20
265.88071008782902
 11
374.54424676391943
 21
265.88071008782902
  0
LINE
  8
_0-f_
  6
CONTINUOUS
 62
    7
 10
374.16698290399131
 20
265.88071008782902
 11
373.54825476391966
 21
265.88071008782902
  0
LINE
  8
_0-f_
  6
CONTINUOUS
 62
    7
 10
372.56023876391936
 20
265.88071008782902
 11
372.04022276391925
 21
265.88071008782902
  0
LINE
  8
_0-f_
  6
CONTINUOUS
 62
    7
 10
376.08423876391873
 20
265.80071008782897
 11
375.48240565665685
 21
265.80071008782897
  0
LINE
  8
_0-f_
  6
CONTINUOUS
 62
    7
 10
375.06424676391919
 20
265.80071008782897
 11
374.54424676391943
 21
265.80071008782897
  0
LINE
  8
_0-f_
  6
CONTINUOUS
 62
    7
 10
374.13325164796254
 20
265.80071008782897
 11
373.54825476391966
 21
265.80071008782897
  0
LINE
  8
_0-f_
  6
CONTINUOUS
 62
    7
 10
372.56023876391936
 20
265.80071008782897
 11
372.04022276391925
 21
265.80071008782897
  0
LINE
  8
_0-f_
  6
CONTINUOUS
 62
    7
 10
376.08423876391873
 20
265.72071008782905
 11
375.51672260613145
 21
265.72071008782905
  0
LINE
  8
_0-f_
  6
CONTINUOUS
 62
    7
 10
375.06424676391919
 20
265.72071008782905
 11
374.54424676391943
 21
265.72071008782905
  0
LINE
  8
_0-f_
  6
CONTINUOUS
 62
    7
 10
374.09952039193377
 20
265.72071008782905
 11
373.54825476391966
 21
265.72071008782905
  0
LINE
  8
_0-f_
  6
CONTINUOUS
 62
    7
 10
372.56023876391936
 20
265.72071008782905
 11
372.04022276391925
 21
265.72071008782905
  0
LINE
  8
_0-f_
  6
CONTINUOUS
 62
    7
 10
376.08423876391873
 20
265.64071008782901
 11
375.55348850174437
 21
265.64071008782901
  0
LINE
  8
_0-f_
  6
CONTINUOUS
 62
    7
 10
375.06424676391919
 20
265.64071008782901
 11
374.54424676391943
 21
265.64071008782901
  0
LINE
  8
_0-f_
  6
CONTINUOUS
 62
    7
 10
374.06299908452775
 20
265.64071008782901
 11
373.54825476391966
 21
265.64071008782901
  0
LINE
  8
_0-f_
  6
CONTINUOUS
 62
    7
 10
372.56023876391936
 20
265.64071008782901
 11
372.04022276391925
 21
265.64071008782901
  0
LINE
  8
_0-f_
  6
CONTINUOUS
 62
    7
 10
376.08423876391873
 20
265.56071008782902
 11
375.6291418274709
 21
265.56071008782902
  0
LINE
  8
_0-f_
  6
CONTINUOUS
 62
    7
 10
375.06424676391919
 20
265.56071008782902
 11
374.54424676391943
 21
265.56071008782902
  0
LINE
  8
_0-f_
  6
CONTINUOUS
 62
    7
 10
373.98746884517686
 20
265.56071008782902
 11
373.54825476391966
 21
265.56071008782902
  0
LINE
  8
_0-f_
  6
CONTINUOUS
 62
    7
 10
372.56023876391936
 20
265.56071008782902
 11
372.04022276391925
 21
265.56071008782902
  0
LINE
  8
_0-f_
  6
CONTINUOUS
 62
    7
 10
373.58023076391919
 20
269.52075008782907
 11
374.08023076391919
 21
269.52075008782907
  0
LINE
  8
_0-f_
  6
CONTINUOUS
 62
    7
 10
374.54424676391932
 20
268.40083008782904
 11
373.58023076391919
 21
268.40083008782904
  0
LINE
  8
_0-f_
  6
CONTINUOUS
 62
    7
 10
374.54424676391932
 20
267.72895008782905
 11
373.58023076391919
 21
267.72895008782905
  0
LINE
  8
_0-f_
  6
CONTINUOUS
 62
    7
 10
373.58023076391919
 20
267.28891008782909
 11
374.25301238740093
 21
267.28891008782909
  0
LINE
  8
_0-f_
  6
CONTINUOUS
 62
    7
 10
374.25301238740093
 20
267.28891008782909
 11
373.71974309957244
 21
265.99498516659537
  0
ARC
  8
_0-f_
  6
CONTINUOUS
 62
    7
 10
373.85592454736616
 20
265.76071008782901
 40
0.2399999999999999
 50
270
 51
337.13773188217988
  0
LINE
  8
_0-f_
  6
CONTINUOUS
 62
    7
 10
372.04358033952224
 20
268.40083008782904
 11
371.36300209489389
 21
266.76301969519034
  0
LINE
  8
_0-f_
  6
CONTINUOUS
 62
    7
 10
372.55696016834781
 20
268.40083008782904
 11
373.14367266836894
 21
266.96348452401764
  0
LINE
  8
_0-f_
  6
CONTINUOUS
 62
    7
 10
372.04022276391925
 20
267.28619808782901
 11
371.66802884638048
 21
266.35930408766933
  0
LINE
  8
_0-f_
  6
CONTINUOUS
 62
    7
 10
371.28423876391923
 20
266.71371808782908
 11
371.28423876391923
 21
266.23383008782906
  0
LINE
  8
_0-f_
  6
CONTINUOUS
 62
    7
 10
371.28423876391923
 20
266.23383008782906
 11
371.48243284615364
 21
266.23383008782906
  0
ARC
  8
_0-f_
  6
CONTINUOUS
 62
    7
 10
371.48243284615364
 20
266.43383008782905
 40
0.2
 50
270
 51
338.12209204226036
  0
LINE
  8
_0-f_
  6
CONTINUOUS
 62
    7
 10
371.28912646501902
 20
266.71371808782908
 11
371.28423876391923
 21
266.71371808782908
  0
ARC
  8
_0-f_
  6
CONTINUOUS
 62
    7
 10
371.28912646501902
 20
266.79371808782901
 40
0.08
 50
270
 51
337.43508599410586
  0
ARC
  8
_0-f_
  6
CONTINUOUS
 62
    7
 10
373.02510651058412
 20
266.63383008782904
 40
0.2
 50
200.8751841896235
 51
270
  0
LINE
  8
_0-f_
  6
CONTINUOUS
 62
    7
 10
372.04022276391925
 20
265.52071008782906
 11
372.04022276391925
 21
267.28619808782901
  0
LINE
  8
_0-f_
  6
CONTINUOUS
 62
    7
 10
372.5602387639193
 20
265.52071008782906
 11
372.5602387639193
 21
267.29151008782901
  0
LINE
  8
_0-f_
  6
CONTINUOUS
 62
    7
 10
372.04022276391925
 20
265.52071008782906
 11
372.5602387639193
 21
265.52071008782906
  0
LINE
  8
_0-f_
  6
CONTINUOUS
 62
    7
 10
372.5602387639193
 20
267.29151008782901
 11
372.83823473134464
 21
266.56256341873416
  0
LINE
  8
_0-f_
  6
CONTINUOUS
 62
    7
 10
373.30823876391923
 20
266.43383008782905
 11
373.30823876391923
 21
266.91371808782907
  0
LINE
  8
_0-f_
  6
CONTINUOUS
 62
    7
 10
373.30823876391923
 20
266.43383008782905
 11
373.02510651058412
 21
266.43383008782905
  0
ARC
  8
_0-f_
  6
CONTINUOUS
 62
    7
 10
373.60879612314596
 20
266.0407100878291
 40
0.12
 50
270
 51
337.60181985621841
  0
LINE
  8
_0-f_
  6
CONTINUOUS
 62
    7
 10
373.54825476391932
 20
265.92071008782904
 11
373.60879612314596
 21
265.92071008782904
  0
LINE
  8
_0-f_
  6
CONTINUOUS
 62
    7
 10
373.54825476391932
 20
265.92071008782904
 11
373.54825476391932
 21
265.52071008782906
  0
LINE
  8
_0-f_
  6
CONTINUOUS
 62
    7
 10
373.54825476391932
 20
265.52071008782906
 11
373.85592454736616
 21
265.52071008782906
  0
LINE
  8
_0-f_
  6
CONTINUOUS
 62
    7
 10
373.30823876391923
 20
266.91371808782907
 11
373.21773974350538
 21
266.91371808782907
  0
ARC
  8
_0-f_
  6
CONTINUOUS
 62
    7
 10
373.21773974350538
 20
266.99371808782905
 40
0.08
 50
202.2048740517549
 51
270
  0
LINE
  8
_0-f_
  6
CONTINUOUS
 62
    7
 10
373.58023076391919
 20
267.28891008782909
 11
373.58023076391919
 21
267.72895008782905
  0
LINE
  8
_0-f_
  6
CONTINUOUS
 62
    7
 10
371.36424676391925
 20
268.84087008782905
 11
372.04022276391925
 21
268.84087008782905
  0
LINE
  8
_0-f_
  6
CONTINUOUS
 62
    7
 10
371.36424676391925
 20
268.40083008782904
 11
372.04358033952224
 21
268.40083008782904
  0
LINE
  8
_0-f_
  6
CONTINUOUS
 62
    7
 10
371.36424676391925
 20
268.84087008782905
 11
371.36424676391925
 21
268.40083008782904
  0
LINE
  8
_0-f_
  6
CONTINUOUS
 62
    7
 10
372.55696016834781
 20
268.40083008782904
 11
373.22823076391921
 21
268.40083008782904
  0
LINE
  8
_0-f_
  6
CONTINUOUS
 62
    7
 10
372.5602387639193
 20
268.84087008782905
 11
373.22823076391921
 21
268.84087008782905
  0
LINE
  8
_0-f_
  6
CONTINUOUS
 62
    7
 10
372.5602387639193
 20
268.84087008782905
 11
372.5602387639193
 21
269.52075008782907
  0
LINE
  8
_0-f_
  6
CONTINUOUS
 62
    7
 10
372.04022276391925
 20
268.84087008782905
 11
372.04022276391925
 21
269.52075008782907
  0
LINE
  8
_0-f_
  6
CONTINUOUS
 62
    7
 10
372.04022276391925
 20
268.39282208782902
 11
372.04022276391925
 21
268.40083008782904
  0
LINE
  8
_0-f_
  6
CONTINUOUS
 62
    7
 10
372.5602387639193
 20
268.39282208782902
 11
372.5602387639193
 21
268.40083008782904
  0
LINE
  8
_0-f_
  6
CONTINUOUS
 62
    7
 10
372.04022276391925
 20
269.52075008782907
 11
372.5602387639193
 21
269.52075008782907
  0
LINE
  8
_0-f_
  6
CONTINUOUS
 62
    7
 10
373.58023076391919
 20
268.40083008782904
 11
373.58023076391919
 21
269.52075008782907
  0
LINE
  8
_0-f_
  6
CONTINUOUS
 62
    7
 10
373.22823076391921
 20
268.40083008782904
 11
373.22823076391921
 21
268.84087008782905
  0
LINE
  8
_0-f_
  6
CONTINUOUS
 62
    7
 10
375.0642467639193
 20
268.40083008782904
 11
375.0642467639193
 21
267.72895008782905
  0
LINE
  8
_0-f_
  6
CONTINUOUS
 62
    7
 10
374.54424676391932
 20
268.40083008782904
 11
374.54424676391932
 21
267.72895008782905
  0
LINE
  8
_0-f_
  6
CONTINUOUS
 62
    7
 10
376.0842387639193
 20
267.72895008782905
 11
375.0642467639193
 21
267.72895008782905
  0
LINE
  8
_0-f_
  6
CONTINUOUS
 62
    7
 10
375.0642467639193
 20
266.77552608782906
 11
375.54014966382425
 21
265.6660967074406
  0
LINE
  8
_0-f_
  6
CONTINUOUS
 62
    7
 10
374.54424676391932
 20
266.77546208782906
 11
374.07707049816281
 21
265.66746595425343
  0
LINE
  8
_0-f_
  6
CONTINUOUS
 62
    7
 10
374.54424676391932
 20
266.77546208782906
 11
374.54424676391932
 21
265.52071008782906
  0
LINE
  8
_0-f_
  6
CONTINUOUS
 62
    7
 10
375.0642467639193
 20
266.77552608782906
 11
375.0642467639193
 21
265.52071008782906
  0
LINE
  8
_0-f_
  6
CONTINUOUS
 62
    7
 10
374.54424676391932
 20
265.52071008782906
 11
375.0642467639193
 21
265.52071008782906
  0
LINE
  8
_0-f_
  6
CONTINUOUS
 62
    7
 10
375.35542072541904
 20
267.28891008782909
 11
375.89687447344841
 21
265.99440496379589
  0
ARC
  8
_0-f_
  6
CONTINUOUS
 62
    7
 10
375.76071327880072
 20
265.76071008782901
 40
0.2399999999999999
 50
203.21748710460054
 51
270
  0
LINE
  8
_0-f_
  6
CONTINUOUS
 62
    7
 10
376.0842387639193
 20
265.52071008782906
 11
375.76071327880072
 21
265.52071008782906
  0
LINE
  8
_0-f_
  6
CONTINUOUS
 62
    7
 10
376.0842387639193
 20
265.92071008782904
 11
376.0842387639193
 21
265.52071008782906
  0
LINE
  8
_0-f_
  6
CONTINUOUS
 62
    7
 10
376.0842387639193
 20
265.92071008782904
 11
376.00758055046447
 21
265.92071008782904
  0
ARC
  8
_0-f_
  6
CONTINUOUS
 62
    7
 10
376.00758055046447
 20
266.0407100878291
 40
0.12
 50
202.6981362709997
 51
270
  0
LINE
  8
_0-f_
  6
CONTINUOUS
 62
    7
 10
375.35542072541904
 20
267.28891008782909
 11
376.0842387639193
 21
267.28891008782909
  0
LINE
  8
_0-f_
  6
CONTINUOUS
 62
    7
 10
376.0842387639193
 20
267.72895008782905
 11
376.0842387639193
 21
267.28891008782909
  0
LINE
  8
_0-f_
  6
CONTINUOUS
 62
    7
 10
376.0842387639193
 20
268.40083008782904
 11
375.0642467639193
 21
268.40083008782904
  0
LINE
  8
_0-f_
  6
CONTINUOUS
 62
    7
 10
376.0842387639193
 20
268.84087008782905
 11
375.0642467639193
 21
268.84087008782905
  0
LINE
  8
_0-f_
  6
CONTINUOUS
 62
    7
 10
375.0642467639193
 20
269.52075008782907
 11
375.0642467639193
 21
268.84087008782905
  0
LINE
  8
_0-f_
  6
CONTINUOUS
 62
    7
 10
374.54424676391932
 20
269.52075008782907
 11
374.54424676391932
 21
268.84087008782905
  0
LINE
  8
_0-f_
  6
CONTINUOUS
 62
    7
 10
374.08023076391919
 20
268.84087008782905
 11
374.08023076391919
 21
269.52075008782907
  0
LINE
  8
_0-f_
  6
CONTINUOUS
 62
    7
 10
374.54424676391932
 20
268.84087008782905
 11
374.08023076391919
 21
268.84087008782905
  0
LINE
  8
_0-f_
  6
CONTINUOUS
 62
    7
 10
374.54424676391932
 20
269.52075008782907
 11
375.0642467639193
 21
269.52075008782907
  0
LINE
  8
_0-f_
  6
CONTINUOUS
 62
    7
 10
376.0842387639193
 20
268.84087008782905
 11
376.0842387639193
 21
268.40083008782904
  0
LINE
  8
_0-f_
  6
CONTINUOUS
 62
    7
 10
379.2588170074676
 20
267.28891008782909
 11
379.2588170074676
 21
267.72895008782905
  0
LINE
  8
_0-f_
  6
CONTINUOUS
 62
    7
 10
379.2588170074676
 20
267.72895008782905
 11
376.85881700746768
 21
267.72895008782905
  0
LINE
  8
_0-f_
  6
CONTINUOUS
 62
    7
 10
376.85881700746768
 20
267.72895008782905
 11
376.85881700746768
 21
267.28891008782909
  0
LINE
  8
_0-f_
  6
CONTINUOUS
 62
    7
 10
376.85881700746768
 20
267.28891008782909
 11
377.61882500746771
 21
267.28891008782909
  0
LINE
  8
_0-f_
  6
CONTINUOUS
 62
    7
 10
377.61882500746771
 20
267.28891008782909
 11
377.61882500746771
 21
265.96079008782908
  0
LINE
  8
_0-f_
  6
CONTINUOUS
 62
    7
 10
377.61882500746771
 20
265.96079008782908
 11
376.85881700746768
 21
265.96079008782908
  0
LINE
  8
_0-f_
  6
CONTINUOUS
 62
    7
 10
376.85881700746768
 20
265.96079008782908
 11
376.85881700746768
 21
265.52071008782906
  0
LINE
  8
_0-f_
  6
CONTINUOUS
 62
    7
 10
376.85881700746768
 20
265.52071008782906
 11
378.34602500746769
 21
265.52071008782906
  0
ARC
  8
_0-f_
  6
CONTINUOUS
 62
    7
 10
378.34602500746769
 20
266.32071008782907
 40
0.8000000000000078
 50
270
 51
285.45094822953388
  0
LINE
  8
_0-f_
  6
CONTINUOUS
 62
    7
 10
378.55915564735369
 20
265.54962297839086
 11
379.2588170074676
 21
265.75159008782907
  0
LINE
  8
_0-f_
  6
CONTINUOUS
 62
    7
 10
379.2588170074676
 20
265.75159008782907
 11
379.2588170074676
 21
266.19167008782904
  0
LINE
  8
_0-f_
  6
CONTINUOUS
 62
    7
 10
379.2588170074676
 20
266.19167008782904
 11
378.45884100746775
 21
265.96079008782908
  0
LINE
  8
_0-f_
  6
CONTINUOUS
 62
    7
 10
378.45884100746775
 20
265.96079008782908
 11
378.35881700746756
 21
265.96079008782908
  0
LINE
  8
_0-f_
  6
CONTINUOUS
 62
    7
 10
378.35881700746756
 20
265.96079008782908
 11
378.35881700746756
 21
267.28891008782909
  0
LINE
  8
_0-f_
  6
CONTINUOUS
 62
    7
 10
378.35881700746756
 20
267.28891008782909
 11
379.2588170074676
 21
267.28891008782909
  0
LINE
  8
_0-f_
  6
CONTINUOUS
 62
    7
 10
380.33278374102929
 20
268.84087008782905
 11
380.17634560860745
 21
269.52075008782907
  0
LINE
  8
_0-f_
  6
CONTINUOUS
 62
    7
 10
380.17634560860745
 20
269.52075008782907
 11
379.33762734880042
 21
269.52075008782907
  0
LINE
  8
_0-f_
  6
CONTINUOUS
 62
    7
 10
379.33762734880042
 20
269.52075008782907
 11
379.49568673757148
 21
268.84087008782905
  0
LINE
  8
_0-f_
  6
CONTINUOUS
 62
    7
 10
379.49568673757148
 20
268.84087008782905
 11
376.85881700746768
 21
268.84087008782905
  0
LINE
  8
_0-f_
  6
CONTINUOUS
 62
    7
 10
376.85881700746768
 20
268.84087008782905
 11
376.85881700746768
 21
268.40083008782904
  0
LINE
  8
_0-f_
  6
CONTINUOUS
 62
    7
 10
376.85881700746768
 20
268.40083008782904
 11
379.59798781045902
 21
268.40083008782904
  0
LINE
  8
_0-f_
  6
CONTINUOUS
 62
    7
 10
379.59798781045902
 20
268.40083008782904
 11
380.18123978732308
 21
265.89201769070758
  0
ARC
  8
_0-f_
  6
CONTINUOUS
 62
    7
 10
380.64877156464729
 20
266.00071008782902
 40
0.4800000000000017
 50
193.0877165037698
 51
270
  0
LINE
  8
_0-f_
  6
CONTINUOUS
 62
    7
 10
380.64877156464729
 20
265.52071008782906
 11
381.65881700746769
 21
265.52071008782906
  0
LINE
  8
_0-f_
  6
CONTINUOUS
 62
    7
 10
381.65881700746769
 20
265.52071008782906
 11
381.65881700746769
 21
265.96079008782908
  0
LINE
  8
_0-f_
  6
CONTINUOUS
 62
    7
 10
381.65881700746769
 20
265.96079008782908
 11
381.06223418650802
 21
265.96079008782908
  0
ARC
  8
_0-f_
  6
CONTINUOUS
 62
    7
 10
381.05884100746766
 20
266.0407100878291
 40
0.0799919999999998
 50
267.56884201629123
 51
272.43115798371281
  0
LINE
  8
_0-f_
  6
CONTINUOUS
 62
    7
 10
381.05544782842742
 20
265.96079008782908
 11
380.99548059404117
 21
265.96079008782908
  0
LINE
  8
_0-f_
  6
CONTINUOUS
 62
    7
 10
380.99548059404117
 20
265.96079008782908
 11
380.98281474745932
 21
266.01583584707407
  0
ARC
  8
_0-f_
  6
CONTINUOUS
 62
    7
 10
381.05884100746766
 20
266.0407100878291
 40
0.0799919999999998
 50
187.79901102615551
 51
198.1170401314526
  0
LINE
  8
_0-f_
  6
CONTINUOUS
 62
    7
 10
380.97958891883798
 20
266.02985529571572
 11
380.43403548514726
 21
268.40083008782904
  0
LINE
  8
_0-f_
  6
CONTINUOUS
 62
    7
 10
380.43403548514726
 20
268.40083008782904
 11
381.65881700746769
 21
268.40083008782904
  0
LINE
  8
_0-f_
  6
CONTINUOUS
 62
    7
 10
381.65881700746769
 20
268.40083008782904
 11
381.65881700746769
 21
268.84087008782905
  0
LINE
  8
_0-f_
  6
CONTINUOUS
 62
    7
 10
381.65881700746769
 20
268.84087008782905
 11
380.33278374102929
 21
268.84087008782905
  0
LINE
  8
_0-f_
  6
CONTINUOUS
 62
    7
 10
381.33882500746768
 20
269.52075008782907
 11
380.81882500746769
 21
269.52075008782907
  0
LINE
  8
_0-f_
  6
CONTINUOUS
 62
    7
 10
380.81882500746769
 20
269.52075008782907
 11
380.81882500746769
 21
269.16469408782905
  0
LINE
  8
_0-f_
  6
CONTINUOUS
 62
    7
 10
380.81882500746769
 20
269.16469408782905
 11
381.33882500746768
 21
269.16469408782905
  0
LINE
  8
_0-f_
  6
CONTINUOUS
 62
    7
 10
381.33882500746768
 20
269.16469408782905
 11
381.33882500746768
 21
269.52075008782907
  0
LINE
  8
_0-f_
  6
CONTINUOUS
 62
    7
 10
380.64575204454604
 20
267.48071008782904
 11
379.81189850763508
 21
267.48071008782904
  0
LINE
  8
_0-f_
  6
CONTINUOUS
 62
    7
 10
379.25881700746731
 20
267.48071008782904
 11
376.85881700746779
 21
267.48071008782904
  0
LINE
  8
_0-f_
  6
CONTINUOUS
 62
    7
 10
380.62734430995499
 20
267.56071008782908
 11
379.79330000333778
 21
267.56071008782908
  0
LINE
  8
_0-f_
  6
CONTINUOUS
 62
    7
 10
379.25881700746731
 20
267.56071008782908
 11
376.85881700746779
 21
267.56071008782908
  0
LINE
  8
_0-f_
  6
CONTINUOUS
 62
    7
 10
380.60893657536394
 20
267.64071008782901
 11
379.77470149904042
 21
267.64071008782901
  0
LINE
  8
_0-f_
  6
CONTINUOUS
 62
    7
 10
379.25881700746731
 20
267.64071008782901
 11
376.85881700746779
 21
267.64071008782901
  0
LINE
  8
_0-f_
  6
CONTINUOUS
 62
    7
 10
380.59052884077289
 20
267.72071008782905
 11
379.75610299474306
 21
267.72071008782905
  0
LINE
  8
_0-f_
  6
CONTINUOUS
 62
    7
 10
379.25881700746731
 20
267.72071008782905
 11
376.85881700746779
 21
267.72071008782905
  0
LINE
  8
_0-f_
  6
CONTINUOUS
 62
    7
 10
380.57212110618184
 20
267.80071008782903
 11
379.73750449044564
 21
267.80071008782903
  0
LINE
  8
_0-f_
  6
CONTINUOUS
 62
    7
 10
380.55371337159085
 20
267.88071008782902
 11
379.71890598614834
 21
267.88071008782902
  0
LINE
  8
_0-f_
  6
CONTINUOUS
 62
    7
 10
380.53530563699979
 20
267.96071008782906
 11
379.70030748185098
 21
267.96071008782906
  0
LINE
  8
_0-f_
  6
CONTINUOUS
 62
    7
 10
380.5168979024088
 20
268.0407100878291
 11
379.68170897755363
 21
268.0407100878291
  0
LINE
  8
_0-f_
  6
CONTINUOUS
 62
    7
 10
380.49849016781775
 20
268.12071008782908
 11
379.66311047325632
 21
268.12071008782908
  0
LINE
  8
_0-f_
  6
CONTINUOUS
 62
    7
 10
380.4800824332267
 20
268.20071008782907
 11
379.64451196895891
 21
268.20071008782907
  0
LINE
  8
_0-f_
  6
CONTINUOUS
 62
    7
 10
380.46167469863565
 20
268.28071008782911
 11
379.62591346466155
 21
268.28071008782911
  0
LINE
  8
_0-f_
  6
CONTINUOUS
 62
    7
 10
380.44326696404465
 20
268.36071008782903
 11
379.60731496036419
 21
268.36071008782903
  0
LINE
  8
_0-f_
  6
CONTINUOUS
 62
    7
 10
381.65881700746775
 20
268.44071008782907
 11
376.85881700746745
 21
268.44071008782907
  0
LINE
  8
_0-f_
  6
CONTINUOUS
 62
    7
 10
381.65881700746775
 20
268.52071008782906
 11
376.85881700746745
 21
268.52071008782906
  0
LINE
  8
_0-f_
  6
CONTINUOUS
 62
    7
 10
381.65881700746775
 20
268.60071008782904
 11
376.85881700746745
 21
268.60071008782904
  0
LINE
  8
_0-f_
  6
CONTINUOUS
 62
    7
 10
381.65881700746775
 20
268.68071008782908
 11
376.85881700746745
 21
268.68071008782908
  0
LINE
  8
_0-f_
  6
CONTINUOUS
 62
    7
 10
381.65881700746775
 20
268.76071008782901
 11
376.85881700746745
 21
268.76071008782901
  0
LINE
  8
_0-f_
  6
CONTINUOUS
 62
    7
 10
381.65881700746775
 20
268.84071008782905
 11
376.85881700746745
 21
268.84071008782905
  0
LINE
  8
_0-f_
  6
CONTINUOUS
 62
    7
 10
380.31441282190724
 20
268.92071008782904
 11
379.47712543028285
 21
268.92071008782909
  0
LINE
  8
_0-f_
  6
CONTINUOUS
 62
    7
 10
380.29600508731619
 20
269.00071008782902
 11
379.45852692598544
 21
269.00071008782902
  0
LINE
  8
_0-f_
  6
CONTINUOUS
 62
    7
 10
380.27759735272514
 20
269.08071008782906
 11
379.43992842168814
 21
269.08071008782906
  0
LINE
  8
_0-f_
  6
CONTINUOUS
 62
    7
 10
380.25918961813414
 20
269.1607100878291
 11
379.42132991739084
 21
269.1607100878291
  0
LINE
  8
_0-f_
  6
CONTINUOUS
 62
    7
 10
381.33882500746768
 20
269.24071008782909
 11
380.81882500746696
 21
269.24071008782909
  0
LINE
  8
_0-f_
  6
CONTINUOUS
 62
    7
 10
380.24078188354309
 20
269.24071008782909
 11
379.40273141309342
 21
269.24071008782909
  0
LINE
  8
_0-f_
  6
CONTINUOUS
 62
    7
 10
381.33882500746768
 20
269.32071008782907
 11
380.81882500746696
 21
269.32071008782907
  0
LINE
  8
_0-f_
  6
CONTINUOUS
 62
    7
 10
380.2223741489521
 20
269.32071008782907
 11
379.38413290879612
 21
269.32071008782907
  0
LINE
  8
_0-f_
  6
CONTINUOUS
 62
    7
 10
381.33882500746768
 20
269.40071008782911
 11
380.81882500746696
 21
269.40071008782911
  0
LINE
  8
_0-f_
  6
CONTINUOUS
 62
    7
 10
380.20396641436105
 20
269.40071008782911
 11
379.3655344044987
 21
269.40071008782911
  0
LINE
  8
_0-f_
  6
CONTINUOUS
 62
    7
 10
381.33882500746768
 20
269.48071008782904
 11
380.81882500746696
 21
269.48071008782904
  0
LINE
  8
_0-f_
  6
CONTINUOUS
 62
    7
 10
380.18555867977
 20
269.48071008782904
 11
379.34693590020134
 21
269.48071008782904
  0
LINE
  8
_0-f_
  6
CONTINUOUS
 62
    7
 10
380.66415977913709
 20
267.40071008782905
 11
379.83049701193249
 21
267.40071008782905
  0
LINE
  8
_0-f_
  6
CONTINUOUS
 62
    7
 10
379.25881700746731
 20
267.40071008782905
 11
376.85881700746779
 21
267.40071008782905
  0
LINE
  8
_0-f_
  6
CONTINUOUS
 62
    7
 10
380.68256751372815
 20
267.32071008782907
 11
379.8490955162298
 21
267.32071008782907
  0
LINE
  8
_0-f_
  6
CONTINUOUS
 62
    7
 10
379.25881700746731
 20
267.32071008782907
 11
376.85881700746779
 21
267.32071008782907
  0
LINE
  8
_0-f_
  6
CONTINUOUS
 62
    7
 10
380.70097524831914
 20
267.24071008782903
 11
379.86769402052715
 21
267.24071008782903
  0
LINE
  8
_0-f_
  6
CONTINUOUS
 62
    7
 10
378.35881700746745
 20
267.24071008782903
 11
377.61882500746782
 21
267.24071008782903
  0
LINE
  8
_0-f_
  6
CONTINUOUS
 62
    7
 10
380.71938298291013
 20
267.16071008782899
 11
379.88629252482451
 21
267.16071008782899
  0
LINE
  8
_0-f_
  6
CONTINUOUS
 62
    7
 10
378.35881700746745
 20
267.16071008782899
 11
377.61882500746782
 21
267.16071008782899
  0
LINE
  8
_0-f_
  6
CONTINUOUS
 62
    7
 10
380.73779071750118
 20
267.08071008782906
 11
379.90489102912193
 21
267.08071008782906
  0
LINE
  8
_0-f_
  6
CONTINUOUS
 62
    7
 10
378.35881700746745
 20
267.08071008782906
 11
377.61882500746782
 21
267.08071008782906
  0
LINE
  8
_0-f_
  6
CONTINUOUS
 62
    7
 10
380.75619845209224
 20
267.00071008782902
 11
379.92348953341923
 21
267.00071008782902
  0
LINE
  8
_0-f_
  6
CONTINUOUS
 62
    7
 10
378.35881700746745
 20
267.00071008782902
 11
377.61882500746782
 21
267.00071008782902
  0
LINE
  8
_0-f_
  6
CONTINUOUS
 62
    7
 10
380.77460618668329
 20
266.92071008782898
 11
379.94208803771664
 21
266.92071008782898
  0
LINE
  8
_0-f_
  6
CONTINUOUS
 62
    7
 10
378.35881700746745
 20
266.92071008782898
 11
377.61882500746782
 21
266.92071008782898
  0
LINE
  8
_0-f_
  6
CONTINUOUS
 62
    7
 10
380.79301392127434
 20
266.84071008782905
 11
379.96068654201395
 21
266.84071008782905
  0
LINE
  8
_0-f_
  6
CONTINUOUS
 62
    7
 10
378.35881700746745
 20
266.84071008782905
 11
377.61882500746782
 21
266.84071008782905
  0
LINE
  8
_0-f_
  6
CONTINUOUS
 62
    7
 10
380.81142165586533
 20
266.76071008782901
 11
379.9792850463113
 21
266.76071008782901
  0
LINE
  8
_0-f_
  6
CONTINUOUS
 62
    7
 10
378.35881700746745
 20
266.76071008782901
 11
377.61882500746782
 21
266.76071008782901
  0
LINE
  8
_0-f_
  6
CONTINUOUS
 62
    7
 10
380.82982939045638
 20
266.68071008782903
 11
379.99788355060866
 21
266.68071008782903
  0
LINE
  8
_0-f_
  6
CONTINUOUS
 62
    7
 10
378.35881700746745
 20
266.68071008782903
 11
377.61882500746782
 21
266.68071008782903
  0
LINE
  8
_0-f_
  6
CONTINUOUS
 62
    7
 10
380.84823712504738
 20
266.60071008782904
 11
380.01648205490602
 21
266.60071008782904
  0
LINE
  8
_0-f_
  6
CONTINUOUS
 62
    7
 10
378.35881700746745
 20
266.60071008782904
 11
377.61882500746782
 21
266.60071008782904
  0
LINE
  8
_0-f_
  6
CONTINUOUS
 62
    7
 10
380.86664485963843
 20
266.520710087829
 11
380.03508055920338
 21
266.520710087829
  0
LINE
  8
_0-f_
  6
CONTINUOUS
 62
    7
 10
378.35881700746745
 20
266.520710087829
 11
377.61882500746782
 21
266.520710087829
  0
LINE
  8
_0-f_
  6
CONTINUOUS
 62
    7
 10
380.88505259422948
 20
266.44071008782907
 11
380.05367906350074
 21
266.44071008782907
  0
LINE
  8
_0-f_
  6
CONTINUOUS
 62
    7
 10
378.35881700746745
 20
266.44071008782907
 11
377.61882500746782
 21
266.44071008782907
  0
LINE
  8
_0-f_
  6
CONTINUOUS
 62
    7
 10
380.90346032882047
 20
266.36071008782903
 11
380.0722775677981
 21
266.36071008782903
  0
LINE
  8
_0-f_
  6
CONTINUOUS
 62
    7
 10
378.35881700746745
 20
266.36071008782903
 11
377.61882500746782
 21
266.36071008782903
  0
LINE
  8
_0-f_
  6
CONTINUOUS
 62
    7
 10
380.92186806341152
 20
266.28071008782905
 11
380.0908760720954
 21
266.28071008782905
  0
LINE
  8
_0-f_
  6
CONTINUOUS
 62
    7
 10
378.35881700746745
 20
266.28071008782905
 11
377.61882500746782
 21
266.28071008782905
  0
LINE
  8
_0-f_
  6
CONTINUOUS
 62
    7
 10
380.94027579800252
 20
266.20071008782907
 11
380.10947457639276
 21
266.20071008782907
  0
LINE
  8
_0-f_
  6
CONTINUOUS
 62
    7
 10
378.35881700746745
 20
266.20071008782907
 11
377.61882500746782
 21
266.20071008782907
  0
LINE
  8
_0-f_
  6
CONTINUOUS
 62
    7
 10
380.95868353259357
 20
266.12071008782902
 11
380.12807308069011
 21
266.12071008782902
  0
LINE
  8
_0-f_
  6
CONTINUOUS
 62
    7
 10
379.25881700746788
 20
266.12071008782902
 11
379.01294773789084
 21
266.12071008782902
  0
LINE
  8
_0-f_
  6
CONTINUOUS
 62
    7
 10
378.35881700746745
 20
266.12071008782902
 11
377.61882500746782
 21
266.12071008782902
  0
LINE
  8
_0-f_
  6
CONTINUOUS
 62
    7
 10
380.97709126718462
 20
266.04071008782898
 11
380.14667158498753
 21
266.04071008782898
  0
LINE
  8
_0-f_
  6
CONTINUOUS
 62
    7
 10
379.25881700746788
 20
266.04071008782898
 11
378.73575577669897
 21
266.04071008782898
  0
LINE
  8
_0-f_
  6
CONTINUOUS
 62
    7
 10
378.35881700746745
 20
266.04071008782898
 11
377.61882500746782
 21
266.04071008782898
  0
LINE
  8
_0-f_
  6
CONTINUOUS
 62
    7
 10
381.65881700746769
 20
265.960710087829
 11
380.16527008928483
 21
265.960710087829
  0
LINE
  8
_0-f_
  6
CONTINUOUS
 62
    7
 10
379.25881700746788
 20
265.960710087829
 11
376.85881700746768
 21
265.960710087829
  0
LINE
  8
_0-f_
  6
CONTINUOUS
 62
    7
 10
381.65881700746769
 20
265.88071008782902
 11
380.1848247801563
 21
265.88071008782902
  0
LINE
  8
_0-f_
  6
CONTINUOUS
 62
    7
 10
379.25881700746788
 20
265.88071008782902
 11
376.85881700746768
 21
265.88071008782902
  0
LINE
  8
_0-f_
  6
CONTINUOUS
 62
    7
 10
381.65881700746769
 20
265.80071008782897
 11
380.21376323818856
 21
265.80071008782897
  0
LINE
  8
_0-f_
  6
CONTINUOUS
 62
    7
 10
379.25881700746788
 20
265.80071008782897
 11
376.85881700746768
 21
265.80071008782897
  0
LINE
  8
_0-f_
  6
CONTINUOUS
 62
    7
 10
381.65881700746769
 20
265.72071008782905
 11
380.26071917762886
 21
265.72071008782905
  0
LINE
  8
_0-f_
  6
CONTINUOUS
 62
    7
 10
379.15184145654507
 20
265.72071008782905
 11
376.85881700746768
 21
265.72071008782905
  0
LINE
  8
_0-f_
  6
CONTINUOUS
 62
    7
 10
381.65881700746769
 20
265.64071008782901
 11
380.33171594075122
 21
265.64071008782901
  0
LINE
  8
_0-f_
  6
CONTINUOUS
 62
    7
 10
378.87470272358598
 20
265.64071008782901
 11
376.85881700746768
 21
265.64071008782901
  0
LINE
  8
_0-f_
  6
CONTINUOUS
 62
    7
 10
381.65881700746769
 20
265.56071008782902
 11
380.45779362094686
 21
265.56071008782902
  0
LINE
  8
_0-f_
  6
CONTINUOUS
 62
    7
 10
378.5975639906269
 20
265.56071008782902
 11
376.85881700746768
 21
265.56071008782902
  0
LINE
  8
_0-f_
  6
CONTINUOUS
 62
    7
 10
380.33278374102929
 20
268.84087008782905
 11
381.65881700746769
 21
268.84087008782905
  0
LINE
  8
_0-f_
  6
CONTINUOUS
 62
    7
 10
380.64877156464729
 20
265.52071008782906
 11
381.65881700746769
 21
265.52071008782906
  0
LINE
  8
_0-f_
  6
CONTINUOUS
 62
    7
 10
380.99548059404117
 20
265.96079008782908
 11
381.65881700746769
 21
265.96079008782908
  0
LINE
  8
_0-f_
  6
CONTINUOUS
 62
    7
 10
380.43403548514726
 20
268.40083008782904
 11
381.65881700746769
 21
268.40083008782904
  0
LINE
  8
_0-f_
  6
CONTINUOUS
 62
    7
 10
380.81882500746769
 20
269.52075008782907
 11
381.33882500746768
 21
269.52075008782907
  0
LINE
  8
_0-f_
  6
CONTINUOUS
 62
    7
 10
381.33882500746768
 20
269.16469408782905
 11
380.81882500746769
 21
269.16469408782905
  0
LINE
  8
_0-f_
  6
CONTINUOUS
 62
    7
 10
379.59798781045902
 20
268.40083008782904
 11
380.18123978732308
 21
265.89201769070758
  0
LINE
  8
_0-f_
  6
CONTINUOUS
 62
    7
 10
380.43403548514726
 20
268.40083008782904
 11
380.99548059404117
 21
265.96079008782908
  0
LINE
  8
_0-f_
  6
CONTINUOUS
 62
    7
 10
378.35881700746756
 20
267.28891008782909
 11
379.2588170074676
 21
267.28891008782909
  0
LINE
  8
_0-f_
  6
CONTINUOUS
 62
    7
 10
379.2588170074676
 20
267.72895008782905
 11
376.85881700746768
 21
267.72895008782905
  0
LINE
  8
_0-f_
  6
CONTINUOUS
 62
    7
 10
378.56763300746775
 20
265.55207008782907
 11
379.2588170074676
 21
265.75159008782907
  0
LINE
  8
_0-f_
  6
CONTINUOUS
 62
    7
 10
378.45884100746781
 20
265.96079008782908
 11
379.2588170074676
 21
266.19167008782904
  0
LINE
  8
_0-f_
  6
CONTINUOUS
 62
    7
 10
376.85881700746768
 20
265.52071008782906
 11
378.34602500746769
 21
265.52071008782906
  0
LINE
  8
_0-f_
  6
CONTINUOUS
 62
    7
 10
377.61882500746771
 20
267.28891008782909
 11
377.61882500746771
 21
265.96079008782908
  0
LINE
  8
_0-f_
  6
CONTINUOUS
 62
    7
 10
377.61882500746771
 20
265.96079008782908
 11
376.85881700746768
 21
265.96079008782908
  0
LINE
  8
_0-f_
  6
CONTINUOUS
 62
    7
 10
376.85881700746768
 20
265.96079008782908
 11
376.85881700746768
 21
265.52071008782906
  0
LINE
  8
_0-f_
  6
CONTINUOUS
 62
    7
 10
376.85881700746768
 20
267.28891008782909
 11
377.61882500746771
 21
267.28891008782909
  0
LINE
  8
_0-f_
  6
CONTINUOUS
 62
    7
 10
376.85881700746768
 20
267.72895008782905
 11
376.85881700746768
 21
267.28891008782909
  0
LINE
  8
_0-f_
  6
CONTINUOUS
 62
    7
 10
378.35881700746756
 20
265.96079008782908
 11
378.35881700746756
 21
267.28891008782909
  0
ARC
  8
_0-f_
  6
CONTINUOUS
 62
    7
 10
378.34602500746769
 20
266.32071008782907
 40
0.8000000000000001
 50
270
 51
286.10199
  0
LINE
  8
_0-f_
  6
CONTINUOUS
 62
    7
 10
378.45884100746781
 20
265.96079008782908
 11
378.35881700746756
 21
265.96079008782908
  0
LINE
  8
_0-f_
  6
CONTINUOUS
 62
    7
 10
379.2588170074676
 20
266.19167008782904
 11
379.2588170074676
 21
265.75159008782907
  0
LINE
  8
_0-f_
  6
CONTINUOUS
 62
    7
 10
379.2588170074676
 20
267.28891008782909
 11
379.2588170074676
 21
267.72895008782905
  0
ARC
  8
_0-f_
  6
CONTINUOUS
 62
    7
 10
380.64877156464729
 20
266.00071008782902
 40
0.4799999999999999
 50
193.08771650376977
 51
269.99999999999972
  0
ARC
  8
_0-f_
  6
CONTINUOUS
 62
    7
 10
381.05884100746766
 20
266.0407100878291
 40
0.0799919999999998
 50
192.96201000000002
 51
270
  0
LINE
  8
_0-f_
  6
CONTINUOUS
 62
    7
 10
376.85881700746768
 20
268.84087008782905
 11
379.49568673757148
 21
268.84087008782905
  0
LINE
  8
_0-f_
  6
CONTINUOUS
 62
    7
 10
376.85881700746768
 20
268.40083008782904
 11
379.59798781045902
 21
268.40083008782904
  0
LINE
  8
_0-f_
  6
CONTINUOUS
 62
    7
 10
376.85881700746768
 20
268.84087008782905
 11
376.85881700746768
 21
268.40083008782904
  0
LINE
  8
_0-f_
  6
CONTINUOUS
 62
    7
 10
379.33762734880042
 20
269.52075008782907
 11
380.17634560860745
 21
269.52075008782907
  0
LINE
  8
_0-f_
  6
CONTINUOUS
 62
    7
 10
379.33762734880042
 20
269.52075008782907
 11
379.49568673757148
 21
268.84087008782905
  0
LINE
  8
_0-f_
  6
CONTINUOUS
 62
    7
 10
380.17634560860745
 20
269.52075008782907
 11
380.33278374102929
 21
268.84087008782905
  0
LINE
  8
_0-f_
  6
CONTINUOUS
 62
    7
 10
380.81882500746769
 20
269.52075008782907
 11
380.81882500746769
 21
269.16469408782905
  0
LINE
  8
_0-f_
  6
CONTINUOUS
 62
    7
 10
381.65881700746769
 20
265.96079008782908
 11
381.65881700746769
 21
265.52071008782906
  0
LINE
  8
_0-f_
  6
CONTINUOUS
 62
    7
 10
381.65881700746769
 20
265.96079008782908
 11
381.65881700746769
 21
265.52071008782906
  0
LINE
  8
_0-f_
  6
CONTINUOUS
 62
    7
 10
381.65881700746769
 20
268.84087008782905
 11
381.65881700746769
 21
268.40083008782904
  0
LINE
  8
_0-f_
  6
CONTINUOUS
 62
    7
 10
381.33882500746768
 20
269.52079008782903
 11
381.33882500746768
 21
269.16474208782904
  0
LINE
  8
_0-f_
  6
CONTINUOUS
 62
    7
 10
384.91289277699286
 20
269.07847512868295
 11
387.16529764465133
 21
268.52075808782911
  0
LINE
  8
_0-f_
  6
CONTINUOUS
 62
    7
 10
387.16529764465133
 20
268.52075808782911
 11
387.16529764465133
 21
268.96079008782908
  0
LINE
  8
_0-f_
  6
CONTINUOUS
 62
    7
 10
387.16529764465133
 20
268.96079008782908
 11
385.04063475417433
 21
269.48872965073343
  0
ARC
  8
_0-f_
  6
CONTINUOUS
 62
    7
 10
384.76527364465136
 20
268.32075008782908
 40
1.1999999999999964
 50
76.734271344360408
 51
103.26596249111499
  0
LINE
  8
_0-f_
  6
CONTINUOUS
 62
    7
 10
384.48990776837371
 20
269.48872852692023
 11
382.36527364465132
 21
268.96080608782904
  0
LINE
  8
_0-f_
  6
CONTINUOUS
 62
    7
 10
382.36527364465132
 20
268.96080608782904
 11
382.36527364465132
 21
268.52075008782901
  0
LINE
  8
_0-f_
  6
CONTINUOUS
 62
    7
 10
382.36527364465132
 20
268.52075008782901
 11
384.6054890359656
 21
269.07525093215588
  0
ARC
  8
_0-f_
  6
CONTINUOUS
 62
    7
 10
384.76527364465142
 20
268.49691808782904
 40
0.5999999999999982
 50
75.757176751039125
 51
105.44466990909265
  0
LINE
  8
_0-f_
  6
CONTINUOUS
 62
    7
 10
386.47088164465129
 20
268.35278208782904
 11
383.05968164465116
 21
268.35278208782904
  0
LINE
  8
_0-f_
  6
CONTINUOUS
 62
    7
 10
383.05968164465116
 20
268.35278208782904
 11
383.05968164465116
 21
267.91274208782909
  0
LINE
  8
_0-f_
  6
CONTINUOUS
 62
    7
 10
383.05968164465116
 20
267.91274208782909
 11
386.47088164465129
 21
267.91274208782909
  0
LINE
  8
_0-f_
  6
CONTINUOUS
 62
    7
 10
386.47088164465129
 20
267.91274208782909
 11
386.47088164465129
 21
268.35278208782904
  0
LINE
  8
_0-f_
  6
CONTINUOUS
 62
    7
 10
387.16529764465133
 20
267.43266208782904
 11
382.36527364465127
 21
267.43266208782904
  0
LINE
  8
_0-f_
  6
CONTINUOUS
 62
    7
 10
382.36527364465127
 20
267.43266208782904
 11
382.36527364465132
 21
266.99282208782904
  0
LINE
  8
_0-f_
  6
CONTINUOUS
 62
    7
 10
382.36527364465132
 20
266.99282208782904
 11
383.6149555308865
 21
266.99282208782904
  0
LINE
  8
_0-f_
  6
CONTINUOUS
 62
    7
 10
383.6149555308865
 20
266.99282208782904
 11
382.84688964465124
 21
265.66223008782902
  0
LINE
  8
_0-f_
  6
CONTINUOUS
 62
    7
 10
382.84688964465124
 20
265.66223008782902
 11
382.84688964465124
 21
265.52071008782906
  0
LINE
  8
_0-f_
  6
CONTINUOUS
 62
    7
 10
382.84688964465124
 20
265.52071008782906
 11
386.6836816446513
 21
265.52071008782906
  0
LINE
  8
_0-f_
  6
CONTINUOUS
 62
    7
 10
386.6836816446513
 20
265.52071008782906
 11
386.6836816446513
 21
265.66215008782905
  0
LINE
  8
_0-f_
  6
CONTINUOUS
 62
    7
 10
386.6836816446513
 20
265.66215008782905
 11
385.9155880535215
 21
266.99282208782904
  0
LINE
  8
_0-f_
  6
CONTINUOUS
 62
    7
 10
385.9155880535215
 20
266.99282208782904
 11
387.16529764465133
 21
266.99282208782904
  0
LINE
  8
_0-f_
  6
CONTINUOUS
 62
    7
 10
387.16529764465133
 20
266.99282208782904
 11
387.16529764465133
 21
267.43266208782904
  0
LINE
  8
_0-f_
  6
CONTINUOUS
 62
    7
 10
384.12297273842535
 20
266.99282208782904
 11
385.40767456559735
 21
266.99282208782904
  0
LINE
  8
_0-f_
  6
CONTINUOUS
 62
    7
 10
385.40767456559735
 20
266.99282208782904
 11
385.95088164465125
 21
266.05135008782906
  0
LINE
  8
_0-f_
  6
CONTINUOUS
 62
    7
 10
385.95088164465125
 20
266.05135008782906
 11
385.95088164465125
 21
265.99279008782901
  0
LINE
  8
_0-f_
  6
CONTINUOUS
 62
    7
 10
385.95088164465125
 20
265.99279008782901
 11
383.57970564465131
 21
265.99279008782901
  0
LINE
  8
_0-f_
  6
CONTINUOUS
 62
    7
 10
383.57970564465131
 20
265.99279008782901
 11
383.57970564465131
 21
266.05135008782906
  0
LINE
  8
_0-f_
  6
CONTINUOUS
 62
    7
 10
383.57970564465131
 20
266.05135008782906
 11
384.12297273842535
 21
266.99282208782904
  0
LINE
  8
_0-f_
  6
CONTINUOUS
 62
    7
 10
386.4708816446514
 20
267.96071008782906
 11
383.05968164465122
 21
267.96071008782906
  0
LINE
  8
_0-f_
  6
CONTINUOUS
 62
    7
 10
386.4708816446514
 20
268.0407100878291
 11
383.05968164465122
 21
268.0407100878291
  0
LINE
  8
_0-f_
  6
CONTINUOUS
 62
    7
 10
386.4708816446514
 20
268.12071008782908
 11
383.05968164465122
 21
268.12071008782908
  0
LINE
  8
_0-f_
  6
CONTINUOUS
 62
    7
 10
386.4708816446514
 20
268.20071008782907
 11
383.05968164465122
 21
268.20071008782907
  0
LINE
  8
_0-f_
  6
CONTINUOUS
 62
    7
 10
386.4708816446514
 20
268.28071008782911
 11
383.05968164465122
 21
268.28071008782911
  0
LINE
  8
_0-f_
  6
CONTINUOUS
 62
    7
 10
387.16529764465099
 20
268.60071008782904
 11
386.84240223212578
 21
268.60071008782904
  0
LINE
  8
_0-f_
  6
CONTINUOUS
 62
    7
 10
382.68831665625754
 20
268.60071008782904
 11
382.36527364465132
 21
268.60071008782904
  0
LINE
  8
_0-f_
  6
CONTINUOUS
 62
    7
 10
387.16529764465099
 20
268.68071008782908
 11
386.5193129660405
 21
268.68071008782908
  0
LINE
  8
_0-f_
  6
CONTINUOUS
 62
    7
 10
383.01152127017065
 20
268.68071008782908
 11
382.36527364465132
 21
268.68071008782908
  0
LINE
  8
_0-f_
  6
CONTINUOUS
 62
    7
 10
387.16529764465099
 20
268.76071008782901
 11
386.19622369995545
 21
268.76071008782901
  0
LINE
  8
_0-f_
  6
CONTINUOUS
 62
    7
 10
383.33472588408381
 20
268.76071008782901
 11
382.36527364465132
 21
268.76071008782901
  0
LINE
  8
_0-f_
  6
CONTINUOUS
 62
    7
 10
387.16529764465099
 20
268.84071008782905
 11
385.87313443387023
 21
268.84071008782905
  0
LINE
  8
_0-f_
  6
CONTINUOUS
 62
    7
 10
383.65793049799697
 20
268.84071008782905
 11
382.36527364465132
 21
268.84071008782905
  0
LINE
  8
_0-f_
  6
CONTINUOUS
 62
    7
 10
387.16529764465099
 20
268.92071008782904
 11
385.55004516778502
 21
268.92071008782909
  0
LINE
  8
_0-f_
  6
CONTINUOUS
 62
    7
 10
383.98113511191008
 20
268.92071008782904
 11
382.36527364465132
 21
268.92071008782909
  0
LINE
  8
_0-f_
  6
CONTINUOUS
 62
    7
 10
387.00464186405156
 20
269.00071008782902
 11
385.22695590169985
 21
269.00071008782902
  0
LINE
  8
_0-f_
  6
CONTINUOUS
 62
    7
 10
384.30433972582318
 20
269.00071008782902
 11
382.525868068747
 21
269.00071008782902
  0
LINE
  8
_0-f_
  6
CONTINUOUS
 62
    7
 10
386.68268639190796
 20
269.08071008782906
 11
384.89987728910893
 21
269.08071008782906
  0
LINE
  8
_0-f_
  6
CONTINUOUS
 62
    7
 10
384.62722189305856
 20
269.08071008782906
 11
382.8478296246725
 21
269.08071008782906
  0
LINE
  8
_0-f_
  6
CONTINUOUS
 62
    7
 10
386.36073091976436
 20
269.1607100878291
 11
383.16979118059805
 21
269.1607100878291
  0
LINE
  8
_0-f_
  6
CONTINUOUS
 62
    7
 10
386.03877544762076
 20
269.24071008782909
 11
383.49175273652355
 21
269.24071008782909
  0
LINE
  8
_0-f_
  6
CONTINUOUS
 62
    7
 10
385.71681997547716
 20
269.32071008782907
 11
383.81371429244916
 21
269.32071008782907
  0
LINE
  8
_0-f_
  6
CONTINUOUS
 62
    7
 10
385.39486450333357
 20
269.40071008782911
 11
384.13567584837466
 21
269.40071008782911
  0
LINE
  8
_0-f_
  6
CONTINUOUS
 62
    7
 10
385.07290903118997
 20
269.48071008782904
 11
384.45763740430016
 21
269.48071008782904
  0
LINE
  8
_0-f_
  6
CONTINUOUS
 62
    7
 10
387.16529764465156
 20
267.40071008782905
 11
382.36527364465132
 21
267.40071008782905
  0
LINE
  8
_0-f_
  6
CONTINUOUS
 62
    7
 10
387.16529764465156
 20
267.32071008782907
 11
382.36527364465132
 21
267.32071008782907
  0
LINE
  8
_0-f_
  6
CONTINUOUS
 62
    7
 10
387.16529764465156
 20
267.24071008782903
 11
382.36527364465132
 21
267.24071008782903
  0
LINE
  8
_0-f_
  6
CONTINUOUS
 62
    7
 10
387.16529764465156
 20
267.16071008782899
 11
382.36527364465132
 21
267.16071008782899
  0
LINE
  8
_0-f_
  6
CONTINUOUS
 62
    7
 10
387.16529764465156
 20
267.08071008782906
 11
382.36527364465132
 21
267.08071008782906
  0
LINE
  8
_0-f_
  6
CONTINUOUS
 62
    7
 10
387.16529764465156
 20
267.00071008782902
 11
382.36527364465132
 21
267.00071008782902
  0
LINE
  8
_0-f_
  6
CONTINUOUS
 62
    7
 10
385.95721271011871
 20
266.92071008782909
 11
385.44928148421479
 21
266.92071008782909
  0
LINE
  8
_0-f_
  6
CONTINUOUS
 62
    7
 10
384.08136122298345
 20
266.92071008782898
 11
383.573329873143
 21
266.92071008782898
  0
LINE
  8
_0-f_
  6
CONTINUOUS
 62
    7
 10
386.00339049644799
 20
266.84071008782905
 11
385.49543959228845
 21
266.84071008782905
  0
LINE
  8
_0-f_
  6
CONTINUOUS
 62
    7
 10
384.03519801525988
 20
266.84071008782905
 11
383.52715097615669
 21
266.84071008782905
  0
LINE
  8
_0-f_
  6
CONTINUOUS
 62
    7
 10
386.04956828277733
 20
266.76071008782901
 11
385.5415977003621
 21
266.76071008782901
  0
LINE
  8
_0-f_
  6
CONTINUOUS
 62
    7
 10
383.98903480753631
 20
266.76071008782901
 11
383.48097207917033
 21
266.76071008782901
  0
LINE
  8
_0-f_
  6
CONTINUOUS
 62
    7
 10
386.09574606910667
 20
266.68071008782903
 11
385.58775580843576
 21
266.68071008782903
  0
LINE
  8
_0-f_
  6
CONTINUOUS
 62
    7
 10
383.94287159981275
 20
266.68071008782903
 11
383.43479318218402
 21
266.68071008782903
  0
LINE
  8
_0-f_
  6
CONTINUOUS
 62
    7
 10
386.14192385543595
 20
266.60071008782904
 11
385.63391391650941
 21
266.60071008782904
  0
LINE
  8
_0-f_
  6
CONTINUOUS
 62
    7
 10
383.89670839208918
 20
266.60071008782904
 11
383.38861428519772
 21
266.60071008782904
  0
LINE
  8
_0-f_
  6
CONTINUOUS
 62
    7
 10
386.18810164176523
 20
266.520710087829
 11
385.68007202458307
 21
266.520710087829
  0
LINE
  8
_0-f_
  6
CONTINUOUS
 62
    7
 10
383.85054518436561
 20
266.520710087829
 11
383.34243538821136
 21
266.520710087829
  0
LINE
  8
_0-f_
  6
CONTINUOUS
 62
    7
 10
386.23427942809451
 20
266.44071008782907
 11
385.72623013265672
 21
266.44071008782907
  0
LINE
  8
_0-f_
  6
CONTINUOUS
 62
    7
 10
383.80438197664205
 20
266.44071008782907
 11
383.29625649122505
 21
266.44071008782907
  0
LINE
  8
_0-f_
  6
CONTINUOUS
 62
    7
 10
386.28045721442385
 20
266.36071008782903
 11
385.77238824073038
 21
266.36071008782903
  0
LINE
  8
_0-f_
  6
CONTINUOUS
 62
    7
 10
383.75821876891848
 20
266.36071008782903
 11
383.25007759423875
 21
266.36071008782903
  0
LINE
  8
_0-f_
  6
CONTINUOUS
 62
    7
 10
386.32663500075313
 20
266.28071008782905
 11
385.81854634880403
 21
266.28071008782905
  0
LINE
  8
_0-f_
  6
CONTINUOUS
 62
    7
 10
383.71205556119492
 20
266.28071008782905
 11
383.20389869725238
 21
266.28071008782905
  0
LINE
  8
_0-f_
  6
CONTINUOUS
 62
    7
 10
386.37281278708247
 20
266.20071008782907
 11
385.86470445687769
 21
266.20071008782907
  0
LINE
  8
_0-f_
  6
CONTINUOUS
 62
    7
 10
383.66589235347135
 20
266.20071008782907
 11
383.15771980026614
 21
266.20071008782907
  0
LINE
  8
_0-f_
  6
CONTINUOUS
 62
    7
 10
386.41899057341175
 20
266.12071008782902
 11
385.91086256495129
 21
266.12071008782902
  0
LINE
  8
_0-f_
  6
CONTINUOUS
 62
    7
 10
383.61972914574778
 20
266.12071008782902
 11
383.11154090327977
 21
266.12071008782902
  0
LINE
  8
_0-f_
  6
CONTINUOUS
 62
    7
 10
386.46516835974103
 20
266.04071008782898
 11
385.9508816446513
 21
266.04071008782898
  0
LINE
  8
_0-f_
  6
CONTINUOUS
 62
    7
 10
383.57970564464699
 20
266.04071008782898
 11
383.06536200629353
 21
266.04071008782898
  0
LINE
  8
_0-f_
  6
CONTINUOUS
 62
    7
 10
386.51134614607031
 20
265.960710087829
 11
383.01918310930716
 21
265.960710087829
  0
LINE
  8
_0-f_
  6
CONTINUOUS
 62
    7
 10
386.55752393239965
 20
265.88071008782902
 11
382.9730042123208
 21
265.88071008782902
  0
LINE
  8
_0-f_
  6
CONTINUOUS
 62
    7
 10
386.60370171872898
 20
265.80071008782897
 11
382.92682531533455
 21
265.80071008782897
  0
LINE
  8
_0-f_
  6
CONTINUOUS
 62
    7
 10
386.64987950505827
 20
265.72071008782905
 11
382.88064641834819
 21
265.72071008782905
  0
LINE
  8
_0-f_
  6
CONTINUOUS
 62
    7
 10
386.68368164464982
 20
265.64071008782901
 11
382.84688964465249
 21
265.64071008782901
  0
LINE
  8
_0-f_
  6
CONTINUOUS
 62
    7
 10
386.68368164464982
 20
265.56071008782902
 11
382.84688964465249
 21
265.56071008782902
  0
LINE
  8
_0-f_
  6
CONTINUOUS
 62
    7
 10
382.36527364465132
 20
268.96080608782904
 11
384.49247364465128
 21
269.48936608782901
  0
LINE
  8
_0-f_
  6
CONTINUOUS
 62
    7
 10
382.36527364465132
 20
268.52075008782901
 11
384.62928964465129
 21
269.08114208782899
  0
LINE
  8
_0-f_
  6
CONTINUOUS
 62
    7
 10
383.05968164465116
 20
268.35278208782904
 11
386.47088164465129
 21
268.35278208782904
  0
LINE
  8
_0-f_
  6
CONTINUOUS
 62
    7
 10
383.05968164465116
 20
267.91274208782909
 11
386.47088164465129
 21
267.91274208782909
  0
LINE
  8
_0-f_
  6
CONTINUOUS
 62
    7
 10
382.36527364465132
 20
267.43266208782904
 11
387.16529764465133
 21
267.43266208782904
  0
LINE
  8
_0-f_
  6
CONTINUOUS
 62
    7
 10
382.84688964465124
 20
265.52071008782906
 11
386.6836816446513
 21
265.52071008782906
  0
LINE
  8
_0-f_
  6
CONTINUOUS
 62
    7
 10
383.57970564465131
 20
265.99279008782901
 11
385.95088164465125
 21
265.99279008782901
  0
LINE
  8
_0-f_
  6
CONTINUOUS
 62
    7
 10
384.12288964465142
 20
266.99267808782906
 11
383.57970564465131
 21
266.05135008782906
  0
LINE
  8
_0-f_
  6
CONTINUOUS
 62
    7
 10
382.36527364465132
 20
266.99282208782904
 11
383.61568964465141
 21
266.99282208782904
  0
LINE
  8
_0-f_
  6
CONTINUOUS
 62
    7
 10
382.36527364465132
 20
267.43266208782904
 11
382.36527364465132
 21
266.99282208782904
  0
LINE
  8
_0-f_
  6
CONTINUOUS
 62
    7
 10
383.61488164465123
 20
266.99269408782902
 11
382.84688964465124
 21
265.66223008782902
  0
LINE
  8
_0-f_
  6
CONTINUOUS
 62
    7
 10
382.84688964465124
 20
265.52071008782906
 11
382.84688964465124
 21
265.66215008782905
  0
LINE
  8
_0-f_
  6
CONTINUOUS
 62
    7
 10
383.57970564465131
 20
265.99279008782901
 11
383.57970564465131
 21
266.05143008782909
  0
LINE
  8
_0-f_
  6
CONTINUOUS
 62
    7
 10
382.36527364465132
 20
268.96079008782908
 11
382.36527364465132
 21
268.52075008782901
  0
LINE
  8
_0-f_
  6
CONTINUOUS
 62
    7
 10
383.05968164465116
 20
268.35278208782904
 11
383.05968164465116
 21
267.91274208782909
  0
LINE
  8
_0-f_
  6
CONTINUOUS
 62
    7
 10
385.91568964465142
 20
266.99264608782903
 11
386.6836816446513
 21
265.66215008782905
  0
LINE
  8
_0-f_
  6
CONTINUOUS
 62
    7
 10
385.91568964465142
 20
266.99282208782904
 11
387.16529764465133
 21
266.99282208782904
  0
LINE
  8
_0-f_
  6
CONTINUOUS
 62
    7
 10
384.12369764465137
 20
266.99282208782904
 11
385.40769764465136
 21
266.99282208782904
  0
LINE
  8
_0-f_
  6
CONTINUOUS
 62
    7
 10
385.40769764465136
 20
266.99278208782903
 11
385.95088164465125
 21
266.05135008782906
  0
LINE
  8
_0-f_
  6
CONTINUOUS
 62
    7
 10
385.95088164465125
 20
265.99279008782901
 11
385.95088164465125
 21
266.05143008782909
  0
LINE
  8
_0-f_
  6
CONTINUOUS
 62
    7
 10
386.6836816446513
 20
265.52071008782906
 11
386.6836816446513
 21
265.66215008782905
  0
LINE
  8
_0-f_
  6
CONTINUOUS
 62
    7
 10
387.16529764465133
 20
267.43266208782904
 11
387.16529764465133
 21
266.99282208782904
  0
LINE
  8
_0-f_
  6
CONTINUOUS
 62
    7
 10
384.90208964465137
 20
269.08115008782909
 11
387.16529764465133
 21
268.52075808782899
  0
LINE
  8
_0-f_
  6
CONTINUOUS
 62
    7
 10
385.03810564465135
 20
269.48935808782903
 11
387.16529764465133
 21
268.96079008782908
  0
ARC
  8
_0-f_
  6
CONTINUOUS
 62
    7
 10
384.76527364465142
 20
268.32075008782908
 40
1.2000000000000004
 50
76.866900000000015
 51
103.133
  0
ARC
  8
_0-f_
  6
CONTINUOUS
 62
    7
 10
384.76527364465142
 20
268.49691808782904
 40
0.6000000000000002
 50
76.866900000000015
 51
103.133
  0
LINE
  8
_0-f_
  6
CONTINUOUS
 62
    7
 10
386.47088164465129
 20
268.35278208782904
 11
386.47088164465129
 21
267.91274208782909
  0
LINE
  8
_0-f_
  6
CONTINUOUS
 62
    7
 10
387.16529764465133
 20
268.96079008782908
 11
387.16529764465133
 21
268.52075008782901
  0
LINE
  8
_0-f_
  6
CONTINUOUS
 62
    7
 10
390.31987555737032
 20
269.52075008782907
 11
387.55986755737035
 21
269.52075008782907
  0
LINE
  8
_0-f_
  6
CONTINUOUS
 62
    7
 10
387.55986755737035
 20
269.52075008782907
 11
387.55986755737035
 21
269.08071008782906
  0
LINE
  8
_0-f_
  6
CONTINUOUS
 62
    7
 10
387.55986755737035
 20
269.08071008782906
 11
390.31987555737032
 21
269.08071008782906
  0
LINE
  8
_0-f_
  6
CONTINUOUS
 62
    7
 10
390.31987555737032
 20
269.08071008782906
 11
390.31987555737032
 21
269.52075008782907
  0
LINE
  8
_0-f_
  6
CONTINUOUS
 62
    7
 10
390.31987555737032
 20
268.40083008782904
 11
387.55986755737035
 21
268.40083008782904
  0
LINE
  8
_0-f_
  6
CONTINUOUS
 62
    7
 10
387.55986755737035
 20
268.40083008782904
 11
387.55986755737035
 21
267.96079008782908
  0
LINE
  8
_0-f_
  6
CONTINUOUS
 62
    7
 10
387.55986755737035
 20
267.96079008782908
 11
388.67588355737041
 21
267.96079008782908
  0
LINE
  8
_0-f_
  6
CONTINUOUS
 62
    7
 10
388.67588355737041
 20
267.96079008782908
 11
388.67588355737041
 21
265.52071008782906
  0
LINE
  8
_0-f_
  6
CONTINUOUS
 62
    7
 10
388.67588355737041
 20
265.52071008782906
 11
389.20387555737028
 21
265.52071008782906
  0
LINE
  8
_0-f_
  6
CONTINUOUS
 62
    7
 10
389.20387555737028
 20
265.52071008782906
 11
389.20387555737028
 21
267.96079008782908
  0
LINE
  8
_0-f_
  6
CONTINUOUS
 62
    7
 10
389.20387555737028
 20
267.96079008782908
 11
390.31987555737032
 21
267.96079008782908
  0
LINE
  8
_0-f_
  6
CONTINUOUS
 62
    7
 10
390.31987555737032
 20
267.96079008782908
 11
390.31987555737032
 21
268.40083008782904
  0
LINE
  8
_0-f_
  6
CONTINUOUS
 62
    7
 10
387.77586755737036
 20
267.48071008782904
 11
387.77586755737036
 21
266.16239006783258
  0
ARC
  8
_0-f_
  6
CONTINUOUS
 62
    7
 10
387.61587555737037
 20
266.16079008782901
 40
0.1600000000000022
 50
270
 51
0.5729601837918403
  0
LINE
  8
_0-f_
  6
CONTINUOUS
 62
    7
 10
387.61587555737037
 20
266.00079008782905
 11
387.55986755737035
 21
266.00079008782905
  0
LINE
  8
_0-f_
  6
CONTINUOUS
 62
    7
 10
387.55986755737035
 20
266.00079008782905
 11
387.55986755737035
 21
265.52071008782906
  0
LINE
  8
_0-f_
  6
CONTINUOUS
 62
    7
 10
387.55986755737035
 20
265.52071008782906
 11
387.85587555737038
 21
265.52071008782906
  0
ARC
  8
_0-f_
  6
CONTINUOUS
 62
    7
 10
387.85587555737038
 20
265.92071008782904
 40
0.4
 50
270
 51
0
  0
LINE
  8
_0-f_
  6
CONTINUOUS
 62
    7
 10
388.25587555737036
 20
265.92071008782904
 11
388.25587555737036
 21
267.48071008782904
  0
LINE
  8
_0-f_
  6
CONTINUOUS
 62
    7
 10
388.25587555737036
 20
267.48071008782904
 11
387.77586755737036
 21
267.48071008782904
  0
LINE
  8
_0-f_
  6
CONTINUOUS
 62
    7
 10
389.62388355737039
 20
267.48071008782904
 11
389.62388355737039
 21
265.91713241484683
  0
ARC
  8
_0-f_
  6
CONTINUOUS
 62
    7
 10
390.02386755737041
 20
265.92071008782904
 40
0.4
 50
180.51247073885855
 51
270
  0
LINE
  8
_0-f_
  6
CONTINUOUS
 62
    7
 10
390.02386755737041
 20
265.52071008782906
 11
390.31987555737032
 21
265.52071008782906
  0
LINE
  8
_0-f_
  6
CONTINUOUS
 62
    7
 10
390.31987555737032
 20
265.52071008782906
 11
390.31987555737032
 21
266.00079008782905
  0
LINE
  8
_0-f_
  6
CONTINUOUS
 62
    7
 10
390.31987555737032
 20
266.00079008782905
 11
390.26386755737036
 21
266.00079008782905
  0
ARC
  8
_0-f_
  6
CONTINUOUS
 62
    7
 10
390.26386755737036
 20
266.16079008782901
 40
0.1600000000000022
 50
179.42703981620815
 51
270
  0
LINE
  8
_0-f_
  6
CONTINUOUS
 62
    7
 10
390.10387555737043
 20
266.16239006783258
 11
390.10387555737043
 21
267.48071008782904
  0
LINE
  8
_0-f_
  6
CONTINUOUS
 62
    7
 10
390.10387555737043
 20
267.48071008782904
 11
389.62388355737039
 21
267.48071008782904
  0
LINE
  8
_0-f_
  6
CONTINUOUS
 62
    7
 10
391.73988355737049
 20
268.16079008782901
 11
392.35987555737046
 21
268.16079008782901
  0
LINE
  8
_0-f_
  6
CONTINUOUS
 62
    7
 10
392.35987555737046
 20
268.16079008782901
 11
392.35987555737046
 21
268.60083008782902
  0
LINE
  8
_0-f_
  6
CONTINUOUS
 62
    7
 10
392.35987555737046
 20
268.60083008782902
 11
391.73988355737049
 21
268.60083008782908
  0
LINE
  8
_0-f_
  6
CONTINUOUS
 62
    7
 10
391.73988355737049
 20
268.60083008782908
 11
391.73988355737049
 21
269.52075008782907
  0
LINE
  8
_0-f_
  6
CONTINUOUS
 62
    7
 10
391.73988355737049
 20
269.52075008782907
 11
391.29988355737038
 21
269.52075008782907
  0
LINE
  8
_0-f_
  6
CONTINUOUS
 62
    7
 10
391.29988355737038
 20
269.52075008782907
 11
391.29988355737038
 21
268.60083008782908
  0
LINE
  8
_0-f_
  6
CONTINUOUS
 62
    7
 10
391.29988355737038
 20
268.60083008782908
 11
390.71987555737041
 21
268.60083008782908
  0
LINE
  8
_0-f_
  6
CONTINUOUS
 62
    7
 10
390.71987555737041
 20
268.60083008782908
 11
390.71987555737041
 21
268.16079008782901
  0
LINE
  8
_0-f_
  6
CONTINUOUS
 62
    7
 10
390.71987555737041
 20
268.16079008782901
 11
391.29988355737044
 21
268.16079008782901
  0
LINE
  8
_0-f_
  6
CONTINUOUS
 62
    7
 10
391.29988355737044
 20
268.16079008782901
 11
391.29988355737038
 21
266.00079008782905
  0
LINE
  8
_0-f_
  6
CONTINUOUS
 62
    7
 10
391.29988355737038
 20
266.00079008782905
 11
390.71987555737041
 21
266.00079008782905
  0
LINE
  8
_0-f_
  6
CONTINUOUS
 62
    7
 10
390.71987555737041
 20
266.00079008782905
 11
390.71987555737041
 21
265.52071008782906
  0
LINE
  8
_0-f_
  6
CONTINUOUS
 62
    7
 10
390.71987555737041
 20
265.52071008782906
 11
392.35987555737046
 21
265.52071008782906
  0
LINE
  8
_0-f_
  6
CONTINUOUS
 62
    7
 10
392.35987555737046
 20
265.52071008782906
 11
392.35987555737046
 21
266.00079008782905
  0
LINE
  8
_0-f_
  6
CONTINUOUS
 62
    7
 10
392.35987555737046
 20
266.00079008782905
 11
391.73988355737049
 21
266.00079008782905
  0
LINE
  8
_0-f_
  6
CONTINUOUS
 62
    7
 10
391.73988355737049
 20
266.00079008782905
 11
391.73988355737049
 21
268.16079008782901
  0
LINE
  8
_0-f_
  6
CONTINUOUS
 62
    7
 10
391.73988355737049
 20
267.48071008782904
 11
391.29988355737021
 21
267.48071008782904
  0
LINE
  8
_0-f_
  6
CONTINUOUS
 62
    7
 10
390.10387555737026
 20
267.48071008782904
 11
389.62388355737039
 21
267.48071008782904
  0
LINE
  8
_0-f_
  6
CONTINUOUS
 62
    7
 10
389.20387555737028
 20
267.48071008782904
 11
388.67588355737041
 21
267.48071008782904
  0
LINE
  8
_0-f_
  6
CONTINUOUS
 62
    7
 10
388.25587555737036
 20
267.48071008782904
 11
387.7758675573703
 21
267.48071008782904
  0
LINE
  8
_0-f_
  6
CONTINUOUS
 62
    7
 10
391.73988355737049
 20
267.56071008782908
 11
391.29988355737021
 21
267.56071008782908
  0
LINE
  8
_0-f_
  6
CONTINUOUS
 62
    7
 10
389.20387555737028
 20
267.56071008782908
 11
388.67588355737041
 21
267.56071008782908
  0
LINE
  8
_0-f_
  6
CONTINUOUS
 62
    7
 10
391.73988355737049
 20
267.64071008782901
 11
391.29988355737021
 21
267.64071008782901
  0
LINE
  8
_0-f_
  6
CONTINUOUS
 62
    7
 10
389.20387555737028
 20
267.64071008782901
 11
388.67588355737041
 21
267.64071008782901
  0
LINE
  8
_0-f_
  6
CONTINUOUS
 62
    7
 10
391.73988355737049
 20
267.72071008782905
 11
391.29988355737021
 21
267.72071008782905
  0
LINE
  8
_0-f_
  6
CONTINUOUS
 62
    7
 10
389.20387555737028
 20
267.72071008782905
 11
388.67588355737041
 21
267.72071008782905
  0
LINE
  8
_0-f_
  6
CONTINUOUS
 62
    7
 10
391.73988355737049
 20
267.80071008782903
 11
391.29988355737021
 21
267.80071008782903
  0
LINE
  8
_0-f_
  6
CONTINUOUS
 62
    7
 10
389.20387555737028
 20
267.80071008782903
 11
388.67588355737041
 21
267.80071008782903
  0
LINE
  8
_0-f_
  6
CONTINUOUS
 62
    7
 10
391.73988355737049
 20
267.88071008782902
 11
391.29988355737021
 21
267.88071008782902
  0
LINE
  8
_0-f_
  6
CONTINUOUS
 62
    7
 10
389.20387555737028
 20
267.88071008782902
 11
388.67588355737041
 21
267.88071008782902
  0
LINE
  8
_0-f_
  6
CONTINUOUS
 62
    7
 10
391.73988355737049
 20
267.96071008782906
 11
391.29988355737021
 21
267.96071008782906
  0
LINE
  8
_0-f_
  6
CONTINUOUS
 62
    7
 10
389.20387555737028
 20
267.96071008782906
 11
388.67588355737041
 21
267.96071008782906
  0
LINE
  8
_0-f_
  6
CONTINUOUS
 62
    7
 10
391.73988355737049
 20
268.0407100878291
 11
391.29988355737021
 21
268.0407100878291
  0
LINE
  8
_0-f_
  6
CONTINUOUS
 62
    7
 10
390.31987555737032
 20
268.0407100878291
 11
387.55986755737024
 21
268.0407100878291
  0
LINE
  8
_0-f_
  6
CONTINUOUS
 62
    7
 10
391.73988355737049
 20
268.12071008782908
 11
391.29988355737021
 21
268.12071008782908
  0
LINE
  8
_0-f_
  6
CONTINUOUS
 62
    7
 10
390.31987555737032
 20
268.12071008782908
 11
387.55986755737024
 21
268.12071008782908
  0
LINE
  8
_0-f_
  6
CONTINUOUS
 62
    7
 10
392.35987555737051
 20
268.20071008782907
 11
390.7198755573703
 21
268.20071008782907
  0
LINE
  8
_0-f_
  6
CONTINUOUS
 62
    7
 10
390.31987555737032
 20
268.20071008782907
 11
387.55986755737024
 21
268.20071008782907
  0
LINE
  8
_0-f_
  6
CONTINUOUS
 62
    7
 10
392.35987555737051
 20
268.28071008782911
 11
390.7198755573703
 21
268.28071008782911
  0
LINE
  8
_0-f_
  6
CONTINUOUS
 62
    7
 10
390.31987555737032
 20
268.28071008782911
 11
387.55986755737024
 21
268.28071008782911
  0
LINE
  8
_0-f_
  6
CONTINUOUS
 62
    7
 10
392.35987555737051
 20
268.36071008782903
 11
390.7198755573703
 21
268.36071008782903
  0
LINE
  8
_0-f_
  6
CONTINUOUS
 62
    7
 10
390.31987555737032
 20
268.36071008782903
 11
387.55986755737024
 21
268.36071008782903
  0
LINE
  8
_0-f_
  6
CONTINUOUS
 62
    7
 10
392.35987555737051
 20
268.44071008782907
 11
390.7198755573703
 21
268.44071008782907
  0
LINE
  8
_0-f_
  6
CONTINUOUS
 62
    7
 10
392.35987555737051
 20
268.52071008782906
 11
390.7198755573703
 21
268.52071008782906
  0
LINE
  8
_0-f_
  6
CONTINUOUS
 62
    7
 10
392.35987555737051
 20
268.60071008782904
 11
390.7198755573703
 21
268.60071008782904
  0
LINE
  8
_0-f_
  6
CONTINUOUS
 62
    7
 10
391.73988355737049
 20
268.68071008782908
 11
391.29988355737044
 21
268.68071008782908
  0
LINE
  8
_0-f_
  6
CONTINUOUS
 62
    7
 10
391.73988355737049
 20
268.76071008782901
 11
391.29988355737044
 21
268.76071008782901
  0
LINE
  8
_0-f_
  6
CONTINUOUS
 62
    7
 10
391.73988355737049
 20
268.84071008782905
 11
391.29988355737044
 21
268.84071008782905
  0
LINE
  8
_0-f_
  6
CONTINUOUS
 62
    7
 10
391.73988355737049
 20
268.92071008782909
 11
391.29988355737044
 21
268.92071008782909
  0
LINE
  8
_0-f_
  6
CONTINUOUS
 62
    7
 10
391.73988355737049
 20
269.00071008782902
 11
391.29988355737044
 21
269.00071008782902
  0
LINE
  8
_0-f_
  6
CONTINUOUS
 62
    7
 10
391.73988355737049
 20
269.08071008782906
 11
391.29988355737044
 21
269.08071008782906
  0
LINE
  8
_0-f_
  6
CONTINUOUS
 62
    7
 10
390.31987555737032
 20
269.08071008782906
 11
387.55986755737024
 21
269.08071008782906
  0
LINE
  8
_0-f_
  6
CONTINUOUS
 62
    7
 10
391.73988355737049
 20
269.1607100878291
 11
391.29988355737044
 21
269.1607100878291
  0
LINE
  8
_0-f_
  6
CONTINUOUS
 62
    7
 10
390.31987555737032
 20
269.1607100878291
 11
387.55986755737024
 21
269.1607100878291
  0
LINE
  8
_0-f_
  6
CONTINUOUS
 62
    7
 10
391.73988355737049
 20
269.24071008782909
 11
391.29988355737044
 21
269.24071008782909
  0
LINE
  8
_0-f_
  6
CONTINUOUS
 62
    7
 10
390.31987555737032
 20
269.24071008782909
 11
387.55986755737024
 21
269.24071008782909
  0
LINE
  8
_0-f_
  6
CONTINUOUS
 62
    7
 10
391.73988355737049
 20
269.32071008782907
 11
391.29988355737044
 21
269.32071008782907
  0
LINE
  8
_0-f_
  6
CONTINUOUS
 62
    7
 10
390.31987555737032
 20
269.32071008782907
 11
387.55986755737024
 21
269.32071008782907
  0
LINE
  8
_0-f_
  6
CONTINUOUS
 62
    7
 10
391.73988355737049
 20
269.40071008782911
 11
391.29988355737044
 21
269.40071008782911
  0
LINE
  8
_0-f_
  6
CONTINUOUS
 62
    7
 10
390.31987555737032
 20
269.40071008782911
 11
387.55986755737024
 21
269.40071008782911
  0
LINE
  8
_0-f_
  6
CONTINUOUS
 62
    7
 10
391.73988355737049
 20
269.48071008782904
 11
391.29988355737044
 21
269.48071008782904
  0
LINE
  8
_0-f_
  6
CONTINUOUS
 62
    7
 10
390.31987555737032
 20
269.48071008782904
 11
387.55986755737024
 21
269.48071008782904
  0
LINE
  8
_0-f_
  6
CONTINUOUS
 62
    7
 10
391.73988355737049
 20
267.40071008782905
 11
391.29988355737021
 21
267.40071008782905
  0
LINE
  8
_0-f_
  6
CONTINUOUS
 62
    7
 10
390.10387555737026
 20
267.40071008782905
 11
389.62388355737039
 21
267.40071008782905
  0
LINE
  8
_0-f_
  6
CONTINUOUS
 62
    7
 10
389.20387555737028
 20
267.40071008782905
 11
388.67588355737041
 21
267.40071008782905
  0
LINE
  8
_0-f_
  6
CONTINUOUS
 62
    7
 10
388.25587555737036
 20
267.40071008782905
 11
387.7758675573703
 21
267.40071008782905
  0
LINE
  8
_0-f_
  6
CONTINUOUS
 62
    7
 10
391.73988355737049
 20
267.32071008782907
 11
391.29988355737021
 21
267.32071008782907
  0
LINE
  8
_0-f_
  6
CONTINUOUS
 62
    7
 10
390.10387555737026
 20
267.32071008782907
 11
389.62388355737039
 21
267.32071008782907
  0
LINE
  8
_0-f_
  6
CONTINUOUS
 62
    7
 10
389.20387555737028
 20
267.32071008782907
 11
388.67588355737041
 21
267.32071008782907
  0
LINE
  8
_0-f_
  6
CONTINUOUS
 62
    7
 10
388.25587555737036
 20
267.32071008782907
 11
387.7758675573703
 21
267.32071008782907
  0
LINE
  8
_0-f_
  6
CONTINUOUS
 62
    7
 10
391.73988355737049
 20
267.24071008782903
 11
391.29988355737021
 21
267.24071008782903
  0
LINE
  8
_0-f_
  6
CONTINUOUS
 62
    7
 10
390.10387555737026
 20
267.24071008782903
 11
389.62388355737039
 21
267.24071008782903
  0
LINE
  8
_0-f_
  6
CONTINUOUS
 62
    7
 10
389.20387555737028
 20
267.24071008782903
 11
388.67588355737041
 21
267.24071008782903
  0
LINE
  8
_0-f_
  6
CONTINUOUS
 62
    7
 10
388.25587555737036
 20
267.24071008782903
 11
387.7758675573703
 21
267.24071008782903
  0
LINE
  8
_0-f_
  6
CONTINUOUS
 62
    7
 10
391.73988355737049
 20
267.16071008782899
 11
391.29988355737021
 21
267.16071008782899
  0
LINE
  8
_0-f_
  6
CONTINUOUS
 62
    7
 10
390.10387555737026
 20
267.16071008782899
 11
389.62388355737039
 21
267.16071008782899
  0
LINE
  8
_0-f_
  6
CONTINUOUS
 62
    7
 10
389.20387555737028
 20
267.16071008782899
 11
388.67588355737041
 21
267.16071008782899
  0
LINE
  8
_0-f_
  6
CONTINUOUS
 62
    7
 10
388.25587555737036
 20
267.16071008782899
 11
387.7758675573703
 21
267.16071008782899
  0
LINE
  8
_0-f_
  6
CONTINUOUS
 62
    7
 10
391.73988355737049
 20
267.08071008782906
 11
391.29988355737021
 21
267.08071008782906
  0
LINE
  8
_0-f_
  6
CONTINUOUS
 62
    7
 10
390.10387555737026
 20
267.08071008782906
 11
389.62388355737039
 21
267.08071008782906
  0
LINE
  8
_0-f_
  6
CONTINUOUS
 62
    7
 10
389.20387555737028
 20
267.08071008782906
 11
388.67588355737041
 21
267.08071008782906
  0
LINE
  8
_0-f_
  6
CONTINUOUS
 62
    7
 10
388.25587555737036
 20
267.08071008782906
 11
387.7758675573703
 21
267.08071008782906
  0
LINE
  8
_0-f_
  6
CONTINUOUS
 62
    7
 10
391.73988355737049
 20
267.00071008782902
 11
391.29988355737021
 21
267.00071008782902
  0
LINE
  8
_0-f_
  6
CONTINUOUS
 62
    7
 10
390.10387555737026
 20
267.00071008782902
 11
389.62388355737039
 21
267.00071008782902
  0
LINE
  8
_0-f_
  6
CONTINUOUS
 62
    7
 10
389.20387555737028
 20
267.00071008782902
 11
388.67588355737041
 21
267.00071008782902
  0
LINE
  8
_0-f_
  6
CONTINUOUS
 62
    7
 10
388.25587555737036
 20
267.00071008782902
 11
387.7758675573703
 21
267.00071008782902
  0
LINE
  8
_0-f_
  6
CONTINUOUS
 62
    7
 10
391.73988355737049
 20
266.92071008782898
 11
391.29988355737021
 21
266.92071008782898
  0
LINE
  8
_0-f_
  6
CONTINUOUS
 62
    7
 10
390.10387555737026
 20
266.92071008782898
 11
389.62388355737039
 21
266.92071008782898
  0
LINE
  8
_0-f_
  6
CONTINUOUS
 62
    7
 10
389.20387555737028
 20
266.92071008782898
 11
388.67588355737041
 21
266.92071008782898
  0
LINE
  8
_0-f_
  6
CONTINUOUS
 62
    7
 10
388.25587555737036
 20
266.92071008782898
 11
387.7758675573703
 21
266.92071008782898
  0
LINE
  8
_0-f_
  6
CONTINUOUS
 62
    7
 10
391.73988355737049
 20
266.84071008782905
 11
391.29988355737021
 21
266.84071008782905
  0
LINE
  8
_0-f_
  6
CONTINUOUS
 62
    7
 10
390.10387555737026
 20
266.84071008782905
 11
389.62388355737039
 21
266.84071008782905
  0
LINE
  8
_0-f_
  6
CONTINUOUS
 62
    7
 10
389.20387555737028
 20
266.84071008782905
 11
388.67588355737041
 21
266.84071008782905
  0
LINE
  8
_0-f_
  6
CONTINUOUS
 62
    7
 10
388.25587555737036
 20
266.84071008782905
 11
387.7758675573703
 21
266.84071008782905
  0
LINE
  8
_0-f_
  6
CONTINUOUS
 62
    7
 10
391.73988355737049
 20
266.76071008782901
 11
391.29988355737021
 21
266.76071008782901
  0
LINE
  8
_0-f_
  6
CONTINUOUS
 62
    7
 10
390.10387555737026
 20
266.76071008782901
 11
389.62388355737039
 21
266.76071008782901
  0
LINE
  8
_0-f_
  6
CONTINUOUS
 62
    7
 10
389.20387555737028
 20
266.76071008782901
 11
388.67588355737041
 21
266.76071008782901
  0
LINE
  8
_0-f_
  6
CONTINUOUS
 62
    7
 10
388.25587555737036
 20
266.76071008782901
 11
387.7758675573703
 21
266.76071008782901
  0
LINE
  8
_0-f_
  6
CONTINUOUS
 62
    7
 10
391.73988355737049
 20
266.68071008782903
 11
391.29988355737021
 21
266.68071008782903
  0
LINE
  8
_0-f_
  6
CONTINUOUS
 62
    7
 10
390.10387555737026
 20
266.68071008782903
 11
389.62388355737039
 21
266.68071008782903
  0
LINE
  8
_0-f_
  6
CONTINUOUS
 62
    7
 10
389.20387555737028
 20
266.68071008782903
 11
388.67588355737041
 21
266.68071008782903
  0
LINE
  8
_0-f_
  6
CONTINUOUS
 62
    7
 10
388.25587555737036
 20
266.68071008782903
 11
387.7758675573703
 21
266.68071008782903
  0
LINE
  8
_0-f_
  6
CONTINUOUS
 62
    7
 10
391.73988355737049
 20
266.60071008782904
 11
391.29988355737021
 21
266.60071008782904
  0
LINE
  8
_0-f_
  6
CONTINUOUS
 62
    7
 10
390.10387555737026
 20
266.60071008782904
 11
389.62388355737039
 21
266.60071008782904
  0
LINE
  8
_0-f_
  6
CONTINUOUS
 62
    7
 10
389.20387555737028
 20
266.60071008782904
 11
388.67588355737041
 21
266.60071008782904
  0
LINE
  8
_0-f_
  6
CONTINUOUS
 62
    7
 10
388.25587555737036
 20
266.60071008782904
 11
387.7758675573703
 21
266.60071008782904
  0
LINE
  8
_0-f_
  6
CONTINUOUS
 62
    7
 10
391.73988355737049
 20
266.520710087829
 11
391.29988355737021
 21
266.520710087829
  0
LINE
  8
_0-f_
  6
CONTINUOUS
 62
    7
 10
390.10387555737026
 20
266.520710087829
 11
389.62388355737039
 21
266.520710087829
  0
LINE
  8
_0-f_
  6
CONTINUOUS
 62
    7
 10
389.20387555737028
 20
266.520710087829
 11
388.67588355737041
 21
266.520710087829
  0
LINE
  8
_0-f_
  6
CONTINUOUS
 62
    7
 10
388.25587555737036
 20
266.520710087829
 11
387.7758675573703
 21
266.520710087829
  0
LINE
  8
_0-f_
  6
CONTINUOUS
 62
    7
 10
391.73988355737049
 20
266.44071008782907
 11
391.29988355737021
 21
266.44071008782907
  0
LINE
  8
_0-f_
  6
CONTINUOUS
 62
    7
 10
390.10387555737026
 20
266.44071008782907
 11
389.62388355737039
 21
266.44071008782907
  0
LINE
  8
_0-f_
  6
CONTINUOUS
 62
    7
 10
389.20387555737028
 20
266.44071008782907
 11
388.67588355737041
 21
266.44071008782907
  0
LINE
  8
_0-f_
  6
CONTINUOUS
 62
    7
 10
388.25587555737036
 20
266.44071008782907
 11
387.7758675573703
 21
266.44071008782907
  0
LINE
  8
_0-f_
  6
CONTINUOUS
 62
    7
 10
391.73988355737049
 20
266.36071008782903
 11
391.29988355737021
 21
266.36071008782903
  0
LINE
  8
_0-f_
  6
CONTINUOUS
 62
    7
 10
390.10387555737026
 20
266.36071008782903
 11
389.62388355737039
 21
266.36071008782903
  0
LINE
  8
_0-f_
  6
CONTINUOUS
 62
    7
 10
389.20387555737028
 20
266.36071008782903
 11
388.67588355737041
 21
266.36071008782903
  0
LINE
  8
_0-f_
  6
CONTINUOUS
 62
    7
 10
388.25587555737036
 20
266.36071008782903
 11
387.7758675573703
 21
266.36071008782903
  0
LINE
  8
_0-f_
  6
CONTINUOUS
 62
    7
 10
391.73988355737049
 20
266.28071008782905
 11
391.29988355737021
 21
266.28071008782905
  0
LINE
  8
_0-f_
  6
CONTINUOUS
 62
    7
 10
390.10387555737026
 20
266.28071008782905
 11
389.62388355737039
 21
266.28071008782905
  0
LINE
  8
_0-f_
  6
CONTINUOUS
 62
    7
 10
389.20387555737028
 20
266.28071008782905
 11
388.67588355737041
 21
266.28071008782905
  0
LINE
  8
_0-f_
  6
CONTINUOUS
 62
    7
 10
388.25587555737036
 20
266.28071008782905
 11
387.7758675573703
 21
266.28071008782905
  0
LINE
  8
_0-f_
  6
CONTINUOUS
 62
    7
 10
391.73988355737049
 20
266.20071008782907
 11
391.29988355737021
 21
266.20071008782907
  0
LINE
  8
_0-f_
  6
CONTINUOUS
 62
    7
 10
390.10387555737026
 20
266.20071008782907
 11
389.62388355737039
 21
266.20071008782907
  0
LINE
  8
_0-f_
  6
CONTINUOUS
 62
    7
 10
389.20387555737028
 20
266.20071008782907
 11
388.67588355737041
 21
266.20071008782907
  0
LINE
  8
_0-f_
  6
CONTINUOUS
 62
    7
 10
388.25587555737036
 20
266.20071008782907
 11
387.7758675573703
 21
266.20071008782907
  0
LINE
  8
_0-f_
  6
CONTINUOUS
 62
    7
 10
391.73988355737049
 20
266.12071008782902
 11
391.29988355737021
 21
266.12071008782902
  0
LINE
  8
_0-f_
  6
CONTINUOUS
 62
    7
 10
390.10941299440526
 20
266.12071008782902
 11
389.62388355737039
 21
266.12071008782902
  0
LINE
  8
_0-f_
  6
CONTINUOUS
 62
    7
 10
389.20387555737028
 20
266.12071008782902
 11
388.67588355737041
 21
266.12071008782902
  0
LINE
  8
_0-f_
  6
CONTINUOUS
 62
    7
 10
388.25587555737036
 20
266.12071008782902
 11
387.7702923592384
 21
266.12071008782902
  0
LINE
  8
_0-f_
  6
CONTINUOUS
 62
    7
 10
391.73988355737049
 20
266.04071008782898
 11
391.29988355737021
 21
266.04071008782898
  0
LINE
  8
_0-f_
  6
CONTINUOUS
 62
    7
 10
390.15887665221095
 20
266.04071008782898
 11
389.62388355737039
 21
266.04071008782898
  0
LINE
  8
_0-f_
  6
CONTINUOUS
 62
    7
 10
389.20387555737028
 20
266.04071008782898
 11
388.67588355737041
 21
266.04071008782898
  0
LINE
  8
_0-f_
  6
CONTINUOUS
 62
    7
 10
388.25587555737036
 20
266.04071008782898
 11
387.72088323150115
 21
266.04071008782898
  0
LINE
  8
_0-f_
  6
CONTINUOUS
 62
    7
 10
392.35987555737029
 20
265.960710087829
 11
390.71987555737053
 21
265.960710087829
  0
LINE
  8
_0-f_
  6
CONTINUOUS
 62
    7
 10
390.31987555737015
 20
265.960710087829
 11
389.62388355737039
 21
265.960710087829
  0
LINE
  8
_0-f_
  6
CONTINUOUS
 62
    7
 10
389.20387555737028
 20
265.960710087829
 11
388.67588355737041
 21
265.960710087829
  0
LINE
  8
_0-f_
  6
CONTINUOUS
 62
    7
 10
388.25587555737036
 20
265.960710087829
 11
387.55986755737041
 21
265.960710087829
  0
LINE
  8
_0-f_
  6
CONTINUOUS
 62
    7
 10
392.35987555737029
 20
265.88071008782902
 11
390.71987555737053
 21
265.88071008782902
  0
LINE
  8
_0-f_
  6
CONTINUOUS
 62
    7
 10
390.31987555737015
 20
265.88071008782902
 11
389.62707844929037
 21
265.88071008782902
  0
LINE
  8
_0-f_
  6
CONTINUOUS
 62
    7
 10
389.20387555737028
 20
265.88071008782902
 11
388.67588355737041
 21
265.88071008782902
  0
LINE
  8
_0-f_
  6
CONTINUOUS
 62
    7
 10
388.2527273725243
 20
265.88071008782902
 11
387.55986755737041
 21
265.88071008782902
  0
LINE
  8
_0-f_
  6
CONTINUOUS
 62
    7
 10
392.35987555737029
 20
265.80071008782897
 11
390.71987555737053
 21
265.80071008782897
  0
LINE
  8
_0-f_
  6
CONTINUOUS
 62
    7
 10
390.31987555737015
 20
265.80071008782897
 11
389.6428180511125
 21
265.80071008782897
  0
LINE
  8
_0-f_
  6
CONTINUOUS
 62
    7
 10
389.20387555737028
 20
265.80071008782897
 11
388.67588355737041
 21
265.80071008782897
  0
LINE
  8
_0-f_
  6
CONTINUOUS
 62
    7
 10
388.23716415525672
 20
265.80071008782897
 11
387.55986755737041
 21
265.80071008782897
  0
LINE
  8
_0-f_
  6
CONTINUOUS
 62
    7
 10
392.35987555737029
 20
265.72071008782905
 11
390.71987555737053
 21
265.72071008782905
  0
LINE
  8
_0-f_
  6
CONTINUOUS
 62
    7
 10
390.31987555737015
 20
265.72071008782905
 11
389.67862133891424
 21
265.72071008782905
  0
LINE
  8
_0-f_
  6
CONTINUOUS
 62
    7
 10
389.20387555737028
 20
265.72071008782905
 11
388.67588355737041
 21
265.72071008782905
  0
LINE
  8
_0-f_
  6
CONTINUOUS
 62
    7
 10
388.20100008272402
 20
265.72071008782905
 11
387.55986755737041
 21
265.72071008782905
  0
LINE
  8
_0-f_
  6
CONTINUOUS
 62
    7
 10
392.35987555737029
 20
265.64071008782901
 11
390.71987555737053
 21
265.64071008782901
  0
LINE
  8
_0-f_
  6
CONTINUOUS
 62
    7
 10
390.31987555737015
 20
265.64071008782901
 11
389.73890424294473
 21
265.64071008782901
  0
LINE
  8
_0-f_
  6
CONTINUOUS
 62
    7
 10
389.20387555737028
 20
265.64071008782901
 11
388.67588355737041
 21
265.64071008782901
  0
LINE
  8
_0-f_
  6
CONTINUOUS
 62
    7
 10
388.14114598164582
 20
265.64071008782901
 11
387.55986755737041
 21
265.64071008782901
  0
LINE
  8
_0-f_
  6
CONTINUOUS
 62
    7
 10
392.35987555737029
 20
265.56071008782902
 11
390.71987555737053
 21
265.56071008782902
  0
LINE
  8
_0-f_
  6
CONTINUOUS
 62
    7
 10
390.31987555737015
 20
265.56071008782902
 11
389.8503903151024
 21
265.56071008782902
  0
LINE
  8
_0-f_
  6
CONTINUOUS
 62
    7
 10
389.20387555737028
 20
265.56071008782902
 11
388.67588355737041
 21
265.56071008782902
  0
LINE
  8
_0-f_
  6
CONTINUOUS
 62
    7
 10
388.02878621407763
 20
265.56071008782902
 11
387.55986755737041
 21
265.56071008782902
  0
LINE
  8
_0-f_
  6
CONTINUOUS
 62
    7
 10
388.67588355737041
 20
267.96079008782908
 11
388.67588355737041
 21
265.52071008782906
  0
LINE
  8
_0-f_
  6
CONTINUOUS
 62
    7
 10
389.20387555737028
 20
267.96079008782908
 11
389.20387555737028
 21
265.52071008782906
  0
LINE
  8
_0-f_
  6
CONTINUOUS
 62
    7
 10
387.77586755737036
 20
267.48071008782904
 11
387.77586755737036
 21
266.16079008782901
  0
LINE
  8
_0-f_
  6
CONTINUOUS
 62
    7
 10
388.25587555737036
 20
267.48071008782904
 11
388.25587555737036
 21
265.92071008782904
  0
ARC
  8
_0-f_
  6
CONTINUOUS
 62
    7
 10
387.61587555737037
 20
266.16079008782901
 40
0.16
 50
270
 51
0
  0
LINE
  8
_0-f_
  6
CONTINUOUS
 62
    7
 10
387.55986755737035
 20
265.52071008782906
 11
387.85587555737038
 21
265.52071008782906
  0
LINE
  8
_0-f_
  6
CONTINUOUS
 62
    7
 10
387.55986755737035
 20
266.00079008782905
 11
387.61587555737037
 21
266.00079008782905
  0
LINE
  8
_0-f_
  6
CONTINUOUS
 62
    7
 10
387.55986755737035
 20
266.00079008782905
 11
387.55986755737035
 21
265.52071008782906
  0
ARC
  8
_0-f_
  6
CONTINUOUS
 62
    7
 10
387.85587555737038
 20
265.92071008782904
 40
0.4
 50
270
 51
0
  0
LINE
  8
_0-f_
  6
CONTINUOUS
 62
    7
 10
387.77586755737036
 20
267.48071008782904
 11
388.25587555737036
 21
267.48071008782904
  0
LINE
  8
_0-f_
  6
CONTINUOUS
 62
    7
 10
388.67588355737041
 20
265.52071008782906
 11
389.20387555737028
 21
265.52071008782906
  0
LINE
  8
_0-f_
  6
CONTINUOUS
 62
    7
 10
389.62388355737039
 20
267.48071008782904
 11
389.62388355737039
 21
265.92071008782904
  0
LINE
  8
_0-f_
  6
CONTINUOUS
 62
    7
 10
390.10387555737043
 20
267.48071008782904
 11
390.10387555737043
 21
266.16079008782901
  0
ARC
  8
_0-f_
  6
CONTINUOUS
 62
    7
 10
390.02386755737041
 20
265.92071008782904
 40
0.4
 50
180
 51
270
  0
LINE
  8
_0-f_
  6
CONTINUOUS
 62
    7
 10
390.02386755737041
 20
265.52071008782906
 11
390.31987555737032
 21
265.52071008782906
  0
LINE
  8
_0-f_
  6
CONTINUOUS
 62
    7
 10
390.31987555737032
 20
266.00079008782905
 11
390.31987555737032
 21
265.52071008782906
  0
LINE
  8
_0-f_
  6
CONTINUOUS
 62
    7
 10
390.26386755737036
 20
266.00079008782905
 11
390.31987555737032
 21
266.00079008782905
  0
ARC
  8
_0-f_
  6
CONTINUOUS
 62
    7
 10
390.26386755737036
 20
266.16079008782901
 40
0.16
 50
180
 51
270
  0
LINE
  8
_0-f_
  6
CONTINUOUS
 62
    7
 10
389.62388355737039
 20
267.48071008782904
 11
390.10387555737043
 21
267.48071008782904
  0
LINE
  8
_0-f_
  6
CONTINUOUS
 62
    7
 10
387.55986755737035
 20
269.52075008782907
 11
390.31987555737032
 21
269.52075008782907
  0
LINE
  8
_0-f_
  6
CONTINUOUS
 62
    7
 10
387.55986755737035
 20
269.08071008782906
 11
390.31987555737032
 21
269.08071008782906
  0
LINE
  8
_0-f_
  6
CONTINUOUS
 62
    7
 10
387.55986755737035
 20
268.40083008782904
 11
390.31987555737032
 21
268.40083008782904
  0
LINE
  8
_0-f_
  6
CONTINUOUS
 62
    7
 10
387.55986755737035
 20
267.96079008782908
 11
388.67588355737041
 21
267.96079008782908
  0
LINE
  8
_0-f_
  6
CONTINUOUS
 62
    7
 10
387.55986755737035
 20
268.40083008782904
 11
387.55986755737035
 21
267.96079008782908
  0
LINE
  8
_0-f_
  6
CONTINUOUS
 62
    7
 10
387.55986755737035
 20
269.52075008782907
 11
387.55986755737035
 21
269.08071008782906
  0
LINE
  8
_0-f_
  6
CONTINUOUS
 62
    7
 10
389.20387555737028
 20
267.96079008782908
 11
390.31987555737032
 21
267.96079008782908
  0
LINE
  8
_0-f_
  6
CONTINUOUS
 62
    7
 10
390.31987555737032
 20
268.40083008782904
 11
390.31987555737032
 21
267.96079008782908
  0
LINE
  8
_0-f_
  6
CONTINUOUS
 62
    7
 10
390.31987555737032
 20
269.52075008782907
 11
390.31987555737032
 21
269.08071008782906
  0
LINE
  8
_0-f_
  6
CONTINUOUS
 62
    7
 10
391.29988355737038
 20
268.16079008782901
 11
391.29988355737038
 21
266.00079008782905
  0
LINE
  8
_0-f_
  6
CONTINUOUS
 62
    7
 10
391.73988355737049
 20
268.16079008782901
 11
391.73988355737049
 21
266.00079008782905
  0
LINE
  8
_0-f_
  6
CONTINUOUS
 62
    7
 10
390.71987555737041
 20
265.52071008782906
 11
392.35987555737046
 21
265.52071008782906
  0
LINE
  8
_0-f_
  6
CONTINUOUS
 62
    7
 10
390.71987555737041
 20
266.00079008782905
 11
391.29988355737038
 21
266.00079008782905
  0
LINE
  8
_0-f_
  6
CONTINUOUS
 62
    7
 10
390.71987555737041
 20
266.00079008782905
 11
390.71987555737041
 21
265.52071008782906
  0
LINE
  8
_0-f_
  6
CONTINUOUS
 62
    7
 10
392.35987555737046
 20
266.00079008782905
 11
391.73988355737049
 21
266.00079008782905
  0
LINE
  8
_0-f_
  6
CONTINUOUS
 62
    7
 10
392.35987555737046
 20
266.00079008782905
 11
392.35987555737046
 21
265.52071008782906
  0
LINE
  8
_0-f_
  6
CONTINUOUS
 62
    7
 10
391.29988355737038
 20
269.52075008782907
 11
391.73988355737049
 21
269.52075008782907
  0
LINE
  8
_0-f_
  6
CONTINUOUS
 62
    7
 10
391.29988355737038
 20
269.52075008782907
 11
391.29988355737038
 21
268.60083008782908
  0
LINE
  8
_0-f_
  6
CONTINUOUS
 62
    7
 10
390.71987555737041
 20
268.60083008782908
 11
391.29988355737038
 21
268.60083008782908
  0
LINE
  8
_0-f_
  6
CONTINUOUS
 62
    7
 10
390.71987555737041
 20
268.16079008782901
 11
391.29988355737038
 21
268.16079008782901
  0
LINE
  8
_0-f_
  6
CONTINUOUS
 62
    7
 10
390.71987555737041
 20
268.60083008782908
 11
390.71987555737041
 21
268.16079008782901
  0
LINE
  8
_0-f_
  6
CONTINUOUS
 62
    7
 10
391.73988355737049
 20
269.52075008782907
 11
391.73988355737049
 21
268.60083008782908
  0
LINE
  8
_0-f_
  6
CONTINUOUS
 62
    7
 10
392.35987555737046
 20
268.16079008782901
 11
391.73988355737049
 21
268.16079008782901
  0
LINE
  8
_0-f_
  6
CONTINUOUS
 62
    7
 10
391.73988355737049
 20
268.60083008782908
 11
392.35987555737046
 21
268.60083008782908
  0
LINE
  8
_0-f_
  6
CONTINUOUS
 62
    7
 10
392.35987555737046
 20
268.59946208782907
 11
392.35987555737046
 21
268.16079008782901
  0
LINE
  8
_0-f_
  6
CONTINUOUS
 62
    7
 10
364.88322518280552
 20
269.52075008782907
 11
360.72321718280534
 21
269.52075008782907
  0
LINE
  8
_0-f_
  6
CONTINUOUS
 62
    7
 10
360.72321718280534
 20
269.52075008782907
 11
360.72321718280534
 21
269.04067008782903
  0
LINE
  8
_0-f_
  6
CONTINUOUS
 62
    7
 10
360.72321718280534
 20
269.04067008782903
 11
362.40320118280539
 21
269.04067008782908
  0
LINE
  8
_0-f_
  6
CONTINUOUS
 62
    7
 10
362.40320118280539
 20
269.04067008782908
 11
362.40320118280539
 21
266.00079008782905
  0
LINE
  8
_0-f_
  6
CONTINUOUS
 62
    7
 10
362.40320118280539
 20
266.00079008782905
 11
360.40322518280527
 21
266.00079008782905
  0
LINE
  8
_0-f_
  6
CONTINUOUS
 62
    7
 10
360.40322518280527
 20
266.00079008782905
 11
360.40322518280527
 21
265.52071008782906
  0
LINE
  8
_0-f_
  6
CONTINUOUS
 62
    7
 10
360.40322518280527
 20
265.52071008782906
 11
365.20320118280546
 21
265.52071008782906
  0
LINE
  8
_0-f_
  6
CONTINUOUS
 62
    7
 10
365.20320118280546
 20
265.52071008782906
 11
365.20320118280546
 21
266.00079008782905
  0
LINE
  8
_0-f_
  6
CONTINUOUS
 62
    7
 10
365.20320118280546
 20
266.00079008782905
 11
363.20320118280534
 21
266.00079008782905
  0
LINE
  8
_0-f_
  6
CONTINUOUS
 62
    7
 10
363.20320118280534
 20
266.00079008782905
 11
363.20320118280534
 21
269.04067008782903
  0
LINE
  8
_0-f_
  6
CONTINUOUS
 62
    7
 10
363.20320118280534
 20
269.04067008782903
 11
364.88322518280552
 21
269.04067008782908
  0
LINE
  8
_0-f_
  6
CONTINUOUS
 62
    7
 10
364.88322518280552
 20
269.04067008782908
 11
364.88322518280552
 21
269.52075008782907
  0
LINE
  8
_0-f_
  6
CONTINUOUS
 62
    7
 10
363.20320118280534
 20
267.48071008782904
 11
362.40320118280539
 21
267.48071008782904
  0
LINE
  8
_0-f_
  6
CONTINUOUS
 62
    7
 10
363.20320118280534
 20
267.56071008782908
 11
362.40320118280539
 21
267.56071008782908
  0
LINE
  8
_0-f_
  6
CONTINUOUS
 62
    7
 10
363.20320118280534
 20
267.64071008782901
 11
362.40320118280539
 21
267.64071008782901
  0
LINE
  8
_0-f_
  6
CONTINUOUS
 62
    7
 10
363.20320118280534
 20
267.72071008782905
 11
362.40320118280539
 21
267.72071008782905
  0
LINE
  8
_0-f_
  6
CONTINUOUS
 62
    7
 10
363.20320118280534
 20
267.80071008782903
 11
362.40320118280539
 21
267.80071008782903
  0
LINE
  8
_0-f_
  6
CONTINUOUS
 62
    7
 10
363.20320118280534
 20
267.88071008782902
 11
362.40320118280539
 21
267.88071008782902
  0
LINE
  8
_0-f_
  6
CONTINUOUS
 62
    7
 10
363.20320118280534
 20
267.96071008782906
 11
362.40320118280539
 21
267.96071008782906
  0
LINE
  8
_0-f_
  6
CONTINUOUS
 62
    7
 10
363.20320118280534
 20
268.0407100878291
 11
362.40320118280539
 21
268.0407100878291
  0
LINE
  8
_0-f_
  6
CONTINUOUS
 62
    7
 10
363.20320118280534
 20
268.12071008782908
 11
362.40320118280539
 21
268.12071008782908
  0
LINE
  8
_0-f_
  6
CONTINUOUS
 62
    7
 10
363.20320118280534
 20
268.20071008782907
 11
362.40320118280539
 21
268.20071008782907
  0
LINE
  8
_0-f_
  6
CONTINUOUS
 62
    7
 10
363.20320118280534
 20
268.28071008782911
 11
362.40320118280539
 21
268.28071008782911
  0
LINE
  8
_0-f_
  6
CONTINUOUS
 62
    7
 10
363.20320118280534
 20
268.36071008782903
 11
362.40320118280539
 21
268.36071008782903
  0
LINE
  8
_0-f_
  6
CONTINUOUS
 62
    7
 10
363.20320118280534
 20
268.44071008782907
 11
362.40320118280539
 21
268.44071008782907
  0
LINE
  8
_0-f_
  6
CONTINUOUS
 62
    7
 10
363.20320118280534
 20
268.52071008782906
 11
362.40320118280539
 21
268.52071008782906
  0
LINE
  8
_0-f_
  6
CONTINUOUS
 62
    7
 10
363.20320118280534
 20
268.60071008782904
 11
362.40320118280539
 21
268.60071008782904
  0
LINE
  8
_0-f_
  6
CONTINUOUS
 62
    7
 10
363.20320118280534
 20
268.68071008782908
 11
362.40320118280539
 21
268.68071008782908
  0
LINE
  8
_0-f_
  6
CONTINUOUS
 62
    7
 10
363.20320118280534
 20
268.76071008782901
 11
362.40320118280539
 21
268.76071008782901
  0
LINE
  8
_0-f_
  6
CONTINUOUS
 62
    7
 10
363.20320118280534
 20
268.84071008782905
 11
362.40320118280539
 21
268.84071008782905
  0
LINE
  8
_0-f_
  6
CONTINUOUS
 62
    7
 10
363.20320118280534
 20
268.92071008782909
 11
362.40320118280539
 21
268.92071008782909
  0
LINE
  8
_0-f_
  6
CONTINUOUS
 62
    7
 10
363.20320118280534
 20
269.00071008782902
 11
362.40320118280539
 21
269.00071008782902
  0
LINE
  8
_0-f_
  6
CONTINUOUS
 62
    7
 10
364.88322518280535
 20
269.08071008782906
 11
360.72321718280534
 21
269.08071008782906
  0
LINE
  8
_0-f_
  6
CONTINUOUS
 62
    7
 10
364.88322518280535
 20
269.1607100878291
 11
360.72321718280534
 21
269.1607100878291
  0
LINE
  8
_0-f_
  6
CONTINUOUS
 62
    7
 10
364.88322518280535
 20
269.24071008782909
 11
360.72321718280534
 21
269.24071008782909
  0
LINE
  8
_0-f_
  6
CONTINUOUS
 62
    7
 10
364.88322518280535
 20
269.32071008782907
 11
360.72321718280534
 21
269.32071008782907
  0
LINE
  8
_0-f_
  6
CONTINUOUS
 62
    7
 10
364.88322518280535
 20
269.40071008782911
 11
360.72321718280534
 21
269.40071008782911
  0
LINE
  8
_0-f_
  6
CONTINUOUS
 62
    7
 10
364.88322518280535
 20
269.48071008782904
 11
360.72321718280534
 21
269.48071008782904
  0
LINE
  8
_0-f_
  6
CONTINUOUS
 62
    7
 10
363.20320118280534
 20
267.40071008782905
 11
362.40320118280539
 21
267.40071008782905
  0
LINE
  8
_0-f_
  6
CONTINUOUS
 62
    7
 10
363.20320118280534
 20
267.32071008782907
 11
362.40320118280539
 21
267.32071008782907
  0
LINE
  8
_0-f_
  6
CONTINUOUS
 62
    7
 10
363.20320118280534
 20
267.24071008782903
 11
362.40320118280539
 21
267.24071008782903
  0
LINE
  8
_0-f_
  6
CONTINUOUS
 62
    7
 10
363.20320118280534
 20
267.16071008782899
 11
362.40320118280539
 21
267.16071008782899
  0
LINE
  8
_0-f_
  6
CONTINUOUS
 62
    7
 10
363.20320118280534
 20
267.08071008782906
 11
362.40320118280539
 21
267.08071008782906
  0
LINE
  8
_0-f_
  6
CONTINUOUS
 62
    7
 10
363.20320118280534
 20
267.00071008782902
 11
362.40320118280539
 21
267.00071008782902
  0
LINE
  8
_0-f_
  6
CONTINUOUS
 62
    7
 10
363.20320118280534
 20
266.92071008782898
 11
362.40320118280539
 21
266.92071008782898
  0
LINE
  8
_0-f_
  6
CONTINUOUS
 62
    7
 10
363.20320118280534
 20
266.84071008782905
 11
362.40320118280539
 21
266.84071008782905
  0
LINE
  8
_0-f_
  6
CONTINUOUS
 62
    7
 10
363.20320118280534
 20
266.76071008782901
 11
362.40320118280539
 21
266.76071008782901
  0
LINE
  8
_0-f_
  6
CONTINUOUS
 62
    7
 10
363.20320118280534
 20
266.68071008782903
 11
362.40320118280539
 21
266.68071008782903
  0
LINE
  8
_0-f_
  6
CONTINUOUS
 62
    7
 10
363.20320118280534
 20
266.60071008782904
 11
362.40320118280539
 21
266.60071008782904
  0
LINE
  8
_0-f_
  6
CONTINUOUS
 62
    7
 10
363.20320118280534
 20
266.520710087829
 11
362.40320118280539
 21
266.520710087829
  0
LINE
  8
_0-f_
  6
CONTINUOUS
 62
    7
 10
363.20320118280534
 20
266.44071008782907
 11
362.40320118280539
 21
266.44071008782907
  0
LINE
  8
_0-f_
  6
CONTINUOUS
 62
    7
 10
363.20320118280534
 20
266.36071008782903
 11
362.40320118280539
 21
266.36071008782903
  0
LINE
  8
_0-f_
  6
CONTINUOUS
 62
    7
 10
363.20320118280534
 20
266.28071008782905
 11
362.40320118280539
 21
266.28071008782905
  0
LINE
  8
_0-f_
  6
CONTINUOUS
 62
    7
 10
363.20320118280534
 20
266.20071008782907
 11
362.40320118280539
 21
266.20071008782907
  0
LINE
  8
_0-f_
  6
CONTINUOUS
 62
    7
 10
363.20320118280534
 20
266.12071008782902
 11
362.40320118280539
 21
266.12071008782902
  0
LINE
  8
_0-f_
  6
CONTINUOUS
 62
    7
 10
363.20320118280534
 20
266.04071008782898
 11
362.40320118280539
 21
266.04071008782898
  0
LINE
  8
_0-f_
  6
CONTINUOUS
 62
    7
 10
365.2032011828054
 20
265.960710087829
 11
360.40322518280527
 21
265.960710087829
  0
LINE
  8
_0-f_
  6
CONTINUOUS
 62
    7
 10
365.2032011828054
 20
265.88071008782902
 11
360.40322518280527
 21
265.88071008782902
  0
LINE
  8
_0-f_
  6
CONTINUOUS
 62
    7
 10
365.2032011828054
 20
265.80071008782897
 11
360.40322518280527
 21
265.80071008782897
  0
LINE
  8
_0-f_
  6
CONTINUOUS
 62
    7
 10
365.2032011828054
 20
265.72071008782905
 11
360.40322518280527
 21
265.72071008782905
  0
LINE
  8
_0-f_
  6
CONTINUOUS
 62
    7
 10
365.2032011828054
 20
265.64071008782901
 11
360.40322518280527
 21
265.64071008782901
  0
LINE
  8
_0-f_
  6
CONTINUOUS
 62
    7
 10
365.2032011828054
 20
265.56071008782902
 11
360.40322518280527
 21
265.56071008782902
  0
LINE
  8
_0-f_
  6
CONTINUOUS
 62
    7
 10
360.72321718280534
 20
269.52075008782907
 11
364.88322518280552
 21
269.52075008782907
  0
LINE
  8
_0-f_
  6
CONTINUOUS
 62
    7
 10
360.40322518280527
 20
265.52071008782906
 11
365.20320118280546
 21
265.52071008782906
  0
LINE
  8
_0-f_
  6
CONTINUOUS
 62
    7
 10
363.20320118280534
 20
266.00079008782905
 11
365.20320118280546
 21
266.00079008782905
  0
LINE
  8
_0-f_
  6
CONTINUOUS
 62
    7
 10
363.20320118280534
 20
269.04067008782908
 11
364.88322518280552
 21
269.04067008782908
  0
LINE
  8
_0-f_
  6
CONTINUOUS
 62
    7
 10
362.40320118280539
 20
269.04067008782908
 11
362.40320118280539
 21
266.00079008782905
  0
LINE
  8
_0-f_
  6
CONTINUOUS
 62
    7
 10
363.20320118280534
 20
269.04067008782908
 11
363.20320118280534
 21
266.00079008782905
  0
LINE
  8
_0-f_
  6
CONTINUOUS
 62
    7
 10
360.40322518280527
 20
266.00079008782905
 11
362.40320118280539
 21
266.00079008782905
  0
LINE
  8
_0-f_
  6
CONTINUOUS
 62
    7
 10
360.40322518280527
 20
266.00079008782905
 11
360.40322518280527
 21
265.52071008782906
  0
LINE
  8
_0-f_
  6
CONTINUOUS
 62
    7
 10
360.72321718280534
 20
269.04067008782903
 11
362.40320118280539
 21
269.04067008782908
  0
LINE
  8
_0-f_
  6
CONTINUOUS
 62
    7
 10
360.72321718280534
 20
269.52075008782907
 11
360.72321718280534
 21
269.04067008782903
  0
LINE
  8
_0-f_
  6
CONTINUOUS
 62
    7
 10
365.20320118280546
 20
266.00079008782905
 11
365.20320118280546
 21
265.52071008782906
  0
LINE
  8
_0-f_
  6
CONTINUOUS
 62
    7
 10
364.88322518280552
 20
269.52075008782907
 11
364.88322518280552
 21
269.04067008782903
  0
LINE
  8
_0-f_
  6
CONTINUOUS
 62
    7
 10
358.48328302479945
 20
268.08071008782906
 11
357.81371869203866
 21
266.24071008782909
  0
LINE
  8
_0-f_
  6
CONTINUOUS
 62
    7
 10
357.81371869203866
 20
266.24071008782909
 11
357.4136655805458
 21
266.24071008782909
  0
LINE
  8
_0-f_
  6
CONTINUOUS
 62
    7
 10
357.4136655805458
 20
266.24071008782909
 11
357.15128958054589
 21
265.52071008782906
  0
LINE
  8
_0-f_
  6
CONTINUOUS
 62
    7
 10
357.15128958054589
 20
265.52071008782906
 11
358.62580159939182
 21
265.52071008782906
  0
ARC
  8
_0-f_
  6
CONTINUOUS
 62
    7
 10
358.62580159939182
 20
265.92071008782904
 40
0.4000000000000004
 50
270
 51
339.99904441127069
  0
LINE
  8
_0-f_
  6
CONTINUOUS
 62
    7
 10
359.00167636594591
 20
265.78389576157667
 11
359.98257089726218
 21
268.47874149207757
  0
ARC
  8
_0-f_
  6
CONTINUOUS
 62
    7
 10
359.75704603732964
 20
268.56083008782906
 40
0.2399999999999993
 50
339.99904441126887
 51
90.000000000000014
  0
LINE
  8
_0-f_
  6
CONTINUOUS
 62
    7
 10
359.75704603732964
 20
268.80083008782901
 11
357.71771725024843
 21
268.80083008782901
  0
LINE
  8
_0-f_
  6
CONTINUOUS
 62
    7
 10
357.71771725024843
 20
268.80083008782901
 11
357.86249917357276
 21
269.19867641492181
  0
ARC
  8
_0-f_
  6
CONTINUOUS
 62
    7
 10
357.63696888244641
 20
269.28075008782901
 40
0.2399999999999989
 50
340.002835592856
 51
90.000000000000043
  0
LINE
  8
_0-f_
  6
CONTINUOUS
 62
    7
 10
357.63696888244641
 20
269.52075008782907
 11
356.62492955645735
 21
269.52075008782907
  0
LINE
  8
_0-f_
  6
CONTINUOUS
 62
    7
 10
356.62492955645735
 20
269.52075008782907
 11
356.36333753236858
 21
268.80083008782901
  0
LINE
  8
_0-f_
  6
CONTINUOUS
 62
    7
 10
356.36333753236858
 20
268.80083008782901
 11
355.7232895805459
 21
268.80083008782901
  0
LINE
  8
_0-f_
  6
CONTINUOUS
 62
    7
 10
355.7232895805459
 20
268.80083008782901
 11
355.46085825720451
 21
268.08071008782906
  0
LINE
  8
_0-f_
  6
CONTINUOUS
 62
    7
 10
355.46085825720451
 20
268.08071008782906
 11
356.10091796029656
 21
268.08071008782906
  0
LINE
  8
_0-f_
  6
CONTINUOUS
 62
    7
 10
356.10091796029656
 20
268.08071008782906
 11
355.43129758054584
 21
266.24071008782909
  0
LINE
  8
_0-f_
  6
CONTINUOUS
 62
    7
 10
355.43129758054584
 20
266.24071008782909
 11
354.79128158054579
 21
266.24071008782909
  0
LINE
  8
_0-f_
  6
CONTINUOUS
 62
    7
 10
354.79128158054579
 20
266.24071008782909
 11
354.52890273375095
 21
265.52071008782906
  0
LINE
  8
_0-f_
  6
CONTINUOUS
 62
    7
 10
354.52890273375095
 20
265.52071008782906
 11
356.18825471965948
 21
265.52071008782906
  0
ARC
  8
_0-f_
  6
CONTINUOUS
 62
    7
 10
356.18825471965948
 20
266.00071008782902
 40
0.4800000000000009
 50
270
 51
340.00100452272619
  0
LINE
  8
_0-f_
  6
CONTINUOUS
 62
    7
 10
356.63931005582737
 20
265.83654832701308
 11
357.45607358054582
 21
268.08071008782906
  0
LINE
  8
_0-f_
  6
CONTINUOUS
 62
    7
 10
357.45607358054582
 20
268.08071008782906
 11
358.48328302479945
 21
268.08071008782906
  0
LINE
  8
_0-f_
  6
CONTINUOUS
 62
    7
 10
359.61929832272136
 20
267.48071008782904
 11
358.26494682933395
 21
267.48071008782904
  0
LINE
  8
_0-f_
  6
CONTINUOUS
 62
    7
 10
357.23770335278965
 20
267.48071008782904
 11
355.88256348863871
 21
267.48071008782904
  0
LINE
  8
_0-f_
  6
CONTINUOUS
 62
    7
 10
359.64841745247969
 20
267.56071008782908
 11
358.29405832206271
 21
267.56071008782908
  0
LINE
  8
_0-f_
  6
CONTINUOUS
 62
    7
 10
357.2668193831571
 20
267.56071008782908
 11
355.91167741819311
 21
267.56071008782908
  0
LINE
  8
_0-f_
  6
CONTINUOUS
 62
    7
 10
359.67753658223813
 20
267.64071008782901
 11
358.32316981479141
 21
267.64071008782901
  0
LINE
  8
_0-f_
  6
CONTINUOUS
 62
    7
 10
357.2959354135246
 20
267.64071008782901
 11
355.94079134774751
 21
267.64071008782901
  0
LINE
  8
_0-f_
  6
CONTINUOUS
 62
    7
 10
359.70665571199658
 20
267.72071008782905
 11
358.35228130752017
 21
267.72071008782905
  0
LINE
  8
_0-f_
  6
CONTINUOUS
 62
    7
 10
357.32505144389211
 20
267.72071008782905
 11
355.96990527730185
 21
267.72071008782905
  0
LINE
  8
_0-f_
  6
CONTINUOUS
 62
    7
 10
359.7357748417549
 20
267.80071008782903
 11
358.38139280024888
 21
267.80071008782903
  0
LINE
  8
_0-f_
  6
CONTINUOUS
 62
    7
 10
357.35416747425961
 20
267.80071008782909
 11
355.99901920685619
 21
267.80071008782903
  0
LINE
  8
_0-f_
  6
CONTINUOUS
 62
    7
 10
359.76489397151329
 20
267.88071008782902
 11
358.41050429297758
 21
267.88071008782902
  0
LINE
  8
_0-f_
  6
CONTINUOUS
 62
    7
 10
357.38328350462706
 20
267.88071008782902
 11
356.02813313641059
 21
267.88071008782902
  0
LINE
  8
_0-f_
  6
CONTINUOUS
 62
    7
 10
359.79401310127167
 20
267.96071008782906
 11
358.43961578570639
 21
267.96071008782906
  0
LINE
  8
_0-f_
  6
CONTINUOUS
 62
    7
 10
357.41239953499456
 20
267.96071008782906
 11
356.05724706596499
 21
267.96071008782906
  0
LINE
  8
_0-f_
  6
CONTINUOUS
 62
    7
 10
359.82313223103006
 20
268.0407100878291
 11
358.4687272784351
 21
268.0407100878291
  0
LINE
  8
_0-f_
  6
CONTINUOUS
 62
    7
 10
357.44151556536207
 20
268.0407100878291
 11
356.08636099551939
 21
268.0407100878291
  0
LINE
  8
_0-f_
  6
CONTINUOUS
 62
    7
 10
359.85225136078844
 20
268.12071008782908
 11
355.47543534565324
 21
268.12071008782908
  0
LINE
  8
_0-f_
  6
CONTINUOUS
 62
    7
 10
359.88137049054689
 20
268.20071008782907
 11
355.50458952255059
 21
268.20071008782907
  0
LINE
  8
_0-f_
  6
CONTINUOUS
 62
    7
 10
359.91048962030527
 20
268.28071008782911
 11
355.53374369944794
 21
268.28071008782911
  0
LINE
  8
_0-f_
  6
CONTINUOUS
 62
    7
 10
359.93960875006366
 20
268.36071008782903
 11
355.56289787634523
 21
268.36071008782903
  0
LINE
  8
_0-f_
  6
CONTINUOUS
 62
    7
 10
359.96872787982198
 20
268.44071008782907
 11
355.59205205324264
 21
268.44071008782907
  0
LINE
  8
_0-f_
  6
CONTINUOUS
 62
    7
 10
359.99328263306342
 20
268.52071008782906
 11
355.62120623013993
 21
268.52071008782906
  0
LINE
  8
_0-f_
  6
CONTINUOUS
 62
    7
 10
359.9930940788509
 20
268.60071008782904
 11
355.65036040703723
 21
268.60071008782904
  0
LINE
  8
_0-f_
  6
CONTINUOUS
 62
    7
 10
359.96412046914139
 20
268.68071008782908
 11
355.67951458393458
 21
268.68071008782908
  0
LINE
  8
_0-f_
  6
CONTINUOUS
 62
    7
 10
359.8885521903498
 20
268.76071008782901
 11
355.70866876083193
 21
268.76071008782901
  0
LINE
  8
_0-f_
  6
CONTINUOUS
 62
    7
 10
357.73223014809105
 20
268.84071008782905
 11
356.37782843402522
 21
268.84071008782905
  0
LINE
  8
_0-f_
  6
CONTINUOUS
 62
    7
 10
357.7613432831817
 20
268.92071008782909
 11
356.40689744436958
 21
268.92071008782909
  0
LINE
  8
_0-f_
  6
CONTINUOUS
 62
    7
 10
357.79045641827224
 20
269.00071008782902
 11
356.43596645471388
 21
269.00071008782902
  0
LINE
  8
_0-f_
  6
CONTINUOUS
 62
    7
 10
357.81956955336278
 20
269.08071008782906
 11
356.46503546505824
 21
269.08071008782906
  0
LINE
  8
_0-f_
  6
CONTINUOUS
 62
    7
 10
357.84868268845344
 20
269.1607100878291
 11
356.49410447540259
 21
269.1607100878291
  0
LINE
  8
_0-f_
  6
CONTINUOUS
 62
    7
 10
357.87321564165444
 20
269.24071008782909
 11
356.52317348574701
 21
269.24071008782909
  0
LINE
  8
_0-f_
  6
CONTINUOUS
 62
    7
 10
357.87300110340703
 20
269.32071008782907
 11
356.55224249609131
 21
269.32071008782907
  0
LINE
  8
_0-f_
  6
CONTINUOUS
 62
    7
 10
357.84399788682396
 20
269.40071008782911
 11
356.58131150643567
 21
269.40071008782911
  0
LINE
  8
_0-f_
  6
CONTINUOUS
 62
    7
 10
357.76835396724522
 20
269.48071008782904
 11
356.61038051678003
 21
269.48071008782904
  0
LINE
  8
_0-f_
  6
CONTINUOUS
 62
    7
 10
359.59017919296298
 20
267.40071008782905
 11
358.23583533660525
 21
267.40071008782905
  0
LINE
  8
_0-f_
  6
CONTINUOUS
 62
    7
 10
357.20858732242215
 20
267.40071008782905
 11
355.85344955908431
 21
267.40071008782905
  0
LINE
  8
_0-f_
  6
CONTINUOUS
 62
    7
 10
359.56106006320459
 20
267.32071008782907
 11
358.20672384387649
 21
267.32071008782907
  0
LINE
  8
_0-f_
  6
CONTINUOUS
 62
    7
 10
357.17947129205464
 20
267.32071008782907
 11
355.82433562952997
 21
267.32071008782907
  0
LINE
  8
_0-f_
  6
CONTINUOUS
 62
    7
 10
359.53194093344621
 20
267.24071008782903
 11
358.17761235114779
 21
267.24071008782903
  0
LINE
  8
_0-f_
  6
CONTINUOUS
 62
    7
 10
357.15035526168714
 20
267.24071008782903
 11
355.79522169997557
 21
267.24071008782903
  0
LINE
  8
_0-f_
  6
CONTINUOUS
 62
    7
 10
359.50282180368782
 20
267.16071008782899
 11
358.14850085841903
 21
267.16071008782899
  0
LINE
  8
_0-f_
  6
CONTINUOUS
 62
    7
 10
357.12123923131963
 20
267.16071008782899
 11
355.76610777042117
 21
267.16071008782899
  0
LINE
  8
_0-f_
  6
CONTINUOUS
 62
    7
 10
359.47370267392938
 20
267.08071008782906
 11
358.11938936569032
 21
267.08071008782906
  0
LINE
  8
_0-f_
  6
CONTINUOUS
 62
    7
 10
357.09212320095219
 20
267.08071008782906
 11
355.73699384086677
 21
267.08071008782906
  0
LINE
  8
_0-f_
  6
CONTINUOUS
 62
    7
 10
359.44458354417105
 20
267.00071008782902
 11
358.09027787296162
 21
267.00071008782902
  0
LINE
  8
_0-f_
  6
CONTINUOUS
 62
    7
 10
357.06300717058468
 20
267.00071008782902
 11
355.70787991131243
 21
267.00071008782902
  0
LINE
  8
_0-f_
  6
CONTINUOUS
 62
    7
 10
359.41546441441261
 20
266.92071008782898
 11
358.06116638023281
 21
266.92071008782898
  0
LINE
  8
_0-f_
  6
CONTINUOUS
 62
    7
 10
357.03389114021724
 20
266.92071008782909
 11
355.67876598175809
 21
266.92071008782898
  0
LINE
  8
_0-f_
  6
CONTINUOUS
 62
    7
 10
359.38634528465428
 20
266.84071008782905
 11
358.0320548875041
 21
266.84071008782905
  0
LINE
  8
_0-f_
  6
CONTINUOUS
 62
    7
 10
357.00477510984973
 20
266.84071008782905
 11
355.64965205220369
 21
266.84071008782905
  0
LINE
  8
_0-f_
  6
CONTINUOUS
 62
    7
 10
359.35722615489584
 20
266.76071008782901
 11
358.0029433947754
 21
266.76071008782901
  0
LINE
  8
_0-f_
  6
CONTINUOUS
 62
    7
 10
356.97565907948223
 20
266.76071008782901
 11
355.62053812264929
 21
266.76071008782901
  0
LINE
  8
_0-f_
  6
CONTINUOUS
 62
    7
 10
359.32810702513746
 20
266.68071008782903
 11
357.97383190204664
 21
266.68071008782903
  0
LINE
  8
_0-f_
  6
CONTINUOUS
 62
    7
 10
356.94654304911472
 20
266.68071008782903
 11
355.59142419309489
 21
266.68071008782903
  0
LINE
  8
_0-f_
  6
CONTINUOUS
 62
    7
 10
359.29898789537907
 20
266.60071008782904
 11
357.94472040931794
 21
266.60071008782904
  0
LINE
  8
_0-f_
  6
CONTINUOUS
 62
    7
 10
356.91742701874728
 20
266.60071008782904
 11
355.56231026354055
 21
266.60071008782904
  0
LINE
  8
_0-f_
  6
CONTINUOUS
 62
    7
 10
359.26986876562069
 20
266.520710087829
 11
357.91560891658918
 21
266.520710087829
  0
LINE
  8
_0-f_
  6
CONTINUOUS
 62
    7
 10
356.88831098837983
 20
266.520710087829
 11
355.53319633398615
 21
266.520710087829
  0
LINE
  8
_0-f_
  6
CONTINUOUS
 62
    7
 10
359.2407496358623
 20
266.44071008782907
 11
357.88649742386048
 21
266.44071008782907
  0
LINE
  8
_0-f_
  6
CONTINUOUS
 62
    7
 10
356.85919495801232
 20
266.44071008782907
 11
355.50408240443176
 21
266.44071008782907
  0
LINE
  8
_0-f_
  6
CONTINUOUS
 62
    7
 10
359.21163050610397
 20
266.36071008782903
 11
357.85738593113172
 21
266.36071008782903
  0
LINE
  8
_0-f_
  6
CONTINUOUS
 62
    7
 10
356.83007892764482
 20
266.36071008782903
 11
355.47496847487736
 21
266.36071008782903
  0
LINE
  8
_0-f_
  6
CONTINUOUS
 62
    7
 10
359.18251137634553
 20
266.28071008782905
 11
357.82827443840301
 21
266.28071008782905
  0
LINE
  8
_0-f_
  6
CONTINUOUS
 62
    7
 10
356.80096289727732
 20
266.28071008782905
 11
355.44585454532302
 21
266.28071008782905
  0
LINE
  8
_0-f_
  6
CONTINUOUS
 62
    7
 10
359.15339224658709
 20
266.20071008782907
 11
357.39908913610134
 21
266.20071008782907
  0
LINE
  8
_0-f_
  6
CONTINUOUS
 62
    7
 10
356.77184686690981
 20
266.20071008782907
 11
354.776704977946
 21
266.20071008782907
  0
LINE
  8
_0-f_
  6
CONTINUOUS
 62
    7
 10
359.12427311682876
 20
266.12071008782902
 11
357.36993624721248
 21
266.12071008782902
  0
LINE
  8
_0-f_
  6
CONTINUOUS
 62
    7
 10
356.74273083654231
 20
266.12071008782902
 11
354.74755177274653
 21
266.12071008782902
  0
LINE
  8
_0-f_
  6
CONTINUOUS
 62
    7
 10
359.09515398707038
 20
266.04071008782898
 11
357.34078335832356
 21
266.04071008782898
  0
LINE
  8
_0-f_
  6
CONTINUOUS
 62
    7
 10
356.71361480617486
 20
266.04071008782898
 11
354.71839856754713
 21
266.04071008782898
  0
LINE
  8
_0-f_
  6
CONTINUOUS
 62
    7
 10
359.06603485731199
 20
265.960710087829
 11
357.3116304694347
 21
265.960710087829
  0
LINE
  8
_0-f_
  6
CONTINUOUS
 62
    7
 10
356.68449877580736
 20
265.96071008782906
 11
354.68924536234766
 21
265.960710087829
  0
LINE
  8
_0-f_
  6
CONTINUOUS
 62
    7
 10
359.03691572755361
 20
265.88071008782902
 11
357.28247758054584
 21
265.88071008782902
  0
LINE
  8
_0-f_
  6
CONTINUOUS
 62
    7
 10
356.65538274543985
 20
265.88071008782902
 11
354.66009215714831
 21
265.88071008782902
  0
LINE
  8
_0-f_
  6
CONTINUOUS
 62
    7
 10
359.00779659779522
 20
265.80071008782897
 11
357.25332469165693
 21
265.80071008782897
  0
LINE
  8
_0-f_
  6
CONTINUOUS
 62
    7
 10
356.62372736889824
 20
265.80071008782897
 11
354.63093895194891
 21
265.80071008782897
  0
LINE
  8
_0-f_
  6
CONTINUOUS
 62
    7
 10
358.97092612474813
 20
265.72071008782905
 11
357.22417180276807
 21
265.72071008782905
  0
LINE
  8
_0-f_
  6
CONTINUOUS
 62
    7
 10
356.57789192050376
 20
265.72071008782905
 11
354.6017857467495
 21
265.72071008782905
  0
LINE
  8
_0-f_
  6
CONTINUOUS
 62
    7
 10
358.91107202366783
 20
265.64071008782901
 11
357.19501891387921
 21
265.64071008782901
  0
LINE
  8
_0-f_
  6
CONTINUOUS
 62
    7
 10
356.50355898550748
 20
265.64071008782901
 11
354.57263254155004
 21
265.64071008782901
  0
LINE
  8
_0-f_
  6
CONTINUOUS
 62
    7
 10
358.79871225609855
 20
265.56071008782902
 11
357.16586602499029
 21
265.56071008782902
  0
LINE
  8
_0-f_
  6
CONTINUOUS
 62
    7
 10
356.37643383663305
 20
265.56071008782902
 11
354.54347933635063
 21
265.56071008782902
  0
LINE
  8
_0-f_
  6
CONTINUOUS
 62
    7
 10
357.45607358054582
 20
268.08071008782906
 11
358.48328302479945
 21
268.08071008782906
  0
LINE
  8
_0-f_
  6
CONTINUOUS
 62
    7
 10
357.81371869203866
 20
266.24071008782909
 11
358.48328302479945
 21
268.08071008782906
  0
LINE
  8
_0-f_
  6
CONTINUOUS
 62
    7
 10
357.15128958054589
 20
265.52071008782906
 11
358.62580159939182
 21
265.52071008782906
  0
LINE
  8
_0-f_
  6
CONTINUOUS
 62
    7
 10
357.71767358054575
 20
268.80083008782901
 11
359.75704603732964
 21
268.80083008782901
  0
ARC
  8
_0-f_
  6
CONTINUOUS
 62
    7
 10
357.63696888244641
 20
269.28075008782901
 40
0.2399999999999999
 50
340.00283559285606
 51
90.000000000000014
  0
LINE
  8
_0-f_
  6
CONTINUOUS
 62
    7
 10
355.43129758054584
 20
266.24071008782909
 11
356.10089758054585
 21
268.08065408782909
  0
LINE
  8
_0-f_
  6
CONTINUOUS
 62
    7
 10
356.63930986775347
 20
265.83654781025621
 11
357.45607358054582
 21
268.08071008782906
  0
LINE
  8
_0-f_
  6
CONTINUOUS
 62
    7
 10
354.52890273375095
 20
265.52071008782906
 11
356.18825471965948
 21
265.52071008782906
  0
LINE
  8
_0-f_
  6
CONTINUOUS
 62
    7
 10
354.79128158054579
 20
266.24071008782909
 11
355.43129758054584
 21
266.24071008782909
  0
LINE
  8
_0-f_
  6
CONTINUOUS
 62
    7
 10
354.52890273375095
 20
265.52071008782906
 11
354.79128158054579
 21
266.24071008782909
  0
ARC
  8
_0-f_
  6
CONTINUOUS
 62
    7
 10
356.18825471965948
 20
266.00071008782902
 40
0.4799999999999999
 50
270
 51
340.00093888113781
  0
LINE
  8
_0-f_
  6
CONTINUOUS
 62
    7
 10
357.15128958054589
 20
265.52071008782906
 11
357.4136655805458
 21
266.24071008782909
  0
LINE
  8
_0-f_
  6
CONTINUOUS
 62
    7
 10
357.4136655805458
 20
266.24071008782909
 11
357.81371869203866
 21
266.24071008782909
  0
LINE
  8
_0-f_
  6
CONTINUOUS
 62
    7
 10
355.46088158054607
 20
268.08077408782901
 11
355.7232895805459
 21
268.80083008782901
  0
LINE
  8
_0-f_
  6
CONTINUOUS
 62
    7
 10
355.46088158054607
 20
268.08071008782906
 11
356.10089758054585
 21
268.08071008782906
  0
LINE
  8
_0-f_
  6
CONTINUOUS
 62
    7
 10
356.62489758054596
 20
269.52075008782907
 11
357.63696888244641
 21
269.52075008782907
  0
LINE
  8
_0-f_
  6
CONTINUOUS
 62
    7
 10
356.36333753236858
 20
268.80083008782901
 11
356.62489758054596
 21
269.52066208782901
  0
LINE
  8
_0-f_
  6
CONTINUOUS
 62
    7
 10
355.7232895805459
 20
268.80083008782901
 11
356.36333753236858
 21
268.80083008782901
  0
LINE
  8
_0-f_
  6
CONTINUOUS
 62
    7
 10
357.71767358054575
 20
268.80071008782909
 11
357.86249917357276
 21
269.19867641492181
  0
LINE
  8
_0-f_
  6
CONTINUOUS
 62
    7
 10
359.00167636594591
 20
265.78389576157667
 11
359.98257089726218
 21
268.47874149207757
  0
ARC
  8
_0-f_
  6
CONTINUOUS
 62
    7
 10
358.62580159939182
 20
265.92071008782904
 40
0.4
 50
270
 51
339.99904441127069
  0
ARC
  8
_0-f_
  6
CONTINUOUS
 62
    7
 10
359.75704603732964
 20
268.56083008782906
 40
0.2399999999999999
 50
339.99904441127069
 51
90.000000000000043
  0
LINE
  8
_0-f_
  6
CONTINUOUS
 62
    7
 10
355.03720778852437
 20
268.08071008782906
 11
355.18206249468636
 21
268.47875641492192
  0
ARC
  8
_0-f_
  6
CONTINUOUS
 62
    7
 10
354.95653220356002
 20
268.56083008782906
 40
0.2399999999999993
 50
340.00283559286606
 51
89.999999999999915
  0
LINE
  8
_0-f_
  6
CONTINUOUS
 62
    7
 10
354.95653220356002
 20
268.80083008782901
 11
353.7620805845059
 21
268.80083008782901
  0
LINE
  8
_0-f_
  6
CONTINUOUS
 62
    7
 10
353.7620805845059
 20
268.80083008782901
 11
353.90687975183903
 21
269.1986658600664
  0
ARC
  8
_0-f_
  6
CONTINUOUS
 62
    7
 10
353.68135330205411
 20
269.28075008782901
 40
0.2399999999999979
 50
340.00015411793316
 51
89.999999999999986
  0
LINE
  8
_0-f_
  6
CONTINUOUS
 62
    7
 10
353.68135330205411
 20
269.52075008782907
 11
352.50920632064322
 21
269.52075008782907
  0
LINE
  8
_0-f_
  6
CONTINUOUS
 62
    7
 10
352.50920632064322
 20
269.52075008782907
 11
352.24678232064326
 21
268.80083008782901
  0
LINE
  8
_0-f_
  6
CONTINUOUS
 62
    7
 10
352.24678232064326
 20
268.80083008782901
 11
350.28120632064343
 21
268.80083008782901
  0
LINE
  8
_0-f_
  6
CONTINUOUS
 62
    7
 10
350.28120632064343
 20
268.80083008782901
 11
350.01882672454451
 21
268.08071008782906
  0
LINE
  8
_0-f_
  6
CONTINUOUS
 62
    7
 10
350.01882672454451
 20
268.08071008782906
 11
351.98518883295543
 21
268.08071008782906
  0
LINE
  8
_0-f_
  6
CONTINUOUS
 62
    7
 10
351.98518883295543
 20
268.08071008782906
 11
351.31482746678978
 21
266.24071008782909
  0
LINE
  8
_0-f_
  6
CONTINUOUS
 62
    7
 10
351.31482746678978
 20
266.24071008782909
 11
349.98999832064339
 21
266.24071008782909
  0
LINE
  8
_0-f_
  6
CONTINUOUS
 62
    7
 10
349.98999832064339
 20
266.24071008782909
 11
349.72839832064329
 21
265.52071008782906
  0
LINE
  8
_0-f_
  6
CONTINUOUS
 62
    7
 10
349.72839832064329
 20
265.52071008782906
 11
352.28775545694054
 21
265.52071008782906
  0
ARC
  8
_0-f_
  6
CONTINUOUS
 62
    7
 10
352.28775545694054
 20
265.92071008782904
 40
0.399999999999999
 50
270
 51
340.00026326049675
  0
LINE
  8
_0-f_
  6
CONTINUOUS
 62
    7
 10
352.66363313385148
 20
265.78390375756601
 11
353.49959032064322
 21
268.08071008782906
  0
LINE
  8
_0-f_
  6
CONTINUOUS
 62
    7
 10
353.49959032064322
 20
268.08071008782906
 11
355.03720778852437
 21
268.08071008782906
  0
LINE
  8
_0-f_
  6
CONTINUOUS
 62
    7
 10
353.28121130214862
 20
267.48071008782904
 11
351.7665927352927
 21
267.48071008782904
  0
LINE
  8
_0-f_
  6
CONTINUOUS
 62
    7
 10
353.31032850461457
 20
267.56071008782908
 11
351.79573888164776
 21
267.56071008782908
  0
LINE
  8
_0-f_
  6
CONTINUOUS
 62
    7
 10
353.33944570708053
 20
267.64071008782901
 11
351.82488502800277
 21
267.64071008782901
  0
LINE
  8
_0-f_
  6
CONTINUOUS
 62
    7
 10
353.36856290954648
 20
267.72071008782905
 11
351.85403117435783
 21
267.72071008782905
  0
LINE
  8
_0-f_
  6
CONTINUOUS
 62
    7
 10
353.39768011201244
 20
267.80071008782903
 11
351.88317732071283
 21
267.80071008782909
  0
LINE
  8
_0-f_
  6
CONTINUOUS
 62
    7
 10
353.42679731447839
 20
267.88071008782902
 11
351.91232346706784
 21
267.88071008782902
  0
LINE
  8
_0-f_
  6
CONTINUOUS
 62
    7
 10
353.45591451694435
 20
267.96071008782906
 11
351.94146961342284
 21
267.96071008782906
  0
LINE
  8
_0-f_
  6
CONTINUOUS
 62
    7
 10
353.48503171941024
 20
268.0407100878291
 11
351.9706157597779
 21
268.0407100878291
  0
LINE
  8
_0-f_
  6
CONTINUOUS
 62
    7
 10
355.05176435606961
 20
268.12071008782908
 11
350.0334009397364
 21
268.12071008782908
  0
LINE
  8
_0-f_
  6
CONTINUOUS
 62
    7
 10
355.08087749116015
 20
268.20071008782907
 11
350.06254937012005
 21
268.20071008782907
  0
LINE
  8
_0-f_
  6
CONTINUOUS
 62
    7
 10
355.10999062625075
 20
268.28071008782911
 11
350.09169780050377
 21
268.28071008782911
  0
LINE
  8
_0-f_
  6
CONTINUOUS
 62
    7
 10
355.13910376134135
 20
268.36071008782903
 11
350.12084623088748
 21
268.36071008782903
  0
LINE
  8
_0-f_
  6
CONTINUOUS
 62
    7
 10
355.16821689643189
 20
268.44071008782907
 11
350.14999466127114
 21
268.44071008782907
  0
LINE
  8
_0-f_
  6
CONTINUOUS
 62
    7
 10
355.192769851528
 20
268.52071008782906
 11
350.17914309165485
 21
268.52071008782906
  0
LINE
  8
_0-f_
  6
CONTINUOUS
 62
    7
 10
355.19258070460131
 20
268.60071008782904
 11
350.20829152203856
 21
268.60071008782904
  0
LINE
  8
_0-f_
  6
CONTINUOUS
 62
    7
 10
355.1636064750794
 20
268.68071008782908
 11
350.23743995242233
 21
268.68071008782908
  0
LINE
  8
_0-f_
  6
CONTINUOUS
 62
    7
 10
355.08803816824746
 20
268.76071008782901
 11
350.26658838280599
 21
268.76071008782901
  0
LINE
  8
_0-f_
  6
CONTINUOUS
 62
    7
 10
353.77659559596594
 20
268.84071008782905
 11
352.26131930964203
 21
268.84071008782905
  0
LINE
  8
_0-f_
  6
CONTINUOUS
 62
    7
 10
353.80571297101119
 20
268.92071008782909
 11
352.29048077202668
 21
268.92071008782904
  0
LINE
  8
_0-f_
  6
CONTINUOUS
 62
    7
 10
353.83483034605644
 20
269.00071008782902
 11
352.31964223441145
 21
269.00071008782902
  0
LINE
  8
_0-f_
  6
CONTINUOUS
 62
    7
 10
353.86394772110168
 20
269.08071008782906
 11
352.34880369679615
 21
269.08071008782906
  0
LINE
  8
_0-f_
  6
CONTINUOUS
 62
    7
 10
353.89306509614693
 20
269.1607100878291
 11
352.37796515918086
 21
269.1607100878291
  0
LINE
  8
_0-f_
  6
CONTINUOUS
 62
    7
 10
353.91759958284007
 20
269.24071008782909
 11
352.40712662156557
 21
269.24071008782909
  0
LINE
  8
_0-f_
  6
CONTINUOUS
 62
    7
 10
353.91738504789242
 20
269.32071008782907
 11
352.43628808395027
 21
269.32071008782907
  0
LINE
  8
_0-f_
  6
CONTINUOUS
 62
    7
 10
353.88838251015289
 20
269.40071008782911
 11
352.46544954633498
 21
269.40071008782911
  0
LINE
  8
_0-f_
  6
CONTINUOUS
 62
    7
 10
353.81273849175574
 20
269.48071008782904
 11
352.49461100871969
 21
269.48071008782904
  0
LINE
  8
_0-f_
  6
CONTINUOUS
 62
    7
 10
353.25209409968267
 20
267.40071008782905
 11
351.7374465889377
 21
267.40071008782905
  0
LINE
  8
_0-f_
  6
CONTINUOUS
 62
    7
 10
353.22297689721671
 20
267.32071008782907
 11
351.70830044258264
 21
267.32071008782907
  0
LINE
  8
_0-f_
  6
CONTINUOUS
 62
    7
 10
353.19385969475076
 20
267.24071008782903
 11
351.67915429622764
 21
267.24071008782903
  0
LINE
  8
_0-f_
  6
CONTINUOUS
 62
    7
 10
353.1647424922848
 20
267.16071008782899
 11
351.65000814987258
 21
267.16071008782899
  0
LINE
  8
_0-f_
  6
CONTINUOUS
 62
    7
 10
353.13562528981885
 20
267.08071008782906
 11
351.62086200351757
 21
267.08071008782906
  0
LINE
  8
_0-f_
  6
CONTINUOUS
 62
    7
 10
353.10650808735289
 20
267.00071008782902
 11
351.59171585716251
 21
267.00071008782902
  0
LINE
  8
_0-f_
  6
CONTINUOUS
 62
    7
 10
353.07739088488694
 20
266.92071008782909
 11
351.56256971080751
 21
266.92071008782898
  0
LINE
  8
_0-f_
  6
CONTINUOUS
 62
    7
 10
353.04827368242098
 20
266.84071008782905
 11
351.53342356445245
 21
266.84071008782905
  0
LINE
  8
_0-f_
  6
CONTINUOUS
 62
    7
 10
353.01915647995509
 20
266.76071008782901
 11
351.50427741809744
 21
266.76071008782901
  0
LINE
  8
_0-f_
  6
CONTINUOUS
 62
    7
 10
352.99003927748913
 20
266.68071008782903
 11
351.47513127174238
 21
266.68071008782903
  0
LINE
  8
_0-f_
  6
CONTINUOUS
 62
    7
 10
352.96092207502318
 20
266.60071008782904
 11
351.44598512538738
 21
266.60071008782904
  0
LINE
  8
_0-f_
  6
CONTINUOUS
 62
    7
 10
352.93180487255722
 20
266.520710087829
 11
351.41683897903238
 21
266.520710087829
  0
LINE
  8
_0-f_
  6
CONTINUOUS
 62
    7
 10
352.90268767009127
 20
266.44071008782907
 11
351.38769283267737
 21
266.44071008782907
  0
LINE
  8
_0-f_
  6
CONTINUOUS
 62
    7
 10
352.87357046762537
 20
266.36071008782903
 11
351.35854668632231
 21
266.36071008782903
  0
LINE
  8
_0-f_
  6
CONTINUOUS
 62
    7
 10
352.84445326515942
 20
266.28071008782905
 11
351.32940053996725
 21
266.28071008782905
  0
LINE
  8
_0-f_
  6
CONTINUOUS
 62
    7
 10
352.81533606269346
 20
266.20071008782907
 11
349.97546498730998
 21
266.20071008782907
  0
LINE
  8
_0-f_
  6
CONTINUOUS
 62
    7
 10
352.78621886022751
 20
266.12071008782902
 11
349.94639832064337
 21
266.12071008782902
  0
LINE
  8
_0-f_
  6
CONTINUOUS
 62
    7
 10
352.75710165776155
 20
266.04071008782898
 11
349.91733165397665
 21
266.04071008782898
  0
LINE
  8
_0-f_
  6
CONTINUOUS
 62
    7
 10
352.7279844552956
 20
265.960710087829
 11
349.88826498731004
 21
265.96071008782906
  0
LINE
  8
_0-f_
  6
CONTINUOUS
 62
    7
 10
352.69886725282964
 20
265.88071008782902
 11
349.85919832064332
 21
265.88071008782902
  0
LINE
  8
_0-f_
  6
CONTINUOUS
 62
    7
 10
352.66975005036369
 20
265.80071008782897
 11
349.83013165397665
 21
265.80071008782897
  0
LINE
  8
_0-f_
  6
CONTINUOUS
 62
    7
 10
352.63287998229646
 20
265.72071008782905
 11
349.80106498730993
 21
265.72071008782905
  0
LINE
  8
_0-f_
  6
CONTINUOUS
 62
    7
 10
352.57302588121775
 20
265.64071008782901
 11
349.77199832064326
 21
265.64071008782901
  0
LINE
  8
_0-f_
  6
CONTINUOUS
 62
    7
 10
352.4606661136466
 20
265.56071008782902
 11
349.7429316539766
 21
265.56071008782902
  0
LINE
  8
_0-f_
  6
CONTINUOUS
 62
    7
 10
350.28120632064343
 20
268.80083008782901
 11
352.24678232064326
 21
268.80083008782901
  0
LINE
  8
_0-f_
  6
CONTINUOUS
 62
    7
 10
352.24678232064326
 20
268.80083008782901
 11
350.28120632064343
 21
268.80083008782901
  0
LINE
  8
_0-f_
  6
CONTINUOUS
 62
    7
 10
351.98518883295543
 20
268.08071008782906
 11
350.01882672454451
 21
268.08071008782906
  0
LINE
  8
_0-f_
  6
CONTINUOUS
 62
    7
 10
351.31482746678978
 20
266.24071008782909
 11
351.98518883295543
 21
268.08071008782906
  0
LINE
  8
_0-f_
  6
CONTINUOUS
 62
    7
 10
349.72839832064329
 20
265.52071008782906
 11
352.28775545694054
 21
265.52071008782906
  0
LINE
  8
_0-f_
  6
CONTINUOUS
 62
    7
 10
349.98999832064339
 20
266.24071008782909
 11
351.31482746678978
 21
266.24071008782909
  0
LINE
  8
_0-f_
  6
CONTINUOUS
 62
    7
 10
349.72839832064329
 20
265.52071008782906
 11
349.98999832064339
 21
266.24071008782909
  0
LINE
  8
_0-f_
  6
CONTINUOUS
 62
    7
 10
350.01882672454451
 20
268.08071008782906
 11
350.28120632064343
 21
268.80083008782901
  0
LINE
  8
_0-f_
  6
CONTINUOUS
 62
    7
 10
352.66363313385148
 20
265.78390375756601
 11
353.49959032064322
 21
268.08071008782906
  0
ARC
  8
_0-f_
  6
CONTINUOUS
 62
    7
 10
352.28775545694054
 20
265.92071008782904
 40
0.4
 50
270
 51
340.00026326049698
  0
LINE
  8
_0-f_
  6
CONTINUOUS
 62
    7
 10
353.49959032064322
 20
268.08071008782906
 11
355.03720778852437
 21
268.08071008782906
  0
ARC
  8
_0-f_
  6
CONTINUOUS
 62
    7
 10
353.68135330205411
 20
269.28075008782901
 40
0.2399999999999999
 50
340.00015411793424
 51
89.999999999999957
  0
LINE
  8
_0-f_
  6
CONTINUOUS
 62
    7
 10
352.50920632064322
 20
269.52075008782907
 11
353.68135330205411
 21
269.52075008782907
  0
LINE
  8
_0-f_
  6
CONTINUOUS
 62
    7
 10
352.24678232064326
 20
268.80083008782901
 11
352.50920632064322
 21
269.52075008782907
  0
LINE
  8
_0-f_
  6
CONTINUOUS
 62
    7
 10
353.7620805845059
 20
268.80083008782901
 11
354.95653220356002
 21
268.80083008782901
  0
LINE
  8
_0-f_
  6
CONTINUOUS
 62
    7
 10
353.7620805845059
 20
268.80083008782901
 11
353.90687975183903
 21
269.1986658600664
  0
LINE
  8
_0-f_
  6
CONTINUOUS
 62
    7
 10
355.03720778852437
 20
268.08071008782906
 11
355.18206249468636
 21
268.47875641492192
  0
ARC
  8
_0-f_
  6
CONTINUOUS
 62
    7
 10
354.95653220356002
 20
268.56083008782906
 40
0.2399999999999999
 50
340.00283559286788
 51
89.999999999999986
  0
LINE
  8
_0-f_
  6
CONTINUOUS
 62
    7
 10
343.19849964302051
 20
268.74514088105599
 11
343.78728392681967
 21
269.20934420004994
  0
LINE
  8
_0-f_
  6
CONTINUOUS
 62
    7
 10
347.68304433558006
 20
265.90871008782904
 11
347.08133007591687
 21
265.76513948656157
  0
LINE
  8
_0-f_
  6
CONTINUOUS
 62
    7
 10
347.08133007591687
 20
265.76513948656157
 11
346.44049925580089
 21
265.69429238682187
  0
LINE
  8
_0-f_
  6
CONTINUOUS
 62
    7
 10
346.44049925580089
 20
265.69429238682187
 11
345.90855940542741
 21
265.69264587414909
  0
LINE
  8
_0-f_
  6
CONTINUOUS
 62
    7
 10
345.90855940542741
 20
265.69264587414909
 11
345.48264203851562
 21
265.72817675415126
  0
LINE
  8
_0-f_
  6
CONTINUOUS
 62
    7
 10
345.48264203851562
 20
265.72817675415126
 11
345.13313397857752
 21
265.79935087408364
  0
LINE
  8
_0-f_
  6
CONTINUOUS
 62
    7
 10
345.13313397857752
 20
265.79935087408364
 11
345.31585334472783
 21
266.48126963794982
  0
LINE
  8
_0-f_
  6
CONTINUOUS
 62
    7
 10
345.31585334472783
 20
266.48126963794982
 11
345.52309096447976
 21
267.25469187811763
  0
LINE
  8
_0-f_
  6
CONTINUOUS
 62
    7
 10
345.52309096447976
 20
267.25469187811763
 11
345.67557779968371
 21
267.17772006644793
  0
LINE
  8
_0-f_
  6
CONTINUOUS
 62
    7
 10
345.67557779968371
 20
267.17772006644793
 11
346.05770728702066
 21
266.79928945632361
  0
LINE
  8
_0-f_
  6
CONTINUOUS
 62
    7
 10
346.05770728702066
 20
266.79928945632361
 11
346.22242385231471
 21
266.63860186435295
  0
LINE
  8
_0-f_
  6
CONTINUOUS
 62
    7
 10
346.22242385231471
 20
266.63860186435295
 11
346.3343352212392
 21
266.57316622163364
  0
LINE
  8
_0-f_
  6
CONTINUOUS
 62
    7
 10
346.3343352212392
 20
266.57316622163364
 11
346.46134558965451
 21
266.54607409770836
  0
LINE
  8
_0-f_
  6
CONTINUOUS
 62
    7
 10
346.46134558965451
 20
266.54607409770836
 11
346.87274927873131
 21
266.545766536028
  0
LINE
  8
_0-f_
  6
CONTINUOUS
 62
    7
 10
346.87274927873131
 20
266.545766536028
 11
347.66151547307931
 21
266.54618776785458
  0
LINE
  8
_0-f_
  6
CONTINUOUS
 62
    7
 10
347.66151547307931
 20
266.54618776785458
 11
347.92117627196978
 21
266.79742925127789
  0
LINE
  8
_0-f_
  6
CONTINUOUS
 62
    7
 10
347.92117627196978
 20
266.79742925127789
 11
348.36896176474255
 21
268.46858711444133
  0
LINE
  8
_0-f_
  6
CONTINUOUS
 62
    7
 10
348.36896176474255
 20
268.46858711444133
 11
348.67019927806331
 21
269.59282058602423
  0
LINE
  8
_0-f_
  6
CONTINUOUS
 62
    7
 10
348.67019927806331
 20
269.59282058602423
 11
347.72655499552258
 21
269.98674684803154
  0
LINE
  8
_0-f_
  6
CONTINUOUS
 62
    7
 10
347.72655499552258
 20
269.98674684803154
 11
346.6467450524712
 21
270.18333461996792
  0
LINE
  8
_0-f_
  6
CONTINUOUS
 62
    7
 10
346.6467450524712
 20
270.18333461996792
 11
345.46438021143928
 21
270.16305857658267
  0
LINE
  8
_0-f_
  6
CONTINUOUS
 62
    7
 10
345.46438021143928
 20
270.16305857658267
 11
344.33831514804041
 21
269.90676373782202
  0
LINE
  8
_0-f_
  6
CONTINUOUS
 62
    7
 10
344.33831514804041
 20
269.90676373782202
 11
343.3800884145117
 21
269.42734814013681
  0
LINE
  8
_0-f_
  6
CONTINUOUS
 62
    7
 10
343.3800884145117
 20
269.42734814013681
 11
342.69114080587804
 21
268.75869279097765
  0
LINE
  8
_0-f_
  6
CONTINUOUS
 62
    7
 10
342.69114080587804
 20
268.75869279097765
 11
342.37638367868368
 21
267.97958270669847
  0
LINE
  8
_0-f_
  6
CONTINUOUS
 62
    7
 10
342.37638367868368
 20
267.97958270669847
 11
342.46344337990371
 21
267.16303288804022
  0
LINE
  8
_0-f_
  6
CONTINUOUS
 62
    7
 10
342.46344337990371
 20
267.16303288804022
 11
342.9424184311975
 21
266.42532127661605
  0
LINE
  8
_0-f_
  6
CONTINUOUS
 62
    7
 10
342.9424184311975
 20
266.42532127661605
 11
343.76739293081414
 21
265.82674106085938
  0
LINE
  8
_0-f_
  6
CONTINUOUS
 62
    7
 10
343.76739293081414
 20
265.82674106085938
 11
344.80409443304973
 21
265.44224171304813
  0
LINE
  8
_0-f_
  6
CONTINUOUS
 62
    7
 10
344.80409443304973
 20
265.44224171304813
 11
345.9816181637471
 21
265.28616685733152
  0
LINE
  8
_0-f_
  6
CONTINUOUS
 62
    7
 10
345.9816181637471
 20
265.28616685733152
 11
346.66845045386839
 21
265.30552490045955
  0
LINE
  8
_0-f_
  6
CONTINUOUS
 62
    7
 10
346.66845045386839
 20
265.30552490045955
 11
347.24493807277582
 21
265.38498096249737
  0
LINE
  8
_0-f_
  6
CONTINUOUS
 62
    7
 10
347.24493807277582
 20
265.38498096249737
 11
347.5716235878985
 21
265.49288554590845
  0
LINE
  8
_0-f_
  6
CONTINUOUS
 62
    7
 10
347.5716235878985
 20
265.49288554590845
 11
347.63823381748972
 21
265.74147630466666
  0
LINE
  8
_0-f_
  6
CONTINUOUS
 62
    7
 10
347.63823381748972
 20
265.74147630466666
 11
347.68304433558006
 21
265.90871008782904
  0
LINE
  8
_0-f_
  6
CONTINUOUS
 62
    7
 10
344.24003094316703
 20
268.21623167202142
 11
344.08460160323841
 21
267.63616146447089
  0
LINE
  8
_0-f_
  6
CONTINUOUS
 62
    7
 10
344.08460160323841
 20
267.63616146447089
 11
343.81945743512438
 21
266.64662993394006
  0
LINE
  8
_0-f_
  6
CONTINUOUS
 62
    7
 10
343.81945743512438
 20
266.64662993394006
 11
343.72918607416267
 21
266.31324138612422
  0
LINE
  8
_0-f_
  6
CONTINUOUS
 62
    7
 10
343.72918607416267
 20
266.31324138612422
 11
343.72618025714809
 21
266.31502419842479
  0
LINE
  8
_0-f_
  6
CONTINUOUS
 62
    7
 10
343.72618025714809
 20
266.31502419842479
 11
343.72316904742979
 21
266.31680209107071
  0
LINE
  8
_0-f_
  6
CONTINUOUS
 62
    7
 10
343.72316904742979
 20
266.31680209107071
 11
343.38471676828948
 21
266.56400611376284
  0
LINE
  8
_0-f_
  6
CONTINUOUS
 62
    7
 10
343.38471676828948
 20
266.56400611376284
 11
342.94981254598861
 21
267.07446935969409
  0
LINE
  8
_0-f_
  6
CONTINUOUS
 62
    7
 10
342.94981254598861
 20
267.07446935969409
 11
342.7676346103284
 21
267.63758468797857
  0
LINE
  8
_0-f_
  6
CONTINUOUS
 62
    7
 10
342.7676346103284
 20
267.63758468797857
 11
342.85334919712267
 21
268.21234335247698
  0
LINE
  8
_0-f_
  6
CONTINUOUS
 62
    7
 10
342.85334919712267
 20
268.21234335247698
 11
343.19849964302051
 21
268.74514088105599
  0
LINE
  8
_0-f_
  6
CONTINUOUS
 62
    7
 10
343.78728392681967
 20
269.20934420004994
 11
344.59290365440108
 21
269.56686327062721
  0
LINE
  8
_0-f_
  6
CONTINUOUS
 62
    7
 10
344.59290365440108
 20
269.56686327062721
 11
345.52252149386953
 21
269.76372520136954
  0
LINE
  8
_0-f_
  6
CONTINUOUS
 62
    7
 10
345.52252149386953
 20
269.76372520136954
 11
346.29477502789206
 21
269.79810418267272
  0
LINE
  8
_0-f_
  6
CONTINUOUS
 62
    7
 10
346.29477502789206
 20
269.79810418267272
 11
346.66794142785392
 21
269.7765182579883
  0
LINE
  8
_0-f_
  6
CONTINUOUS
 62
    7
 10
346.66794142785392
 20
269.7765182579883
 11
347.03117815846872
 21
269.73051970832898
  0
LINE
  8
_0-f_
  6
CONTINUOUS
 62
    7
 10
347.03117815846872
 20
269.73051970832898
 11
347.08788940331931
 21
269.43754613116806
  0
LINE
  8
_0-f_
  6
CONTINUOUS
 62
    7
 10
347.08788940331931
 20
269.43754613116806
 11
346.82002044367385
 21
268.43784576017913
  0
LINE
  8
_0-f_
  6
CONTINUOUS
 62
    7
 10
346.82002044367385
 20
268.43784576017913
 11
346.63687680992456
 21
267.75434454806566
  0
LINE
  8
_0-f_
  6
CONTINUOUS
 62
    7
 10
346.63687680992456
 20
267.75434454806566
 11
346.46568318364081
 21
267.91694929111918
  0
LINE
  8
_0-f_
  6
CONTINUOUS
 62
    7
 10
346.46568318364081
 20
267.91694929111918
 11
346.12265160848153
 21
268.25899032333677
  0
LINE
  8
_0-f_
  6
CONTINUOUS
 62
    7
 10
346.12265160848153
 20
268.25899032333677
 11
345.965777872476
 21
268.41460752746571
  0
LINE
  8
_0-f_
  6
CONTINUOUS
 62
    7
 10
345.965777872476
 20
268.41460752746571
 11
345.86845138845985
 21
268.47942485347795
  0
LINE
  8
_0-f_
  6
CONTINUOUS
 62
    7
 10
345.86845138845985
 20
268.47942485347795
 11
345.75717156902584
 21
268.5139503728409
  0
LINE
  8
_0-f_
  6
CONTINUOUS
 62
    7
 10
345.75717156902584
 20
268.5139503728409
 11
345.61460068849578
 21
268.51902057399104
  0
LINE
  8
_0-f_
  6
CONTINUOUS
 62
    7
 10
345.61460068849578
 20
268.51902057399104
 11
345.11097690956029
 21
268.51902057399104
  0
LINE
  8
_0-f_
  6
CONTINUOUS
 62
    7
 10
345.11097690956029
 20
268.51902057399104
 11
344.66426951659929
 21
268.51902057399104
  0
LINE
  8
_0-f_
  6
CONTINUOUS
 62
    7
 10
344.66426951659929
 20
268.51902057399104
 11
344.49335717591077
 21
268.49385006833404
  0
LINE
  8
_0-f_
  6
CONTINUOUS
 62
    7
 10
344.49335717591077
 20
268.49385006833404
 11
344.3341665753731
 21
268.38730588580927
  0
LINE
  8
_0-f_
  6
CONTINUOUS
 62
    7
 10
344.3341665753731
 20
268.38730588580927
 11
344.24003094316703
 21
268.21623167202142
  0
SOLID
  8
_0-f_
  6
CONTINUOUS
 62
    7
 10
346.46134558965451
 20
266.54607409770836
 11
346.87274927873131
 21
266.545766536028
 12
347.66151547307931
 22
266.54618776785458
 13
347.66151547307931
 23
266.54618776785458
  0
LINE
  8
_0-f_
  6
CONTINUOUS
 62
    7
 10
346.81278320180081
 20
265.32541797603949
 11
345.68548382793273
 21
265.32541797603949
  0
LINE
  8
_0-f_
  6
CONTINUOUS
 62
    7
 10
347.33288272076396
 20
265.41402917603943
 11
345.01694698818034
 21
265.41402917603943
  0
LINE
  8
_0-f_
  6
CONTINUOUS
 62
    7
 10
347.59798089853922
 20
265.59125157603944
 11
344.40232847508287
 21
265.59125157603944
  0
LINE
  8
_0-f_
  6
CONTINUOUS
 62
    7
 10
347.62172438927013
 20
265.6798627760395
 11
344.16341164810291
 21
265.6798627760395
  0
LINE
  8
_0-f_
  6
CONTINUOUS
 62
    7
 10
347.57423740780837
 20
265.50264037603949
 11
344.64124530206277
 21
265.50264037603949
  0
LINE
  8
_0-f_
  6
CONTINUOUS
 62
    7
 10
345.19609036272323
 20
266.03430757603951
 11
343.48132085978614
 21
266.03430757603951
  0
LINE
  8
_0-f_
  6
CONTINUOUS
 62
    7
 10
345.17234709130184
 20
265.94569637603945
 11
343.60344648047345
 21
265.94569637603945
  0
LINE
  8
_0-f_
  6
CONTINUOUS
 62
    7
 10
345.24357690556604
 20
266.21152997603946
 11
343.23706961841151
 21
266.21152997603946
  0
LINE
  8
_0-f_
  6
CONTINUOUS
 62
    7
 10
345.26732017698743
 20
266.30014117603946
 11
343.1149439977242
 21
266.30014117603946
  0
LINE
  8
_0-f_
  6
CONTINUOUS
 62
    7
 10
345.21983363414466
 20
266.12291877603946
 11
343.35919523909888
 21
266.12291877603946
  0
LINE
  8
_0-f_
  6
CONTINUOUS
 62
    7
 10
345.14860381988041
 20
265.85708517603945
 11
343.72557210116082
 21
265.85708517603945
  0
LINE
  8
_0-f_
  6
CONTINUOUS
 62
    7
 10
345.28475825918105
 20
265.76847397603945
 11
343.92449482112301
 21
265.76847397603945
  0
LINE
  8
_0-f_
  6
CONTINUOUS
 62
    7
 10
347.66921137073183
 20
265.85708517603945
 11
347.46668078131887
 21
265.85708517603945
  0
LINE
  8
_0-f_
  6
CONTINUOUS
 62
    7
 10
347.64546788000098
 20
265.76847397603945
 11
347.09530515054803
 21
265.76847397603945
  0
LINE
  8
_0-f_
  6
CONTINUOUS
 62
    7
 10
348.00161804581847
 20
267.09764197603943
 11
345.75643859375282
 21
267.09764197603943
  0
LINE
  8
_0-f_
  6
CONTINUOUS
 62
    7
 10
347.97787474141143
 20
267.00903077603942
 11
345.84591590220094
 21
267.00903077603942
  0
LINE
  8
_0-f_
  6
CONTINUOUS
 62
    7
 10
347.95413143700449
 20
266.92041957603942
 11
345.93539321064912
 21
266.92041957603942
  0
LINE
  8
_0-f_
  6
CONTINUOUS
 62
    7
 10
347.93038813259756
 20
266.83180837603948
 11
346.02487051909725
 21
266.83180837603948
  0
LINE
  8
_0-f_
  6
CONTINUOUS
 62
    7
 10
347.86512683383552
 20
266.74319717603942
 11
346.11434782754537
 21
266.74319717603942
  0
LINE
  8
_0-f_
  6
CONTINUOUS
 62
    7
 10
347.77354619727367
 20
266.65458597603947
 11
346.20382513599355
 21
266.65458597603947
  0
LINE
  8
_0-f_
  6
CONTINUOUS
 62
    7
 10
347.68196556071189
 20
266.56597477603947
 11
346.3680493795265
 21
266.56597477603947
  0
LINE
  8
_0-f_
  6
CONTINUOUS
 62
    7
 10
348.02536135022541
 20
267.18625317603949
 11
345.65867308030869
 21
267.18625317603949
  0
LINE
  8
_0-f_
  6
CONTINUOUS
 62
    7
 10
348.06709150535318
 20
269.84458917603951
 11
344.21404441606359
 21
269.84458917603951
  0
LINE
  8
_0-f_
  6
CONTINUOUS
 62
    7
 10
347.85482474298243
 20
269.93320037603951
 11
344.45446799307774
 21
269.93320037603951
  0
LINE
  8
_0-f_
  6
CONTINUOUS
 62
    7
 10
347.53395277219755
 20
270.02181157603957
 11
344.84379294799407
 21
270.02181157603945
  0
LINE
  8
_0-f_
  6
CONTINUOUS
 62
    7
 10
347.04723249512648
 20
270.11042277603951
 11
345.23311790291109
 21
270.11042277603951
  0
LINE
  8
_0-f_
  6
CONTINUOUS
 62
    7
 10
348.27935826772392
 20
269.7559779760395
 11
346.83014186496001
 21
269.7559779760395
  0
LINE
  8
_0-f_
  6
CONTINUOUS
 62
    7
 10
348.49162503009467
 20
269.66736677603944
 11
347.0434027469139
 21
269.66736677603944
  0
LINE
  8
_0-f_
  6
CONTINUOUS
 62
    7
 10
348.66643056921436
 20
269.5787555760395
 11
347.06055532261172
 21
269.5787555760395
  0
LINE
  8
_0-f_
  6
CONTINUOUS
 62
    7
 10
348.64268726480731
 20
269.49014437603955
 11
347.07770789830948
 21
269.49014437603955
  0
LINE
  8
_0-f_
  6
CONTINUOUS
 62
    7
 10
348.61894396040026
 20
269.40153317603949
 11
347.07823975918194
 21
269.40153317603949
  0
LINE
  8
_0-f_
  6
CONTINUOUS
 62
    7
 10
348.59520065599327
 20
269.31292197603955
 11
347.05449645504228
 21
269.31292197603955
  0
LINE
  8
_0-f_
  6
CONTINUOUS
 62
    7
 10
348.57145735158622
 20
269.22431077603949
 11
347.03075315090263
 21
269.22431077603949
  0
LINE
  8
_0-f_
  6
CONTINUOUS
 62
    7
 10
348.54771404717917
 20
269.13569957603949
 11
347.00700984676291
 21
269.13569957603949
  0
LINE
  8
_0-f_
  6
CONTINUOUS
 62
    7
 10
348.52397074277218
 20
269.04708837603948
 11
346.9832665426232
 21
269.04708837603948
  0
LINE
  8
_0-f_
  6
CONTINUOUS
 62
    7
 10
348.50022743836513
 20
268.95847717603942
 11
346.95952323848354
 21
268.95847717603942
  0
LINE
  8
_0-f_
  6
CONTINUOUS
 62
    7
 10
348.47648413395808
 20
268.86986597603948
 11
346.93577993434388
 21
268.86986597603948
  0
LINE
  8
_0-f_
  6
CONTINUOUS
 62
    7
 10
348.45274082955103
 20
268.78125477603948
 11
346.91203663020423
 21
268.78125477603948
  0
LINE
  8
_0-f_
  6
CONTINUOUS
 62
    7
 10
348.42899752514404
 20
268.69264357603947
 11
346.88829332606457
 21
268.69264357603947
  0
LINE
  8
_0-f_
  6
CONTINUOUS
 62
    7
 10
348.40525422073694
 20
268.60403237603953
 11
346.86455002192491
 21
268.60403237603953
  0
LINE
  8
_0-f_
  6
CONTINUOUS
 62
    7
 10
348.38151091632994
 20
268.51542117603947
 11
346.8408067177852
 21
268.51542117603947
  0
LINE
  8
_0-f_
  6
CONTINUOUS
 62
    7
 10
348.35776761192295
 20
268.42680997603946
 11
346.81706341364549
 21
268.42680997603946
  0
LINE
  8
_0-f_
  6
CONTINUOUS
 62
    7
 10
348.33402430751602
 20
268.33819877603946
 11
346.79332010950583
 21
268.33819877603946
  0
LINE
  8
_0-f_
  6
CONTINUOUS
 62
    7
 10
348.31028100310908
 20
268.24958757603952
 11
346.76957680536617
 21
268.24958757603952
  0
LINE
  8
_0-f_
  6
CONTINUOUS
 62
    7
 10
348.28653769870203
 20
268.16097637603946
 11
346.74583350122651
 21
268.16097637603946
  0
LINE
  8
_0-f_
  6
CONTINUOUS
 62
    7
 10
348.2627943942951
 20
268.07236517603945
 11
346.72209019708686
 21
268.07236517603951
  0
LINE
  8
_0-f_
  6
CONTINUOUS
 62
    7
 10
348.23905108988816
 20
267.98375397603951
 11
346.6983468929472
 21
267.98375397603951
  0
LINE
  8
_0-f_
  6
CONTINUOUS
 62
    7
 10
348.21530778548117
 20
267.89514277603951
 11
346.67460358880749
 21
267.89514277603951
  0
LINE
  8
_0-f_
  6
CONTINUOUS
 62
    7
 10
348.19156448107418
 20
267.80653157603945
 11
346.65086028466777
 21
267.80653157603945
  0
LINE
  8
_0-f_
  6
CONTINUOUS
 62
    7
 10
345.48593768690392
 20
269.7559779760395
 11
344.03693373977342
 21
269.7559779760395
  0
LINE
  8
_0-f_
  6
CONTINUOUS
 62
    7
 10
345.06749948513425
 20
269.66736677603944
 11
343.85982306348325
 21
269.66736677603944
  0
LINE
  8
_0-f_
  6
CONTINUOUS
 62
    7
 10
344.64906128336457
 20
269.5787555760395
 11
343.68271238719308
 21
269.57875557603944
  0
LINE
  8
_0-f_
  6
CONTINUOUS
 62
    7
 10
344.42002824706054
 20
269.49014437603955
 11
343.50560171090314
 21
269.49014437603955
  0
LINE
  8
_0-f_
  6
CONTINUOUS
 62
    7
 10
344.22035517594446
 20
269.40153317603949
 11
343.35349002147677
 21
269.40153317603949
  0
LINE
  8
_0-f_
  6
CONTINUOUS
 62
    7
 10
344.02068210482867
 20
269.31292197603955
 11
343.2621896611119
 21
269.31292197603955
  0
LINE
  8
_0-f_
  6
CONTINUOUS
 62
    7
 10
343.8210090337127
 20
269.22431077603949
 11
343.17474203182559
 21
269.22431077603949
  0
LINE
  8
_0-f_
  6
CONTINUOUS
 62
    7
 10
343.69387486352895
 20
269.13569957603949
 11
343.07958894038205
 21
269.13569957603949
  0
LINE
  8
_0-f_
  6
CONTINUOUS
 62
    7
 10
343.58148255655095
 20
269.04708837603948
 11
342.98828858001713
 21
269.04708837603948
  0
LINE
  8
_0-f_
  6
CONTINUOUS
 62
    7
 10
343.4690902495729
 20
268.95847717603942
 11
342.8969882196522
 21
268.95847717603942
  0
LINE
  8
_0-f_
  6
CONTINUOUS
 62
    7
 10
343.35669794259496
 20
268.86986597603948
 11
342.80568785928739
 21
268.86986597603948
  0
LINE
  8
_0-f_
  6
CONTINUOUS
 62
    7
 10
343.24430563561691
 20
268.78125477603948
 11
342.71438749892241
 21
268.78125477603948
  0
LINE
  8
_0-f_
  6
CONTINUOUS
 62
    7
 10
343.16449147432053
 20
268.69264357603947
 11
342.66445720677331
 21
268.69264357603947
  0
LINE
  8
_0-f_
  6
CONTINUOUS
 62
    7
 10
343.10708843930058
 20
268.60403237603953
 11
342.62865866262399
 21
268.60403237603953
  0
LINE
  8
_0-f_
  6
CONTINUOUS
 62
    7
 10
345.45726634835643
 20
267.00903077603942
 11
343.91656244576586
 21
267.00903077603942
  0
LINE
  8
_0-f_
  6
CONTINUOUS
 62
    7
 10
345.43352307693539
 20
266.92041957603942
 11
343.89281914685654
 21
266.92041957603942
  0
LINE
  8
_0-f_
  6
CONTINUOUS
 62
    7
 10
345.40977980551435
 20
266.83180837603948
 11
343.86907584794722
 21
266.83180837603948
  0
LINE
  8
_0-f_
  6
CONTINUOUS
 62
    7
 10
345.38603653409331
 20
266.74319717603942
 11
343.84533254903789
 21
266.74319717603942
  0
LINE
  8
_0-f_
  6
CONTINUOUS
 62
    7
 10
345.36229326267238
 20
266.65458597603947
 11
343.82158925012857
 21
266.65458597603947
  0
LINE
  8
_0-f_
  6
CONTINUOUS
 62
    7
 10
345.33854999125134
 20
266.56597477603947
 11
343.79784595121924
 21
266.56597477603947
  0
LINE
  8
_0-f_
  6
CONTINUOUS
 62
    7
 10
345.3148067198303
 20
266.47736357603947
 11
343.77410265230992
 21
266.47736357603947
  0
LINE
  8
_0-f_
  6
CONTINUOUS
 62
    7
 10
345.29106344840886
 20
266.38875237603941
 11
343.7503593534006
 21
266.38875237603941
  0
LINE
  8
_0-f_
  6
CONTINUOUS
 62
    7
 10
346.22094940190999
 20
268.16097637603946
 11
344.22522533158701
 21
268.16097637603946
  0
LINE
  8
_0-f_
  6
CONTINUOUS
 62
    7
 10
346.30981721790175
 20
268.07236517603951
 11
344.20148203267769
 21
268.07236517603951
  0
LINE
  8
_0-f_
  6
CONTINUOUS
 62
    7
 10
346.39868503389357
 20
267.98375397603951
 11
344.17773873376836
 21
267.98375397603951
  0
LINE
  8
_0-f_
  6
CONTINUOUS
 62
    7
 10
346.48755284988539
 20
267.89514277603951
 11
344.15399543485904
 21
267.89514277603951
  0
LINE
  8
_0-f_
  6
CONTINUOUS
 62
    7
 10
346.57642066587715
 20
267.80653157603945
 11
344.13025213594972
 21
267.80653157603945
  0
LINE
  8
_0-f_
  6
CONTINUOUS
 62
    7
 10
348.16782117666725
 20
267.71792037603944
 11
344.10650883704039
 21
267.71792037603944
  0
LINE
  8
_0-f_
  6
CONTINUOUS
 62
    7
 10
348.14407787226025
 20
267.62930917603944
 11
344.08276553813107
 21
267.62930917603944
  0
LINE
  8
_0-f_
  6
CONTINUOUS
 62
    7
 10
348.12033456785332
 20
267.5406979760395
 11
344.05902223922175
 21
267.5406979760395
  0
LINE
  8
_0-f_
  6
CONTINUOUS
 62
    7
 10
348.09659126344633
 20
267.45208677603944
 11
344.03527894031248
 21
267.45208677603944
  0
LINE
  8
_0-f_
  6
CONTINUOUS
 62
    7
 10
348.07284795903939
 20
267.36347557603955
 11
344.0115356414031
 21
267.36347557603938
  0
LINE
  8
_0-f_
  6
CONTINUOUS
 62
    7
 10
348.0491046546324
 20
267.27486437603949
 11
343.98779234249383
 21
267.27486437603949
  0
LINE
  8
_0-f_
  6
CONTINUOUS
 62
    7
 10
345.50475289119851
 20
267.18625317603949
 11
343.96404904358445
 21
267.18625317603949
  0
LINE
  8
_0-f_
  6
CONTINUOUS
 62
    7
 10
345.48100961977747
 20
267.09764197603943
 11
343.94030574467519
 21
267.09764197603943
  0
LINE
  8
_0-f_
  6
CONTINUOUS
 62
    7
 10
346.04321376992641
 20
268.33819877603946
 11
344.307144800895
 21
268.33819877603952
  0
LINE
  8
_0-f_
  6
CONTINUOUS
 62
    7
 10
346.13208158591812
 20
268.24958757603952
 11
344.25838542829382
 21
268.24958757603952
  0
LINE
  8
_0-f_
  6
CONTINUOUS
 62
    7
 10
345.94745528052198
 20
268.42680997603946
 11
344.39319072571539
 21
268.42680997603946
  0
LINE
  8
_0-f_
  6
CONTINUOUS
 62
    7
 10
345.7158135043465
 20
268.51542117603947
 11
344.63982894566465
 21
268.51542117603947
  0
LINE
  8
_0-f_
  6
CONTINUOUS
 62
    7
 10
343.04968540428064
 20
268.51542117603947
 11
342.59286011847468
 21
268.51542117603947
  0
LINE
  8
_0-f_
  6
CONTINUOUS
 62
    7
 10
342.99228236926075
 20
268.42680997603946
 11
342.55706157432536
 21
268.42680997603946
  0
LINE
  8
_0-f_
  6
CONTINUOUS
 62
    7
 10
342.93487933424086
 20
268.33819877603958
 11
342.52126303017604
 21
268.33819877603958
  0
LINE
  8
_0-f_
  6
CONTINUOUS
 62
    7
 10
342.87747629922092
 20
268.24958757603952
 11
342.48546448602673
 21
268.24958757603952
  0
LINE
  8
_0-f_
  6
CONTINUOUS
 62
    7
 10
342.8456887660023
 20
268.16097637603946
 11
342.44966594187741
 21
268.16097637603946
  0
LINE
  8
_0-f_
  6
CONTINUOUS
 62
    7
 10
342.83247405022252
 20
268.07236517603957
 11
342.4138673977281
 21
268.07236517603957
  0
LINE
  8
_0-f_
  6
CONTINUOUS
 62
    7
 10
342.81925933444262
 20
267.98375397603951
 11
342.37806885357878
 21
267.98375397603951
  0
LINE
  8
_0-f_
  6
CONTINUOUS
 62
    7
 10
342.80604461866284
 20
267.89514277603951
 11
342.38538657717959
 21
267.89514277603951
  0
LINE
  8
_0-f_
  6
CONTINUOUS
 62
    7
 10
342.792829902883
 20
267.80653157603945
 11
342.39483421211929
 21
267.80653157603945
  0
LINE
  8
_0-f_
  6
CONTINUOUS
 62
    7
 10
342.77961518710316
 20
267.71792037603944
 11
342.40428184705894
 21
267.71792037603944
  0
LINE
  8
_0-f_
  6
CONTINUOUS
 62
    7
 10
342.77031188726596
 20
267.62930917603944
 11
342.41372948199864
 21
267.62930917603944
  0
LINE
  8
_0-f_
  6
CONTINUOUS
 62
    7
 10
342.79897920403312
 20
267.5406979760395
 11
342.42317711693835
 21
267.5406979760395
  0
LINE
  8
_0-f_
  6
CONTINUOUS
 62
    7
 10
342.82764652080027
 20
267.45208677603944
 11
342.432624751878
 21
267.45208677603944
  0
LINE
  8
_0-f_
  6
CONTINUOUS
 62
    7
 10
342.85631383756748
 20
267.36347557603938
 11
342.4420723868177
 21
267.36347557603938
  0
LINE
  8
_0-f_
  6
CONTINUOUS
 62
    7
 10
342.88498115433458
 20
267.27486437603949
 11
342.45152002175735
 21
267.27486437603949
  0
LINE
  8
_0-f_
  6
CONTINUOUS
 62
    7
 10
342.91364847110174
 20
267.18625317603949
 11
342.46096765669705
 21
267.18625317603949
  0
LINE
  8
_0-f_
  6
CONTINUOUS
 62
    7
 10
342.94231578786889
 20
267.09764197603943
 11
342.50589982893433
 21
267.09764197603943
  0
LINE
  8
_0-f_
  6
CONTINUOUS
 62
    7
 10
343.00556487793341
 20
267.00903077603942
 11
342.56343254687988
 21
267.00903077603942
  0
LINE
  8
_0-f_
  6
CONTINUOUS
 62
    7
 10
343.08105980402325
 20
266.92041957603942
 11
342.62096526482537
 21
266.92041957603942
  0
LINE
  8
_0-f_
  6
CONTINUOUS
 62
    7
 10
343.15655473011304
 20
266.83180837603948
 11
342.67849798277086
 21
266.83180837603948
  0
LINE
  8
_0-f_
  6
CONTINUOUS
 62
    7
 10
343.23204965620289
 20
266.74319717603942
 11
342.73603070071641
 21
266.74319717603942
  0
LINE
  8
_0-f_
  6
CONTINUOUS
 62
    7
 10
343.30754458229268
 20
266.65458597603947
 11
342.7935634186619
 21
266.65458597603947
  0
LINE
  8
_0-f_
  6
CONTINUOUS
 62
    7
 10
343.38303950838247
 20
266.56597477603947
 11
342.8510961366074
 21
266.56597477603947
  0
LINE
  8
_0-f_
  6
CONTINUOUS
 62
    7
 10
343.50334090734526
 20
266.47736357603947
 11
342.90862885455294
 21
266.47736357603947
  0
LINE
  8
_0-f_
  6
CONTINUOUS
 62
    7
 10
343.6246603837468
 20
266.38875237603941
 11
342.99281837703694
 21
266.38875237603941
  0
TEXT
  8
_0-f_
 62
    7
 10
333.95066747259756
 20
219.00392096400986
 40
3
 41
1
 50
0
  1
②扉　　ｱｸﾘﾙ　t4.0　ｸﾘｱ
  0
TEXT
  8
_0-f_
 62
    7
 10
379.95066747259756
 20
16.25392096400995
 40
2.5
 41
1
 50
0
  1
2020.02.15
  0
ENDSEC
  0
EOF
