  0
SECTION
  2
HEADER
  9
$ACADVER
  1
AC1009
  9
$INSBASE
 10
0
 20
0
 30
0
  9
$EXTMIN
 10
0
 20
0
  9
$EXTMAX
 10
420
 20
297
  9
$LIMMIN
 10
0
 20
0
  9
$LIMMAX
 10
420
 20
297
  9
$LTSCALE
 40
1
  0
ENDSEC
  0
SECTION
  2
TABLES
  0
TABLE
  2
LTYPE
 70
     9
  0
LTYPE
  2
CONTINUOUS
 70
    64
  3
実線
 72
    65
 73
     0
 40
0.0
  0
LTYPE
  2
DASHED1
 70
    64
  3
--  --  --  --  --  --  --  --  
 72
    65
 73
     2
 40
2.5
 49
1.25
 49
-1.25
  0
LTYPE
  2
DASHED2
 70
    64
  3
----    ----    ----    ----    
 72
    65
 73
     2
 40
5.0
 49
2.5
 49
-2.5
  0
LTYPE
  2
DASHED3
 70
    64
  3
------  ------  ------  ------  
 72
    65
 73
     2
 40
5.0
 49
3.75
 49
-1.25
  0
LTYPE
  2
CENTER1
 70
    64
  3
----- - ----- - ----- - ----- - 
 72
    65
 73
     4
 40
10.0
 49
6.25
 49
-1.25
 49
1.25
 49
-1.25
  0
LTYPE
  2
CENTER2
 70
    64
  3
----------  --  ----------  --  
 72
    65
 73
     4
 40
20.0
 49
12.5
 49
-2.5
 49
2.5
 49
-2.5
  0
LTYPE
  2
PHANTOM1
 70
    64
  3
--- - - --- - - --- - - --- - - 
 72
    65
 73
     6
 40
10.0
 49
3.25
 49
-1.25
 49
1.25
 49
-1.25
 49
1.25
 49
-1.25
  0
LTYPE
  2
PHANTOM2
 70
    64
  3
--------  -  -  --------  -  -  
 72
    65
 73
     6
 40
20.0
 49
10.0
 49
-2.5
 49
1.25
 49
-2.5
 49
1.25
 49
-2.5
  0
LTYPE
  2
DOT
 70
    64
  3
-   -   -   -   -   -   -   -   
 72
    65
 73
     2
 40
2.5
 49
0.625
 49
-1.875
  0
LTYPE
  2
DUMMY
 70
    64
  3
ダミー
 72
    65
 73
     0
 40
0.0
  0
LTYPE
  2
RAND1
 70
    64
  3
ランダム線1
 72
    65
 73
     4
 40
10.0
 49
1.0
 49
-2.0
 49
3.0
 49
-4.0
  0
LTYPE
  2
RAND2
 70
    64
  3
ランダム線2
 72
    65
 73
     4
 40
14.0
 49
2.0
 49
-3.0
 49
4.0
 49
-5.0
  0
LTYPE
  2
RAND3
 70
    64
  3
ランダム線3
 72
    65
 73
     4
 40
18.0
 49
3.0
 49
-4.0
 49
5.0
 49
-6.0
  0
LTYPE
  2
RAND4
 70
    64
  3
ランダム線4
 72
    65
 73
     4
 40
22.0
 49
4.0
 49
-5.0
 49
6.0
 49
-7.0
  0
LTYPE
  2
RAND5
 70
    64
  3
ランダム線5
 72
    65
 73
     4
 40
26.0
 49
5.0
 49
-6.0
 49
7.0
 49
-8.0
  0
LTYPE
  2
LONG1
 70
    64
  3
----------  --  ----------  --  
 72
    65
 73
     4
 40
40.0
 49
32.5
 49
-2.5
 49
2.5
 49
-2.5
  0
LTYPE
  2
LONG2
 70
    64
  3
--------  -  -  --------  -  -  
 72
    65
 73
     6
 40
40.0
 49
30.0
 49
-2.5
 49
1.25
 49
-2.5
 49
1.25
 49
-2.5
  0
LTYPE
  2
LONG3
 70
    64
  3
+++++++++++++++..+++++++++++++++
 72
    65
 73
     2
 40
40.0
 49
37.5
 49
-2.5
  0
LTYPE
  2
LONG4
 70
    64
  3
+++++++++++++++..+++++++++++++++
 72
    65
 73
     2
 40
80.0
 49
75.0
 49
-5.0
  0
LTYPE
  2
LONG5
 70
    64
  3
----------  --  ----------  --  
 72
    65
 73
     4
 40
60.0
 49
37.5
 49
-7.5
 49
7.5
 49
-7.5
  0
LTYPE
  2
dashed
 70
   64
  3
-------   -------------   ------
 72
   65
 73
    2
 40
7.5
 49
6
 49
-1.5
  0
LTYPE
  2
dashed_spaced
 70
   64
  3
----        --------        ----
 72
   65
 73
    2
 40
12
 49
6
 49
-6
  0
LTYPE
  2
long_dashed_dotted
 70
   64
  3
------------- --- --------------
 72
   65
 73
    4
 40
15.25
 49
12
 49
-1.5
 49
0.25
 49
-1.5
  0
LTYPE
  2
long_dashed_double-dotted
 70
   64
  3
----------- --- --- ------------
 72
   65
 73
    6
 40
17
 49
12
 49
-1.5
 49
0.25
 49
-1.5
 49
0.25
 49
-1.5
  0
LTYPE
  2
long_dashed_triplicate-dotted
 70
   64
  3
--------- --- --- --- ----------
 72
   65
 73
    8
 40
18.75
 49
12
 49
-1.5
 49
0.25
 49
-1.5
 49
0.25
 49
-1.5
 49
0.25
 49
-1.5
  0
LTYPE
  2
dotted
 70
   64
  3
   -       -       -       -    
 72
   65
 73
    2
 40
1.75
 49
0.25
 49
-1.5
  0
LTYPE
  2
chain
 70
   64
  3
-------------- -- --------------
 72
   65
 73
    4
 40
18.5
 49
12
 49
-1.5
 49
3.5
 49
-1.5
  0
LTYPE
  2
chain_double_dash
 70
   64
  3
------------ -- -- -------------
 72
   65
 73
    6
 40
23.5
 49
12
 49
-1.5
 49
3.5
 49
-1.5
 49
3.5
 49
-1.5
  0
LTYPE
  2
dashed_dotted
 70
   64
  3
-----------     -     ----------
 72
   65
 73
    4
 40
9.25
 49
6
 49
-1.5
 49
0.25
 49
-1.5
  0
LTYPE
  2
double-dashed_dotted
 70
   64
  3
------   -----------   -   -----
 72
   65
 73
    6
 40
16.75
 49
6
 49
-1.5
 49
6
 49
-1.5
 49
0.25
 49
-1.5
  0
LTYPE
  2
dashed_double-dotted
 70
   64
  3
---------    -    -    ---------
 72
   65
 73
    6
 40
11
 49
6
 49
-1.5
 49
0.25
 49
-1.5
 49
0.25
 49
-1.5
  0
LTYPE
  2
double-dashed_double-dotted
 70
   64
  3
-----   ---------   -   -   ----
 72
   65
 73
    8
 40
18.5
 49
6
 49
-1.5
 49
6
 49
-1.5
 49
0.25
 49
-1.5
 49
0.25
 49
-1.5
  0
LTYPE
  2
dashed_triplicate-dotted
 70
   64
  3
-------    -    -    -    ------
 72
   65
 73
    8
 40
12.75
 49
6
 49
-1.5
 49
0.25
 49
-1.5
 49
0.25
 49
-1.5
 49
0.25
 49
-1.5
  0
LTYPE
  2
double-dashed_triplicate-dotted
 70
   64
  3
-----  ---------  -  -  -  -----
 72
   65
 73
   10
 40
20.25
 49
6
 49
-1.5
 49
6
 49
-1.5
 49
0.25
 49
-1.5
 49
0.25
 49
-1.5
 49
0.25
 49
-1.5
  0
LTYPE
  2
undefined
 70
   64
  3
--------------------------------
 72
   65
 73
    0
 40
0
  0
LTYPE
  2
_
 70
   64
  3
                                
 72
   65
 73
    0
 40
0
  0
LTYPE
  2
__18
 70
   64
  3
                                
 72
   65
 73
    0
 40
0
  0
LTYPE
  2
__19
 70
   64
  3
                                
 72
   65
 73
    0
 40
0
  0
LTYPE
  2
__20
 70
   64
  3
                                
 72
   65
 73
    0
 40
0
  0
LTYPE
  2
__21
 70
   64
  3
                                
 72
   65
 73
    0
 40
0
  0
LTYPE
  2
__22
 70
   64
  3
                                
 72
   65
 73
    0
 40
0
  0
LTYPE
  2
__23
 70
   64
  3
                                
 72
   65
 73
    0
 40
0
  0
LTYPE
  2
__24
 70
   64
  3
                                
 72
   65
 73
    0
 40
0
  0
LTYPE
  2
__25
 70
   64
  3
                                
 72
   65
 73
    0
 40
0
  0
LTYPE
  2
__26
 70
   64
  3
                                
 72
   65
 73
    0
 40
0
  0
LTYPE
  2
__27
 70
   64
  3
                                
 72
   65
 73
    0
 40
0
  0
LTYPE
  2
__28
 70
   64
  3
                                
 72
   65
 73
    0
 40
0
  0
LTYPE
  2
__29
 70
   64
  3
                                
 72
   65
 73
    0
 40
0
  0
LTYPE
  2
__30
 70
   64
  3
                                
 72
   65
 73
    0
 40
0
  0
LTYPE
  2
__31
 70
   64
  3
                                
 72
   65
 73
    0
 40
0
  0
LTYPE
  2
__32
 70
   64
  3
                                
 72
   65
 73
    0
 40
0
  0
ENDTAB
  0
TABLE
  2
STYLE
  5
3
100
AcDbSymbolTable
 70
     1
  0
STYLE
  5
10
100
AcDbSymbolTableRecord
100
AcDbTextStyleTableRecord
  2
STANDARD
 70
     0
 40
0.0
 41
1.0
 50
0.0
 71
     0
 42
0.2
  3
txt
  4
bigfont.shx
  0
STYLE
  5
26
100
AcDbSymbolTableRecord
100
AcDbTextStyleTableRecord
  2
TATEGAKI
 70
    68
 40
0.0
 41
1.0
 50
0.0
 71
     0
 42
1.0
  3
txt
  4
bigfont.shx
  0
ENDTAB
  0
TABLE
  2
LAYER
 70
    5
  0
LAYER
  2
_0-0_
 70
   64
 62
    7
  6
CONTINUOUS
  0
LAYER
  2
_0-1_
 70
   64
 62
    7
  6
CONTINUOUS
  0
LAYER
  2
_0-f_
 70
   64
 62
    7
  6
CONTINUOUS
  0
LAYER
  2
_1-2_ADD_LINE
 70
   64
 62
    7
  6
CONTINUOUS
  0
LAYER
  2
ADD_LINE
 70
   64
 62
    7
  6
CONTINUOUS
  0
ENDTAB
  0
ENDSEC
  0
SECTION
  2
BLOCKS
  0
ENDSEC
  0
SECTION
  2
ENTITIES
  0
LINE
  8
_0-f_
  6
CONTINUOUS
 62
    7
 10
389.59047036124105
 20
41.657804196351947
 11
389.59047036124105
 21
15.657837326353842
  0
LINE
  8
_0-f_
  6
CONTINUOUS
 62
    7
 10
25.090470361241046
 20
15.65780419635189
 11
425.09047036124105
 21
15.65780419635189
  0
LINE
  8
_0-f_
  6
CONTINUOUS
 62
    7
 10
425.09047036124105
 20
15.65780419635189
 11
425.09047036124105
 21
292.65780419635189
  0
LINE
  8
_0-f_
  6
CONTINUOUS
 62
    7
 10
425.09047036124105
 20
292.65780419635189
 11
25.090470361241046
 21
292.65780419635189
  0
LINE
  8
_0-f_
  6
CONTINUOUS
 62
    7
 10
25.090470361241046
 20
292.65780419635189
 11
25.090470361241046
 21
15.65780419635189
  0
LINE
  8
_0-f_
  6
CONTINUOUS
 62
    7
 10
354.09047036124105
 20
292.65780419635189
 11
354.09047036124105
 21
15.65780419635189
  0
LINE
  8
_0-f_
  6
CONTINUOUS
 62
    7
 10
354.09047036124105
 20
277.65780419635178
 11
425.09047036124105
 21
277.65780419635178
  0
LINE
  8
_0-f_
  6
CONTINUOUS
 62
    7
 10
354.09047036124105
 20
262.65780419635178
 11
425.09047036124105
 21
262.65780419635178
  0
LINE
  8
_0-f_
  6
CONTINUOUS
 62
    7
 10
354.09047036124105
 20
247.65780419635189
 11
425.09047036124105
 21
247.65780419635189
  0
LINE
  8
_0-f_
  6
CONTINUOUS
 62
    7
 10
354.09047036124105
 20
28.657804196351947
 11
425.09047036124105
 21
28.657804196351947
  0
LINE
  8
_0-f_
  6
CONTINUOUS
 62
    7
 10
354.09047036124105
 20
41.657804196351947
 11
425.09047036124105
 21
41.657804196351947
  0
LINE
  8
_0-f_
  6
CONTINUOUS
 62
    7
 10
354.09047036124105
 20
61.657804196351947
 11
425.09047036124105
 21
61.657804196351947
  0
LINE
  8
ADD_LINE
  6
DOT
 62
    9
 10
355.09047036124105
 20
292.65780419635189
 11
355.09047036124105
 21
15.65780419635189
  0
LINE
  8
ADD_LINE
  6
DOT
 62
    9
 10
354.09047036124105
 20
276.65780419635178
 11
425.09047036124105
 21
276.65780419635178
  0
LINE
  8
ADD_LINE
  6
DOT
 62
    9
 10
354.09047036124105
 20
261.65780419635178
 11
425.09047036124105
 21
261.65780419635178
  0
LINE
  8
ADD_LINE
  6
DOT
 62
    9
 10
354.09047036124105
 20
246.65780419635189
 11
425.09047036124105
 21
246.65780419635189
  0
TEXT
  8
_0-f_
 62
    7
 10
355.09047036124105
 20
274.65780419635178
 40
2
 41
1
 50
0
  1
品　名　：
  0
TEXT
  8
_0-f_
 62
    7
 10
355.09047036124105
 20
259.65780419635178
 40
2
 41
1
 50
0
  1
形　式　：
  0
TEXT
  8
_0-f_
 62
    7
 10
355.09047036124105
 20
244.65780419635189
 40
2
 41
1
 50
0
  1
仕　様　：
  0
LINE
  8
ADD_LINE
  6
DOT
 62
    9
 10
354.09047036124105
 20
60.657804196351947
 11
425.09047036124105
 21
60.657804196351947
  0
LINE
  8
ADD_LINE
  6
DOT
 62
    9
 10
354.09047036124105
 20
40.657804196351947
 11
425.09047036124105
 21
40.657804196351947
  0
LINE
  8
ADD_LINE
  6
DOT
 62
    9
 10
354.09047036124105
 20
27.657804196351947
 11
425.09047036124105
 21
27.657804196351947
  0
LINE
  8
ADD_LINE
  6
DOT
 62
    9
 10
390.59047036124105
 20
41.657804196351947
 11
390.59047036124105
 21
15.657837326353842
  0
TEXT
  8
_0-f_
 62
    7
 10
355.09047036124105
 20
58.657804196351947
 40
2
 41
1
 50
0
  1
図面名称　：
  0
TEXT
  8
_0-f_
 62
    7
 10
355.09047036124105
 20
38.657804196351947
 40
2
 41
1
 50
0
  1
尺　度　：
  0
TEXT
  8
_0-f_
 62
    7
 10
355.09047036124105
 20
25.65780419635189
 40
2
 41
1
 50
0
  1
サイズ　：
  0
TEXT
  8
_0-f_
 62
    7
 10
390.59047036124105
 20
38.657804196351947
 40
2
 41
1
 50
0
  1
作成日
  0
TEXT
  8
_0-f_
 62
    7
 10
390.59047036124105
 20
25.65780419635189
 40
2
 41
1
 50
0
  1
File Name ：
  0
LINE
  8
ADD_LINE
  6
DOT
 62
    9
 10
371.84047036124105
 20
43.921508992684323
 11
371.84047036124105
 21
11.862743543766669
  0
LINE
  8
ADD_LINE
  6
DOT
 62
    9
 10
349.95242764473835
 20
35.157804196351947
 11
426.71142756817176
 21
35.157804196351947
  0
LINE
  8
ADD_LINE
  6
DOT
 62
    9
 10
351.97506268883399
 20
22.15780419635189
 11
426.20576880714782
 21
22.15780419635189
  0
TEXT
  8
_0-f_
 62
    7
 10
370.59047036124105
 20
20.90780419635189
 40
2.5
 41
1
 50
0
  1
A3
  0
LINE
  8
ADD_LINE
  6
DOT
 62
    9
 10
407.34047036124105
 20
43.921508992684323
 11
407.34047036124105
 21
11.862743543766669
  0
TEXT
  8
_0-f_
 62
    7
 10
369.96547036124105
 20
33.907804196351947
 40
2.5
 41
1
 50
0
  1
1/5
  0
LINE
  8
ADD_LINE
  6
DOT
 62
    9
 10
354.09047036124105
 20
243.65780419635189
 11
425.09047036124105
 21
243.65780419635189
  0
LINE
  8
ADD_LINE
  6
DOT
 62
    9
 10
354.09047036124105
 20
239.65780419635189
 11
425.09047036124105
 21
239.65780419635189
  0
LINE
  8
ADD_LINE
  6
DOT
 62
    9
 10
354.09047036124105
 20
235.65780419635189
 11
425.09047036124105
 21
235.65780419635189
  0
LINE
  8
ADD_LINE
  6
DOT
 62
    9
 10
354.09047036124105
 20
231.65780419635189
 11
425.09047036124105
 21
231.65780419635189
  0
LINE
  8
ADD_LINE
  6
DOT
 62
    9
 10
354.09047036124105
 20
227.65780419635189
 11
425.09047036124105
 21
227.65780419635189
  0
LINE
  8
ADD_LINE
  6
DOT
 62
    9
 10
354.09047036124105
 20
223.65780419635189
 11
425.09047036124105
 21
223.65780419635189
  0
TEXT
  8
_0-f_
 62
    7
 10
355.09047036124105
 20
240.65780419635189
 40
3
 41
1
 50
0
  1
①本体　ｽﾁｰﾙ　t1.2　ﾎﾟﾘｯｼｭﾎﾜｲﾄ＆ﾚｯﾄﾞ　焼付塗装
  0
TEXT
  8
_0-f_
 62
    7
 10
355.09047036124105
 20
232.65780419635189
 40
3
 41
1
 50
0
  1
③ｱｸﾘﾙﾌﾟﾚｰﾄ　透明
  0
TEXT
  8
_0-1_
 62
    7
 10
74.75046381472643
 20
37.724519948025375
 40
5
 41
1
 50
0
  1
※ご発注前にご収納されますＡＥＤ機器寸法をご確認下さい
  0
LINE
  8
_0-1_
  6
CONTINUOUS
 62
    7
 10
328.24177872197936
 20
209.1509262367349
 11
328.24177872197936
 21
225.46263277970365
  0
LINE
  8
_0-1_
  6
CONTINUOUS
 62
    7
 10
258.24164902227233
 20
209.1509262367349
 11
258.24164902227233
 21
225.46263277970365
  0
LINE
  8
_0-1_
  6
CONTINUOUS
 62
    7
 10
257.32453476445983
 20
208.77593386612944
 11
248.06513535039733
 21
208.77593386612944
  0
LINE
  8
_0-1_
  6
CONTINUOUS
 62
    7
 10
249.22692429082701
 20
106.27603877030424
 11
249.22692429082701
 21
208.77593386612944
  0
LINE
  8
_0-1_
  6
CONTINUOUS
 62
    7
 10
257.32453476445983
 20
104.77603304825834
 11
248.06513535039733
 21
104.77603304825834
  0
LINE
  8
_0-1_
  6
CONTINUOUS
 62
    7
 10
248.82508408086608
 20
106.27603877030424
 11
249.22692429082701
 21
104.77603304825834
  0
LINE
  8
_0-1_
  6
CONTINUOUS
 62
    7
 10
249.22692429082701
 20
104.77603304825834
 11
249.62896286504576
 21
106.27603877030424
  0
LINE
  8
_0-1_
  6
CONTINUOUS
 62
    7
 10
249.22692429082701
 20
104.77603304825834
 11
249.22692429082701
 21
106.27603877030424
  0
LINE
  8
_0-1_
  6
CONTINUOUS
 62
    7
 10
249.62896286504576
 20
207.2759262367349
 11
249.22692429082701
 21
208.77593386612944
  0
LINE
  8
_0-1_
  6
CONTINUOUS
 62
    7
 10
249.22692429082701
 20
208.77593386612944
 11
248.82508408086608
 21
207.2759262367349
  0
LINE
  8
_0-1_
  6
CONTINUOUS
 62
    7
 10
249.22692429082701
 20
208.77593386612944
 11
249.22692429082701
 21
207.2759262367349
  0
LINE
  8
_0-1_
  6
CONTINUOUS
 62
    7
 10
328.24177872197936
 20
92.08091924018828
 11
314.24177872197936
 21
92.08091924018828
  0
POINT
  8
_0-1_
 62
    7
 10
328.24177872197936
 20
92.08091924018828
  0
POINT
  8
_0-1_
 62
    7
 10
314.24177872197936
 20
92.08091924018828
  0
LINE
  8
_0-1_
  6
CONTINUOUS
 62
    7
 10
328.24177872197936
 20
92.08091924018828
 11
328.24177872197936
 21
116.18300842410218
  0
LINE
  8
_0-1_
  6
CONTINUOUS
 62
    7
 10
314.24177872197936
 20
92.08091924018828
 11
314.24177872197936
 21
116.18300842410218
  0
LINE
  8
_0-1_
  6
CONTINUOUS
 62
    7
 10
314.24177872197936
 20
92.08091924018828
 11
272.24164902227233
 21
92.08091924018828
  0
POINT
  8
_0-1_
 62
    7
 10
272.24164902227233
 20
92.08091924018828
  0
LINE
  8
_0-1_
  6
CONTINUOUS
 62
    7
 10
272.24164902227233
 20
92.08091924018828
 11
272.24164902227233
 21
116.18300842410218
  0
LINE
  8
_0-1_
  6
CONTINUOUS
 62
    7
 10
272.24164902227233
 20
92.08091924018828
 11
258.24164902227233
 21
92.08091924018828
  0
POINT
  8
_0-1_
 62
    7
 10
258.24164902227233
 20
92.08091924018828
  0
LINE
  8
_0-1_
  6
CONTINUOUS
 62
    7
 10
258.24164902227233
 20
92.08091924018828
 11
258.24164902227233
 21
116.18300842410218
  0
LINE
  8
_0-1_
  6
CONTINUOUS
 62
    7
 10
259.74172531621764
 20
224.3107162757974
 11
258.24164902227233
 21
224.71263277970365
  0
LINE
  8
_0-1_
  6
CONTINUOUS
 62
    7
 10
258.24164902227233
 20
224.71263277970365
 11
259.74172531621764
 21
225.1145492836099
  0
LINE
  8
_0-1_
  6
CONTINUOUS
 62
    7
 10
258.24164902227233
 20
224.71263277970365
 11
259.74172531621764
 21
224.71263277970365
  0
LINE
  8
_0-1_
  6
CONTINUOUS
 62
    7
 10
326.74190079229186
 20
225.1145492836099
 11
328.24177872197936
 21
224.71263277970365
  0
LINE
  8
_0-1_
  6
CONTINUOUS
 62
    7
 10
328.24177872197936
 20
224.71263277970365
 11
326.74190079229186
 21
224.3107162757974
  0
LINE
  8
_0-1_
  6
CONTINUOUS
 62
    7
 10
328.24177872197936
 20
224.71263277970365
 11
326.74190079229186
 21
224.71263277970365
  0
LINE
  8
_0-1_
  6
CONTINUOUS
 62
    7
 10
258.24164902227233
 20
224.71263277970365
 11
328.24177872197936
 21
224.71263277970365
  0
TEXT
  8
_0-1_
 62
    7
 10
282.12608400312581
 20
225.91024443123865
 40
6
 41
1
 50
0
  1
350
  0
TEXT
  8
_0-1_
 62
    7
 10
261.24164902227233
 20
92.08091924018828
 40
6
 41
1
 50
0
  1
70
  0
TEXT
  8
_0-1_
 62
    7
 10
317.24177872197936
 20
92.08091924018828
 40
6
 41
1
 50
0
  1
70
  0
LINE
  8
_0-1_
  6
CONTINUOUS
 62
    7
 10
339.6401159830275
 20
104.77593577347807
 11
339.6401159830275
 21
121.77593577347807
  0
POINT
  8
_0-1_
 62
    7
 10
339.6401159830275
 20
104.77593577347807
  0
POINT
  8
_0-1_
 62
    7
 10
339.6401159830275
 20
121.77593577347807
  0
LINE
  8
_0-1_
  6
CONTINUOUS
 62
    7
 10
339.6401159830275
 20
104.77593577347807
 11
319.03861998932769
 21
104.77593577347807
  0
LINE
  8
_0-1_
  6
CONTINUOUS
 62
    7
 10
339.6401159830275
 20
121.77593577347807
 11
319.03861998932769
 21
121.77593577347807
  0
LINE
  8
_0-1_
  6
CONTINUOUS
 62
    7
 10
339.6401159830275
 20
121.77593577347807
 11
339.6401159830275
 21
169.77593577347807
  0
POINT
  8
_0-1_
 62
    7
 10
339.6401159830275
 20
169.77593577347807
  0
LINE
  8
_0-1_
  6
CONTINUOUS
 62
    7
 10
339.6401159830275
 20
169.77593577347807
 11
319.03861998932769
 21
169.77593577347807
  0
LINE
  8
_0-1_
  6
CONTINUOUS
 62
    7
 10
339.6401159830275
 20
169.77593577347807
 11
339.6401159830275
 21
208.77593386612944
  0
POINT
  8
_0-1_
 62
    7
 10
339.6401159830275
 20
208.77593386612944
  0
LINE
  8
_0-1_
  6
CONTINUOUS
 62
    7
 10
339.6401159830275
 20
208.77593386612944
 11
319.03861998932769
 21
208.77593386612944
  0
TEXT
  8
_0-1_
 62
    7
 10
248.45391403692076
 20
153.34720766984037
 40
6
 41
1
 50
90
  1
520
  0
TEXT
  8
_0-1_
 62
    7
 10
339.6401159830275
 20
110.33824151942508
 40
6
 41
1
 50
90
  1
85
  0
TEXT
  8
_0-1_
 62
    7
 10
338.82689903590767
 20
140.15619624714844
 40
6
 41
1
 50
90
  1
240
  0
TEXT
  8
_0-1_
 62
    7
 10
339.6401159830275
 20
183.79883907590715
 40
6
 41
1
 50
90
  1
195
  0
TEXT
  8
_0-1_
 62
    7
 10
290.23336956785135
 20
91.929873103337911
 40
6
 41
1
 50
0
  1
210
  0
TEXT
  8
_0-1_
 62
    7
 10
267.40180352743641
 20
70.950320511301641
 40
8
 41
1
 50
0
  1
背面　取付穴図
  0
LINE
  8
_0-1_
  6
CONTINUOUS
 62
    7
 10
266.818137921313
 20
70.449133682514002
 11
323.69534491803756
 21
70.449133682514002
  0
LINE
  8
_0-1_
  6
CONTINUOUS
 62
    7
 10
266.818137921313
 20
71.449133682514002
 11
323.69534491803756
 21
71.449133682514002
  0
LINE
  8
_0-0_
  6
CENTER2
 62
    7
 10
293.24171005742858
 20
250.93974459610996
 11
293.24171005742858
 21
82.16585568779243
  0
LINE
  8
_0-0_
  6
CONTINUOUS
 62
    7
 10
327.24172531621764
 20
208.77593386612944
 11
259.24169479863951
 21
208.77593386612944
  0
LINE
  8
_0-0_
  6
CONTINUOUS
 62
    7
 10
328.00166641729186
 20
207.47602999650053
 11
328.24177872197936
 21
207.47602999650053
  0
LINE
  8
_0-0_
  6
CONTINUOUS
 62
    7
 10
327.36168228643248
 20
178.976022367106
 11
327.36168228643248
 21
206.97602999650053
  0
LINE
  8
_0-0_
  6
CONTINUOUS
 62
    7
 10
258.24164902227233
 20
207.47602999650053
 11
258.48176132695983
 21
207.47602999650053
  0
LINE
  8
_0-0_
  6
CONTINUOUS
 62
    7
 10
258.48176132695983
 20
206.97602999650053
 11
259.1217454578192
 21
206.97602999650053
  0
LINE
  8
_0-0_
  6
CONTINUOUS
 62
    7
 10
258.48176132695983
 20
178.976022367106
 11
259.1217454578192
 21
178.976022367106
  0
LINE
  8
_0-0_
  6
CONTINUOUS
 62
    7
 10
259.1217454578192
 20
206.97602999650053
 11
259.1217454578192
 21
178.976022367106
  0
LINE
  8
_0-0_
  6
CONTINUOUS
 62
    7
 10
327.36168228643248
 20
178.976022367106
 11
328.00166641729186
 21
178.976022367106
  0
LINE
  8
_0-0_
  6
CONTINUOUS
 62
    7
 10
327.36168228643248
 20
206.97602999650053
 11
328.00166641729186
 21
206.97602999650053
  0
LINE
  8
_0-0_
  6
CONTINUOUS
 62
    7
 10
328.00166641729186
 20
193.47603762589506
 11
327.36168228643248
 21
193.47603762589506
  0
LINE
  8
_0-0_
  6
CONTINUOUS
 62
    7
 10
328.00166641729186
 20
192.47602999650053
 11
327.36168228643248
 21
192.47602999650053
  0
LINE
  8
_0-0_
  6
CONTINUOUS
 62
    7
 10
258.48176132695983
 20
193.47603762589506
 11
259.1217454578192
 21
193.47603762589506
  0
LINE
  8
_0-0_
  6
CONTINUOUS
 62
    7
 10
258.48176132695983
 20
192.47602999650053
 11
259.1217454578192
 21
192.47602999650053
  0
LINE
  8
_0-0_
  6
CONTINUOUS
 62
    7
 10
259.24169479863951
 20
208.77593386612944
 11
259.24169479863951
 21
192.97602999650053
  0
LINE
  8
_0-0_
  6
CONTINUOUS
 62
    7
 10
327.24172531621764
 20
192.97602999650053
 11
327.24172531621764
 21
208.77593386612944
  0
LINE
  8
_0-0_
  6
CONTINUOUS
 62
    7
 10
258.48176132695983
 20
207.47602999650053
 11
258.48176132695983
 21
178.976022367106
  0
LINE
  8
_0-0_
  6
CONTINUOUS
 62
    7
 10
328.00166641729186
 20
178.976022367106
 11
328.00166641729186
 21
207.47602999650053
  0
LINE
  8
_0-0_
  6
CONTINUOUS
 62
    7
 10
258.24164902227233
 20
207.47602999650053
 11
258.24164902227233
 21
104.77593577347807
  0
LINE
  8
_0-0_
  6
CONTINUOUS
 62
    7
 10
328.24177872197936
 20
104.77593577347807
 11
328.24177872197936
 21
207.47602999650053
  0
LINE
  8
_0-0_
  6
CONTINUOUS
 62
    7
 10
328.24177872197936
 20
104.77593577347807
 11
258.24164902227233
 21
104.77593577347807
  0
LINE
  8
ADD_LINE
  6
DOT
 62
    9
 10
328.24177872197936
 20
121.77593577347807
 11
258.24164902227233
 21
121.77593577347807
  0
LINE
  8
ADD_LINE
  6
DOT
 62
    9
 10
328.24177872197936
 20
169.77593577347807
 11
258.24164902227233
 21
169.77593577347807
  0
LINE
  8
ADD_LINE
  6
DOT
 62
    9
 10
272.24164902227233
 20
207.47602999650053
 11
272.24164902227233
 21
104.77593577347807
  0
LINE
  8
ADD_LINE
  6
DOT
 62
    9
 10
314.24177872197936
 20
104.77593577347807
 11
314.24177872197936
 21
207.47602999650053
  0
CIRCLE
  8
_0-0_
  6
CONTINUOUS
 62
    7
 10
272.24164902227233
 20
169.77593577347807
 40
1
  0
CIRCLE
  8
_0-0_
  6
CONTINUOUS
 62
    7
 10
314.24177872197936
 20
169.77593577347807
 40
1
  0
CIRCLE
  8
_0-0_
  6
CONTINUOUS
 62
    7
 10
314.24177872197936
 20
121.77593577347807
 40
1
  0
CIRCLE
  8
_0-0_
  6
CONTINUOUS
 62
    7
 10
272.24164902227233
 20
121.77593577347807
 40
1
  0
TEXT
  8
_0-1_
 62
    7
 10
219.84330413182965
 20
91.363179419964808
 40
6
 41
1
 50
0
  1
５Φ穴-４
  0
LINE
  8
_0-1_
  6
CONTINUOUS
 62
    7
 10
247.13106809259205
 20
90.861762402487841
 11
218.20177654764086
 21
90.861762402487841
  0
LINE
  8
_0-1_
  6
CONTINUOUS
 62
    7
 10
272.2416413928778
 20
120.77593577347807
 11
247.13106809259205
 21
90.861762402487841
  0
TEXT
  8
_0-1_
 62
    7
 10
66.285033593734937
 20
171.64974371160673
 40
14
 41
1
 50
0
  1
Ａ
  0
LINE
  8
_0-1_
  6
CONTINUOUS
 62
    7
 10
89.541750032982321
 20
112.34009684244484
 11
73.394827449418102
 21
129.06072465215476
  0
LINE
  8
_0-1_
  6
CONTINUOUS
 62
    7
 10
89.927968972423258
 20
112.34009684244484
 11
106.07489155598759
 21
129.06072465215476
  0
ARC
  8
_0-1_
  6
CONTINUOUS
 62
    7
 10
89.73485950270296
 20
112.68577149431252
 40
0.3959573616435195
 50
240.81030254096703
 51
299.18969745903297
  0
ARC
  8
_0-1_
  6
CONTINUOUS
 62
    7
 10
81.564843476060645
 20
135.0346253924119
 40
10.12109934394663
 50
36.174202920704083
 51
216.17420292070403
  0
LINE
  8
_0-1_
  6
CONTINUOUS
 62
    7
 10
89.74305191444509
 20
130.74643301828581
 11
89.74305191444509
 21
136.52011301828577
  0
LINE
  8
_0-1_
  6
CONTINUOUS
 62
    7
 10
89.74305191444509
 20
130.74643301828581
 11
95.16853640522433
 21
132.72114787940239
  0
LINE
  8
_0-1_
  6
CONTINUOUS
 62
    7
 10
92.535887471116638
 20
134.24110845019123
 11
96.953915857348846
 21
139.50630965166681
  0
LINE
  8
_0-1_
  6
CONTINUOUS
 62
    7
 10
95.16853640522433
 20
132.72114787940239
 11
92.535887471116638
 21
134.24110845019123
  0
LINE
  8
_0-1_
  6
CONTINUOUS
 62
    7
 10
96.953915857348846
 20
139.50630965166681
 11
99.596070950891402
 21
137.68759740898844
  0
LINE
  8
_0-1_
  6
CONTINUOUS
 62
    7
 10
99.596070950891402
 20
137.68759740898844
 11
108.27522991521411
 21
145.62472693495783
  0
LINE
  8
_0-1_
  6
CONTINUOUS
 62
    7
 10
91.958712324531206
 20
134.62795247266888
 11
97.56623594133552
 21
145.84299970627774
  0
LINE
  8
_0-1_
  6
CONTINUOUS
 62
    7
 10
97.56623594133552
 20
145.84299970627774
 11
101.44426518176155
 21
142.81828927710461
  0
LINE
  8
_0-1_
  6
CONTINUOUS
 62
    7
 10
101.44426518176155
 20
142.81828927710461
 11
103.80612974862194
 21
148.68485610446794
  0
LINE
  8
_0-1_
  6
CONTINUOUS
 62
    7
 10
103.80612974862194
 20
148.68485610446794
 11
108.27522991521411
 21
145.62472693495783
  0
LINE
  8
_0-1_
  6
CONTINUOUS
 62
    7
 10
91.959553688030354
 20
134.62963519966746
 11
89.74305191444509
 21
136.52011301828577
  0
ARC
  8
_0-1_
  6
CONTINUOUS
 62
    7
 10
97.904875529345162
 20
135.0346253924119
 40
10.121099343946627
 50
93.932939704953412
 51
143.82579707929585
  0
ARC
  8
_0-1_
  6
CONTINUOUS
 62
    7
 10
97.904875529345162
 20
135.0346253924119
 40
10.121099343946627
 50
323.82579707929591
 51
47.069975771820232
  0
ARC
  8
_0-1_
  6
CONTINUOUS
 62
    7
 10
97.904875529345162
 20
135.0346253924119
 40
10.121099343946627
 50
65.93938761805704
 51
86.813527032339678
  0
TEXT
  8
_0-1_
 62
    7
 10
99.841610063412503
 20
171.76427127634969
 40
14
 41
1
 50
0
  1
Ｄ
  0
TEXT
  8
_0-1_
 62
    7
 10
83.349640740430999
 20
171.76427127634969
 40
14
 41
1
 50
0
  1
Ｅ
  0
LINE
  8
_0-1_
  6
CONTINUOUS
 62
    7
 10
56.338088690901117
 20
224.3107162757974
 11
54.838012396955804
 21
224.71263277970365
  0
LINE
  8
_0-1_
  6
CONTINUOUS
 62
    7
 10
54.838012396955804
 20
224.71263277970365
 11
56.338088690901117
 21
225.1145492836099
  0
LINE
  8
_0-1_
  6
CONTINUOUS
 62
    7
 10
54.838012396955804
 20
224.71263277970365
 11
56.338088690901117
 21
224.71263277970365
  0
LINE
  8
_0-1_
  6
CONTINUOUS
 62
    7
 10
54.838012396955804
 20
224.71263277970365
 11
124.83814209666284
 21
224.71263277970365
  0
LINE
  8
_0-1_
  6
CONTINUOUS
 62
    7
 10
165.47310608592065
 20
210.65248263321928
 11
165.47310608592065
 21
224.51167452775053
  0
LINE
  8
_0-1_
  6
CONTINUOUS
 62
    7
 10
196.87321823802029
 20
210.65248263321928
 11
196.87321823802029
 21
225.26167452775053
  0
LINE
  8
_0-1_
  6
CONTINUOUS
 62
    7
 10
124.83814209666284
 20
209.1509262367349
 11
124.83814209666284
 21
225.46263277970365
  0
LINE
  8
_0-1_
  6
CONTINUOUS
 62
    7
 10
54.838012396955804
 20
209.1509262367349
 11
54.838012396955804
 21
225.46263277970365
  0
LINE
  8
_0-1_
  6
CONTINUOUS
 62
    7
 10
53.920898139143304
 20
208.77593386612944
 11
44.661498725080804
 21
208.77593386612944
  0
LINE
  8
_0-1_
  6
CONTINUOUS
 62
    7
 10
45.823287665510492
 20
106.27603877030424
 11
45.823287665510492
 21
208.77593386612944
  0
LINE
  8
_0-1_
  6
CONTINUOUS
 62
    7
 10
53.920898139143304
 20
104.77603304825834
 11
44.661498725080804
 21
104.77603304825834
  0
LINE
  8
_0-1_
  6
CONTINUOUS
 62
    7
 10
165.39808624949487
 20
104.77603304825834
 11
156.40275543894799
 21
104.77603304825834
  0
LINE
  8
_0-1_
  6
CONTINUOUS
 62
    7
 10
175.86953705515896
 20
208.77593386612944
 11
156.40275543894799
 21
208.77593386612944
  0
LINE
  8
_0-1_
  6
CONTINUOUS
 62
    7
 10
45.421447455549554
 20
106.27603877030424
 11
45.823287665510492
 21
104.77603304825834
  0
LINE
  8
_0-1_
  6
CONTINUOUS
 62
    7
 10
45.823287665510492
 20
104.77603304825834
 11
46.225326239729242
 21
106.27603877030424
  0
LINE
  8
_0-1_
  6
CONTINUOUS
 62
    7
 10
45.823287665510492
 20
104.77603304825834
 11
45.823287665510492
 21
106.27603877030424
  0
LINE
  8
_0-1_
  6
CONTINUOUS
 62
    7
 10
46.225326239729242
 20
207.2759262367349
 11
45.823287665510492
 21
208.77593386612944
  0
LINE
  8
_0-1_
  6
CONTINUOUS
 62
    7
 10
45.823287665510492
 20
208.77593386612944
 11
45.421447455549554
 21
207.2759262367349
  0
LINE
  8
_0-1_
  6
CONTINUOUS
 62
    7
 10
45.823287665510492
 20
208.77593386612944
 11
45.823287665510492
 21
207.2759262367349
  0
LINE
  8
_0-1_
  6
CONTINUOUS
 62
    7
 10
156.75095337595971
 20
106.27603877030424
 11
157.15279358592065
 21
104.77603304825834
  0
LINE
  8
_0-1_
  6
CONTINUOUS
 62
    7
 10
157.15279358592065
 20
104.77603304825834
 11
157.5548321601394
 21
106.27603877030424
  0
LINE
  8
_0-1_
  6
CONTINUOUS
 62
    7
 10
157.15279358592065
 20
104.77603304825834
 11
157.15279358592065
 21
106.27603877030424
  0
LINE
  8
_0-1_
  6
CONTINUOUS
 62
    7
 10
157.5548321601394
 20
207.2759262367349
 11
157.15279358592065
 21
208.77593386612944
  0
LINE
  8
_0-1_
  6
CONTINUOUS
 62
    7
 10
157.15279358592065
 20
208.77593386612944
 11
156.75095337595971
 21
207.2759262367349
  0
LINE
  8
_0-1_
  6
CONTINUOUS
 62
    7
 10
157.15279358592065
 20
208.77593386612944
 11
157.15279358592065
 21
207.2759262367349
  0
LINE
  8
_0-1_
  6
CONTINUOUS
 62
    7
 10
157.15279358592065
 20
106.27603877030424
 11
157.15279358592065
 21
208.77593386612944
  0
LINE
  8
_0-1_
  6
LONG3
 62
    7
 10
166.97318237986596
 20
98.479184751139201
 11
167.97303742136987
 21
98.479184751139201
  0
LINE
  8
_0-1_
  6
CONTINUOUS
 62
    7
 10
166.97318237986596
 20
98.881101255045451
 11
165.47310608592065
 21
98.479184751139201
  0
LINE
  8
_0-1_
  6
CONTINUOUS
 62
    7
 10
165.47310608592065
 20
98.479184751139201
 11
166.97318237986596
 21
98.077243451700724
  0
LINE
  8
_0-1_
  6
CONTINUOUS
 62
    7
 10
165.47310608592065
 20
98.479184751139201
 11
166.97318237986596
 21
98.479184751139201
  0
LINE
  8
_0-1_
  6
CONTINUOUS
 62
    7
 10
167.97303742136987
 20
98.077243451700724
 11
169.47312134470974
 21
98.479184751139201
  0
LINE
  8
_0-1_
  6
CONTINUOUS
 62
    7
 10
169.47312134470974
 20
98.479184751139201
 11
167.97303742136987
 21
98.881101255045451
  0
LINE
  8
_0-1_
  6
CONTINUOUS
 62
    7
 10
169.47312134470974
 20
98.479184751139201
 11
167.97303742136987
 21
98.479184751139201
  0
LINE
  8
_0-1_
  6
CONTINUOUS
 62
    7
 10
169.47312134470974
 20
104.70103419266752
 11
169.47312134470974
 21
97.729171399698771
  0
LINE
  8
_0-1_
  6
CONTINUOUS
 62
    7
 10
165.47310608592065
 20
104.70103419266752
 11
165.47310608592065
 21
97.729171399698771
  0
LINE
  8
_0-1_
  6
CONTINUOUS
 62
    7
 10
123.33826416697534
 20
225.1145492836099
 11
124.83814209666284
 21
224.71263277970365
  0
LINE
  8
_0-1_
  6
CONTINUOUS
 62
    7
 10
124.83814209666284
 20
224.71263277970365
 11
123.33826416697534
 21
224.3107162757974
  0
LINE
  8
_0-1_
  6
CONTINUOUS
 62
    7
 10
124.83814209666284
 20
224.71263277970365
 11
123.33826416697534
 21
224.71263277970365
  0
LINE
  8
_0-1_
  6
CONTINUOUS
 62
    7
 10
195.37334030833279
 20
224.91359103165678
 11
196.87321823802029
 21
224.51167452775053
  0
LINE
  8
_0-1_
  6
CONTINUOUS
 62
    7
 10
196.87321823802029
 20
224.51167452775053
 11
195.37334030833279
 21
224.10974276505522
  0
LINE
  8
_0-1_
  6
CONTINUOUS
 62
    7
 10
196.87321823802029
 20
224.51167452775053
 11
195.37334030833279
 21
224.51167452775053
  0
LINE
  8
_0-1_
  6
CONTINUOUS
 62
    7
 10
166.97318237986596
 20
224.10974276505522
 11
165.47310608592065
 21
224.51167452775053
  0
LINE
  8
_0-1_
  6
CONTINUOUS
 62
    7
 10
165.47310608592065
 20
224.51167452775053
 11
166.97318237986596
 21
224.91359103165678
  0
LINE
  8
_0-1_
  6
CONTINUOUS
 62
    7
 10
165.47310608592065
 20
224.51167452775053
 11
166.97318237986596
 21
224.51167452775053
  0
LINE
  8
_0-1_
  6
CONTINUOUS
 62
    7
 10
165.47310608592065
 20
224.51167452775053
 11
195.37334030833279
 21
224.51167452775053
  0
TEXT
  8
_0-1_
 62
    7
 10
156.37979096140893
 20
153.34720766984037
 40
6
 41
1
 50
90
  1
520
  0
TEXT
  8
_0-1_
 62
    7
 10
79.890381861414738
 20
224.96693546742506
 40
6
 41
1
 50
0
  1
350
  0
TEXT
  8
_0-1_
 62
    7
 10
45.780919298018802
 20
149.86627666556183
 40
6
 41
1
 50
90
  1
520
  0
TEXT
  8
_0-1_
 62
    7
 10
164.86483245794531
 20
90.623525897558181
 40
6
 41
1
 50
0
  1
20
  0
TEXT
  8
_0-1_
 62
    7
 10
175.33703587653179
 20
224.66772965546545
 40
6
 41
1
 50
0
  1
160
  0
LINE
  8
_0-1_
  6
CONTINUOUS
 62
    7
 10
108.06650956411565
 20
155.90929868549586
 11
129.64211617947566
 21
169.48496127493593
  0
CIRCLE
  8
_0-1_
  6
CONTINUOUS
 62
    7
 10
132.71063839659482
 20
170.97140853845934
 40
3.4095973463431131
  0
TEXT
  8
_0-1_
 62
    7
 10
130.69021526707783
 20
169.21351780748353
 40
4
 41
1
 50
0
  1
３
  0
LINE
  8
_0-1_
  6
CONTINUOUS
 62
    7
 10
124.04784742643264
 20
111.01495851115664
 11
137.15189879662748
 21
100.22697203429857
  0
CIRCLE
  8
_0-1_
  6
CONTINUOUS
 62
    7
 10
139.83614424803895
 20
98.124549521869938
 40
3.4095973463431131
  0
TEXT
  8
_0-1_
 62
    7
 10
216.14987406386786
 20
148.96936644550703
 40
4
 41
1
 50
0
  1
１
  0
LINE
  8
_0-1_
  6
CONTINUOUS
 62
    7
 10
190.94257824247268
 20
140.75520753805148
 11
215.03692829232762
 21
149.38287873494278
  0
CIRCLE
  8
_0-1_
  6
CONTINUOUS
 62
    7
 10
218.17029719338484
 20
150.72725717648279
 40
3.4095973463431131
  0
TEXT
  8
_0-1_
 62
    7
 10
137.85656737755593
 20
96.366658790894121
 40
4
 41
1
 50
0
  1
４
  0
LINE
  8
_0-0_
  6
CONTINUOUS
 62
    7
 10
54.838012396955804
 20
207.47602999650059
 11
54.838012396955804
 21
104.77593577347807
  0
LINE
  8
_0-0_
  6
DASHED1
 62
    7
 10
55.078012396955813
 20
207.47602999650059
 11
55.078012396955813
 21
108.77594721756986
  0
LINE
  8
_0-0_
  6
DASHED1
 62
    7
 10
55.078012396955813
 20
116.9759512175699
 11
55.477997396955828
 21
116.9759512175699
  0
LINE
  8
_0-0_
  6
DASHED1
 62
    7
 10
55.477997396955828
 20
116.9759512175699
 11
57.077982396955889
 21
115.97593521756988
  0
LINE
  8
_0-0_
  6
DASHED1
 62
    7
 10
55.078012396955813
 20
109.77594721756986
 11
55.477997396955828
 21
109.77594721756986
  0
LINE
  8
_0-0_
  6
DASHED1
 62
    7
 10
55.477997396955828
 20
109.77594721756986
 11
57.077982396955889
 21
110.77595321756991
  0
LINE
  8
_0-0_
  6
DASHED1
 62
    7
 10
57.077982396955889
 20
110.77595321756991
 11
57.077982396955889
 21
111.3759642175699
  0
LINE
  8
_0-0_
  6
DASHED1
 62
    7
 10
57.077982396955889
 20
114.24195421756991
 11
57.077982396955889
 21
115.37593321756987
  0
LINE
  8
_0-0_
  6
DASHED1
 62
    7
 10
57.077982396955889
 20
115.37593321756987
 11
57.077982396955889
 21
115.97593521756988
  0
LINE
  8
_0-0_
  6
DASHED1
 62
    7
 10
57.077982396955889
 20
111.3759642175699
 11
57.077982396955889
 21
112.5099252175699
  0
CIRCLE
  8
_0-0_
  6
DASHED1
 62
    7
 10
56.577986396955879
 20
113.37593521756986
 40
0.9999999
  0
CIRCLE
  8
_0-0_
  6
DASHED1
 62
    7
 10
56.577986396955879
 20
113.37593521756986
 40
0.3999999
  0
LINE
  8
_0-0_
  6
CONTINUOUS
 62
    7
 10
124.83814209666284
 20
104.77593577347807
 11
54.838012396955804
 21
104.77593577347807
  0
LINE
  8
_0-0_
  6
DASHED1
 62
    7
 10
124.59814209666283
 20
108.77594721756986
 11
55.078012396955813
 21
108.77594721756986
  0
LINE
  8
_0-0_
  6
DASHED1
 62
    7
 10
124.59814209666283
 20
108.77594721756986
 11
124.59814209666283
 21
207.47602999650059
  0
LINE
  8
_0-0_
  6
CONTINUOUS
 62
    7
 10
124.83814209666284
 20
104.77593577347807
 11
124.83814209666284
 21
207.47602999650059
  0
LINE
  8
_0-0_
  6
CONTINUOUS
 62
    7
 10
123.83808869090112
 20
208.77593386612949
 11
55.838058173322992
 21
208.77593386612949
  0
LINE
  8
_0-0_
  6
CONTINUOUS
 62
    7
 10
55.078124701643304
 20
192.97602999650059
 11
124.59802979197534
 21
192.97602999650059
  0
LINE
  8
_0-0_
  6
CONTINUOUS
 62
    7
 10
124.59802979197534
 20
207.47602999650059
 11
124.83814209666284
 21
207.47602999650059
  0
LINE
  8
_0-0_
  6
CONTINUOUS
 62
    7
 10
123.95804566111596
 20
178.97602236710605
 11
123.95804566111596
 21
206.97602999650059
  0
LINE
  8
_0-0_
  6
CONTINUOUS
 62
    7
 10
123.95804566111596
 20
178.97602236710605
 11
124.59802979197534
 21
178.97602236710605
  0
LINE
  8
_0-0_
  6
CONTINUOUS
 62
    7
 10
123.95804566111596
 20
206.97602999650059
 11
124.59802979197534
 21
206.97602999650059
  0
LINE
  8
_0-0_
  6
CONTINUOUS
 62
    7
 10
124.59802979197534
 20
193.47603762589512
 11
123.95804566111596
 21
193.47603762589512
  0
LINE
  8
_0-0_
  6
CONTINUOUS
 62
    7
 10
124.59802979197534
 20
192.47602999650059
 11
123.95804566111596
 21
192.47602999650059
  0
LINE
  8
_0-0_
  6
CONTINUOUS
 62
    7
 10
123.83808869090112
 20
192.97602999650059
 11
123.83808869090112
 21
208.77593386612949
  0
LINE
  8
_0-0_
  6
CONTINUOUS
 62
    7
 10
124.59802979197534
 20
178.97602236710605
 11
124.59802979197534
 21
207.47602999650059
  0
LINE
  8
_0-0_
  6
CONTINUOUS
 62
    7
 10
70.838058173322992
 20
158.47602999650059
 11
108.83808869090112
 21
158.47602999650059
  0
LINE
  8
_0-0_
  6
CONTINUOUS
 62
    7
 10
70.838058173322992
 20
152.47603762589512
 11
108.83808869090112
 21
152.47603762589512
  0
ARC
  8
_0-0_
  6
CONTINUOUS
 62
    7
 10
108.83808869090112
 20
155.47602236710605
 40
3
 50
270
 51
90
  0
ARC
  8
_0-0_
  6
CONTINUOUS
 62
    7
 10
70.838058173322992
 20
155.47602236710605
 40
3
 50
90
 51
270
  0
LINE
  8
_0-0_
  6
DASHED1
 62
    7
 10
124.5981344672683
 20
116.9759512175699
 11
124.19814946726828
 21
116.9759512175699
  0
LINE
  8
_0-0_
  6
DASHED1
 62
    7
 10
124.19814946726828
 20
116.9759512175699
 11
122.59816446726833
 21
115.97593521756988
  0
LINE
  8
_0-0_
  6
DASHED1
 62
    7
 10
124.5981344672683
 20
109.77594721756986
 11
124.19814946726828
 21
109.77594721756986
  0
LINE
  8
_0-0_
  6
DASHED1
 62
    7
 10
124.19814946726828
 20
109.77594721756986
 11
122.59816446726833
 21
110.77595321756991
  0
LINE
  8
_0-0_
  6
DASHED1
 62
    7
 10
122.59816446726833
 20
110.77595321756991
 11
122.59816446726833
 21
111.3759642175699
  0
LINE
  8
_0-0_
  6
DASHED1
 62
    7
 10
122.59816446726833
 20
114.24195421756991
 11
122.59816446726833
 21
115.37593321756987
  0
LINE
  8
_0-0_
  6
DASHED1
 62
    7
 10
122.59816446726833
 20
115.37593321756987
 11
122.59816446726833
 21
115.97593521756988
  0
LINE
  8
_0-0_
  6
DASHED1
 62
    7
 10
122.59816446726833
 20
111.3759642175699
 11
122.59816446726833
 21
112.5099252175699
  0
CIRCLE
  8
_0-0_
  6
DASHED1
 62
    7
 10
123.09816046726834
 20
113.37593521756986
 40
0.9999999
  0
CIRCLE
  8
_0-0_
  6
DASHED1
 62
    7
 10
123.09816046726834
 20
113.37593521756986
 40
0.3999999
  0
LINE
  8
_0-0_
  6
CONTINUOUS
 62
    7
 10
165.47310608592065
 20
193.27604067765287
 11
165.47310608592065
 21
105.07603037797026
  0
LINE
  8
_0-0_
  6
CONTINUOUS
 62
    7
 10
196.87321823802029
 20
109.07594454728178
 11
196.87321823802029
 21
193.2759262367349
  0
LINE
  8
_0-0_
  6
CONTINUOUS
 62
    7
 10
169.47312134470974
 20
105.07603037797026
 11
169.47312134470974
 21
107.47604716263822
  0
LINE
  8
_0-0_
  6
CONTINUOUS
 62
    7
 10
165.77320069041284
 20
104.77603304825834
 11
169.17322510447536
 21
104.77603304825834
  0
LINE
  8
_0-0_
  6
CONTINUOUS
 62
    7
 10
169.53547638621365
 20
108.77594721756986
 11
196.57332199778591
 21
108.77594721756986
  0
LINE
  8
_0-0_
  6
CONTINUOUS
 62
    7
 10
165.47310608592065
 20
193.27604067765287
 11
166.57767456736596
 21
193.27604067765287
  0
LINE
  8
ADD_LINE
  6
DOT
 62
    7
 10
200.07113236155544
 20
193.27604067765287
 11
168.00728577342065
 21
193.27604067765287
  0
LINE
  8
ADD_LINE
  6
DOT
 62
    7
 10
181.37319153513943
 20
210.52078402482084
 11
181.37319153513943
 21
177.38773501359037
  0
ARC
  8
_0-0_
  6
CONTINUOUS
 62
    7
 10
181.37319153513943
 20
193.27604067765287
 40
14.5
 50
331.47633361816406
 51
178.83851623535165
  0
ARC
  8
_0-0_
  6
CONTINUOUS
 62
    7
 10
166.57609528269799
 20
193.57603610001615
 40
0.3000000119209289
 50
270
 51
358.83853149414062
  0
ARC
  8
_0-0_
  6
CONTINUOUS
 62
    7
 10
181.37319153513943
 20
193.2759262367349
 40
15.5
 50
0
 51
180
  0
ARC
  8
_0-0_
  6
CONTINUOUS
 62
    7
 10
196.57332199778591
 20
109.07594454728178
 40
0.3000000119209289
 50
270
 51
0
  0
ARC
  8
_0-0_
  6
CONTINUOUS
 62
    7
 10
169.17322510447536
 20
105.07603037797026
 40
0.3000000119209289
 50
270
 51
0
  0
CIRCLE
  8
_0-0_
  6
CONTINUOUS
 62
    7
 10
181.37319153513943
 20
193.27604067765287
 40
14
  0
ARC
  8
_0-0_
  6
CONTINUOUS
 62
    7
 10
330.71876496043234
 20
100.39122736893705
 40
161.4012451171875
 50
147.81936645507815
 51
177.48416137695315
  0
ARC
  8
_0-0_
  6
CONTINUOUS
 62
    7
 10
165.77320069041284
 20
105.07603037797026
 40
0.3000000119209289
 50
180
 51
270
  0
LINE
  8
_0-0_
  6
CENTER2
 62
    7
 10
89.838073432112054
 20
250.93974459610996
 11
89.838073432112054
 21
69.136064176188029
  0
CIRCLE
  8
_0-1_
  6
CONTINUOUS
 62
    7
 10
39.191653810282389
 20
171.35859948941879
 40
3.4095973463431131
  0
TEXT
  8
_0-1_
 62
    7
 10
37.21207693979926
 20
169.60070875844298
 40
4
 41
1
 50
0
  1
２
  0
LINE
  8
_0-1_
  6
CONTINUOUS
 62
    7
 10
56.792046026041334
 20
163.82223802362074
 11
41.817899252959393
 21
169.18415957555402
  0
LINE
  8
_0-0_
  6
CONTINUOUS
 62
    7
 10
54.838012396955776
 20
207.47602999650059
 11
55.078124701643276
 21
207.47602999650059
  0
LINE
  8
_0-0_
  6
CONTINUOUS
 62
    7
 10
55.078124701643276
 20
206.97602999650059
 11
55.718108832502651
 21
206.97602999650059
  0
LINE
  8
_0-0_
  6
CONTINUOUS
 62
    7
 10
55.078124701643276
 20
178.97602236710605
 11
55.718108832502651
 21
178.97602236710605
  0
LINE
  8
_0-0_
  6
CONTINUOUS
 62
    7
 10
55.718108832502651
 20
206.97602999650059
 11
55.718108832502651
 21
178.97602236710605
  0
LINE
  8
_0-0_
  6
CONTINUOUS
 62
    7
 10
55.078124701643276
 20
193.47603762589512
 11
55.718108832502651
 21
193.47603762589512
  0
LINE
  8
_0-0_
  6
CONTINUOUS
 62
    7
 10
55.078124701643276
 20
192.47602999650059
 11
55.718108832502651
 21
192.47602999650059
  0
LINE
  8
_0-0_
  6
CONTINUOUS
 62
    7
 10
55.838058173322963
 20
208.77593386612949
 11
55.838058173322963
 21
192.97602999650059
  0
LINE
  8
_0-0_
  6
CONTINUOUS
 62
    7
 10
55.078124701643276
 20
207.47602999650059
 11
55.078124701643276
 21
178.97602236710605
  0
LINE
  8
_0-0_
  6
DASHED1
 62
    7
 10
61.517992752223392
 20
175.97603329569824
 11
61.517992752223392
 21
178.57603197601918
  0
LINE
  8
_0-0_
  6
DASHED1
 62
    7
 10
61.117992979043322
 20
169.97603329569824
 11
61.117992979043322
 21
192.97602999650059
  0
LINE
  8
_0-0_
  6
DASHED1
 62
    7
 10
66.718001247657241
 20
174.17602735714246
 11
66.718001247657241
 21
183.77602933666105
  0
LINE
  8
_0-0_
  6
DASHED1
 62
    7
 10
62.11799627824081
 20
186.97602999650059
 11
63.517998113419537
 21
186.97602999650059
  0
LINE
  8
_0-0_
  6
DASHED1
 62
    7
 10
62.11799627824081
 20
170.97602669730298
 11
62.11799627824081
 21
186.97602999650059
  0
LINE
  8
_0-0_
  6
DASHED1
 62
    7
 10
62.11799627824081
 20
170.97602669730298
 11
63.517998113419537
 21
170.97602669730298
  0
LINE
  8
_0-0_
  6
DASHED1
 62
    7
 10
61.117992979043208
 20
174.17602735714246
 11
62.11799627824081
 21
174.17602735714246
  0
LINE
  8
_0-0_
  6
DASHED1
 62
    7
 10
61.117992979043322
 20
179.7760260374634
 11
62.11799627824081
 21
179.7760260374634
  0
LINE
  8
_0-0_
  6
DASHED1
 62
    7
 10
61.117992979043322
 20
183.37602801698199
 11
62.11799627824081
 21
183.37602801698199
  0
LINE
  8
_0-0_
  6
DASHED1
 62
    7
 10
61.117992979043322
 20
184.17603065634012
 11
62.11799627824081
 21
184.17603065634012
  0
LINE
  8
_0-0_
  6
DASHED1
 62
    7
 10
61.117992979043208
 20
173.17602405794486
 11
62.11799627824081
 21
173.17602405794486
  0
LINE
  8
_0-0_
  6
DASHED1
 62
    7
 10
58.517992906873303
 20
169.97603329569824
 11
58.517992906873303
 21
192.97602999650059
  0
LINE
  8
_0-0_
  6
DASHED1
 62
    7
 10
57.71799652781516
 20
169.97603329569824
 11
58.117996535990699
 21
169.97603329569824
  0
LINE
  8
_0-0_
  6
DASHED1
 62
    7
 10
58.517992906873303
 20
169.97603329569824
 11
61.117992979043208
 21
169.97603329569824
  0
LINE
  8
_0-0_
  6
DASHED1
 62
    7
 10
58.117996535990699
 20
169.97603329569824
 11
58.117996535990699
 21
171.17602735714246
  0
LINE
  8
_0-0_
  6
DASHED1
 62
    7
 10
58.117996535990699
 20
171.17602735714246
 11
58.517992906873303
 21
171.17602735714246
  0
LINE
  8
_0-0_
  6
DASHED1
 62
    7
 10
57.71799652781516
 20
171.57602867682152
 11
58.517992906873303
 21
171.57602867682152
  0
LINE
  8
_0-0_
  6
DASHED1
 62
    7
 10
57.71799652781516
 20
192.97602999650059
 11
58.117996535990699
 21
192.97602999650059
  0
LINE
  8
_0-0_
  6
DASHED1
 62
    7
 10
58.117996535990699
 20
192.97602999650059
 11
58.117996535990699
 21
191.77603593505631
  0
LINE
  8
_0-0_
  6
DASHED1
 62
    7
 10
58.117996535990699
 20
191.77603593505631
 11
58.517992906873303
 21
191.77603593505631
  0
LINE
  8
_0-0_
  6
DASHED1
 62
    7
 10
57.71799652781516
 20
191.37603461537725
 11
58.517992906873303
 21
191.37603461537725
  0
LINE
  8
_0-0_
  6
DASHED1
 62
    7
 10
58.517992906873303
 20
192.97602999650059
 11
61.117992979043322
 21
192.97602999650059
  0
LINE
  8
_0-0_
  6
DASHED1
 62
    7
 10
61.117992979043322
 20
175.97603329569824
 11
61.517992752223392
 21
175.97603329569824
  0
LINE
  8
_0-0_
  6
DASHED1
 62
    7
 10
61.117992979043322
 20
178.57603197601918
 11
61.517992752223392
 21
178.57603197601918
  0
LINE
  8
_0-0_
  6
DASHED1
 62
    7
 10
60.517992855323257
 20
176.67603065634012
 11
61.317993020283268
 21
176.67603065634012
  0
LINE
  8
_0-0_
  6
DASHED1
 62
    7
 10
60.517992855323257
 20
177.87603461537725
 11
61.317993020283268
 21
177.87603461537725
  0
LINE
  8
_0-0_
  6
DASHED1
 62
    7
 10
61.517992752223392
 20
178.17603065634012
 11
62.11799627824081
 21
178.17603065634012
  0
LINE
  8
_0-0_
  6
DASHED1
 62
    7
 10
61.517992752223392
 20
178.17603065634012
 11
61.117992979043322
 21
178.17603065634012
  0
LINE
  8
_0-0_
  6
DASHED1
 62
    7
 10
61.117992979043322
 20
176.17603395553778
 11
61.317993020283268
 21
176.17603395553778
  0
LINE
  8
_0-0_
  6
DASHED1
 62
    7
 10
61.317993020283268
 20
176.17603395553778
 11
61.317993020283268
 21
178.37603131617965
  0
LINE
  8
_0-0_
  6
DASHED1
 62
    7
 10
61.117992979043322
 20
178.37603131617965
 11
61.317993020283268
 21
178.37603131617965
  0
LINE
  8
_0-0_
  6
DASHED1
 62
    7
 10
58.517992906873303
 20
178.2760260374634
 11
61.117992979043322
 21
178.2760260374634
  0
LINE
  8
_0-0_
  6
DASHED1
 62
    7
 10
58.517992906873303
 20
176.27602933666105
 11
61.117992979043322
 21
176.27602933666105
  0
LINE
  8
_0-0_
  6
DASHED1
 62
    7
 10
60.517992855323257
 20
176.27602933666105
 11
60.517992855323257
 21
178.2760260374634
  0
ARC
  8
_0-0_
  6
DASHED1
 62
    7
 10
63.517998113419537
 20
174.17602735714246
 40
3.2000000412399707
 50
270
 51
0
  0
ARC
  8
_0-0_
  6
DASHED1
 62
    7
 10
63.517998113419537
 20
183.77602933666105
 40
3.2000000412399707
 50
0
 51
90
  0
ARC
  8
_0-0_
  6
DASHED1
 62
    7
 10
61.317993020283268
 20
176.87603131617965
 40
0.200000002577498
 50
270
 51
0
  0
ARC
  8
_0-0_
  6
DASHED1
 62
    7
 10
61.317993020283268
 20
177.67603395553778
 40
0.200000002577498
 50
0
 51
90
  0
LINE
  8
_0-0_
  6
DASHED1
 62
    7
 10
55.957996527815169
 20
197.97602999650059
 11
55.71799652781516
 21
197.97602999650059
  0
LINE
  8
_0-0_
  6
DASHED1
 62
    7
 10
55.957996527815169
 20
192.97602999650059
 11
55.957996527815169
 21
197.97602999650059
  0
LINE
  8
_0-0_
  6
DASHED1
 62
    7
 10
57.71799652781516
 20
192.97602999650059
 11
55.957996527815169
 21
192.97602999650059
  0
LINE
  8
_0-0_
  6
DASHED1
 62
    7
 10
57.417996527815092
 20
192.67602999650057
 11
55.71799652781516
 21
192.67602999650057
  0
LINE
  8
_0-0_
  6
DASHED1
 62
    7
 10
57.417996527815092
 20
192.6760299965006
 11
57.417996527815092
 21
170.27603329569826
  0
LINE
  8
_0-0_
  6
DASHED1
 62
    7
 10
57.71799652781516
 20
192.97602999650059
 11
57.71799652781516
 21
169.97603329569824
  0
LINE
  8
_0-0_
  6
DASHED1
 62
    7
 10
55.318012396955794
 20
164.97603329569824
 11
55.078012396955785
 21
164.97603329569824
  0
LINE
  8
_0-0_
  6
DASHED1
 62
    7
 10
55.318012396955794
 20
169.97603329569824
 11
55.318012396955794
 21
164.97603329569824
  0
LINE
  8
_0-0_
  6
DASHED1
 62
    7
 10
57.71799652781516
 20
169.97603329569824
 11
55.318012396955794
 21
169.97603329569824
  0
LINE
  8
_0-0_
  6
DASHED1
 62
    7
 10
57.417996527815092
 20
170.27603329569826
 11
55.078012396955785
 21
170.27603329569826
  0
TEXT
  8
_0-1_
 62
    7
 10
58.097512198369657
 20
217.44646372650237
 40
5
 41
1
 50
0
  1
55
  0
TEXT
  8
_0-1_
 62
    7
 10
46.061931893442136
 20
211.63982410570407
 40
3.5
 41
1
 50
0
  1
(ベル+取付金物)
  0
POINT
  8
_0-1_
 62
    5
 10
54.838012396955776
 20
216.70743686567346
  0
LINE
  8
_0-1_
  6
CONTINUOUS
 62
    7
 10
54.838012396955776
 20
216.70743686567346
 11
66.718001247657241
 21
216.70743686567346
  0
POINT
  8
_0-1_
 62
    5
 10
66.718001247657241
 20
216.70743686567346
  0
LINE
  8
_0-1_
  6
PHANTOM2
 62
    7
 10
66.718001247657241
 20
216.70743686567346
 11
66.718001247657241
 21
187.14225794309183
  0
CIRCLE
  8
_0-1_
  6
CONTINUOUS
 62
    7
 10
30.918607625935977
 20
197.81474013936497
 40
3.4095973463431131
  0
TEXT
  8
_0-1_
 62
    7
 10
28.939030755452848
 20
196.05684940838921
 40
4
 41
1
 50
0
  1
５
  0
LINE
  8
_0-1_
  6
CONTINUOUS
 62
    7
 10
58.146326576848139
 20
187.84269050093366
 11
34.051976526993201
 21
196.47036169782496
  0
TEXT
  8
_0-f_
 62
    7
 10
355.09047036124105
 20
228.65780419635189
 40
3
 41
1
 50
0
  1
④ﾏｸﾞﾈｯﾄ
  0
TEXT
  8
_0-f_
 62
    7
 10
355.09047036124105
 20
224.65780419635189
 40
3
 41
1
 50
0
  1
⑤新角ﾍﾞﾙ　ｾﾞﾝﾏｲ式
  0
TEXT
  8
_0-f_
 62
    7
 10
366.71275741506713
 20
267.05049958955669
 40
5
 41
1
 50
0
  1
NDX-320ﾍﾞﾙ付･壁掛けﾀｲﾌﾟ
  0
LINE
  8
_0-f_
  6
CONTINUOUS
 62
    7
 10
390.01610459724162
 20
285.12658532017105
 11
390.01610459724162
 21
285.50256132017103
  0
LINE
  8
_0-f_
  6
CONTINUOUS
 62
    7
 10
390.01610459724162
 20
285.50256132017103
 11
391.69610459724169
 21
285.50256132017103
  0
LINE
  8
_0-f_
  6
CONTINUOUS
 62
    7
 10
391.69610459724169
 20
285.50256132017103
 11
391.69610459724169
 21
285.81467332017098
  0
LINE
  8
_0-f_
  6
CONTINUOUS
 62
    7
 10
391.69610459724169
 20
285.81467332017098
 11
390.88893629894301
 21
285.81467332017098
  0
LINE
  8
_0-f_
  6
CONTINUOUS
 62
    7
 10
390.88893629894301
 20
285.81467332017098
 11
390.98006967407474
 21
286.18263691527
  0
LINE
  8
_0-f_
  6
CONTINUOUS
 62
    7
 10
390.98006967407474
 20
286.18263691527
 11
392.01610459724162
 21
286.182641320171
  0
LINE
  8
_0-f_
  6
CONTINUOUS
 62
    7
 10
392.01610459724162
 20
286.182641320171
 11
392.01610459724162
 21
286.58264132017098
  0
LINE
  8
_0-f_
  6
CONTINUOUS
 62
    7
 10
392.01610459724162
 20
286.58264132017098
 11
391.37925166471865
 21
286.58264132017098
  0
LINE
  8
_0-f_
  6
CONTINUOUS
 62
    7
 10
391.37925166471865
 20
286.58264132017098
 11
391.54410459724176
 21
286.86831332017107
  0
LINE
  8
_0-f_
  6
CONTINUOUS
 62
    7
 10
391.54410459724176
 20
286.86831332017107
 11
391.01368859724158
 21
287.17465732017104
  0
LINE
  8
_0-f_
  6
CONTINUOUS
 62
    7
 10
391.01368859724158
 20
287.17465732017104
 11
390.67129997049346
 21
286.58264132017098
  0
LINE
  8
_0-f_
  6
CONTINUOUS
 62
    7
 10
390.67129997049346
 20
286.58264132017098
 11
390.57611259724177
 21
286.58264132017098
  0
LINE
  8
_0-f_
  6
CONTINUOUS
 62
    7
 10
390.57611259724177
 20
286.58264132017098
 11
390.57611259724177
 21
287.17463332017104
  0
LINE
  8
_0-f_
  6
CONTINUOUS
 62
    7
 10
390.57611259724177
 20
287.17463332017104
 11
389.85609659724156
 21
287.17463332017104
  0
LINE
  8
_0-f_
  6
CONTINUOUS
 62
    7
 10
389.85609659724156
 20
287.17463332017104
 11
389.85609659724156
 21
286.58264132017098
  0
LINE
  8
_0-f_
  6
CONTINUOUS
 62
    7
 10
389.85609659724156
 20
286.58264132017098
 11
389.37608859724156
 21
286.58264132017098
  0
LINE
  8
_0-f_
  6
CONTINUOUS
 62
    7
 10
389.37608859724156
 20
286.58264132017098
 11
389.37608859724156
 21
287.17463332017104
  0
LINE
  8
_0-f_
  6
CONTINUOUS
 62
    7
 10
389.37608859724156
 20
287.17463332017104
 11
388.65609659724157
 21
287.17463332017104
  0
LINE
  8
_0-f_
  6
CONTINUOUS
 62
    7
 10
388.65609659724157
 20
287.17463332017104
 11
388.65609659724157
 21
286.58264132017098
  0
LINE
  8
_0-f_
  6
CONTINUOUS
 62
    7
 10
388.65609659724157
 20
286.58264132017098
 11
388.56087689837278
 21
286.58264132017098
  0
LINE
  8
_0-f_
  6
CONTINUOUS
 62
    7
 10
388.56087689837278
 20
286.58264132017098
 11
388.21928059724155
 21
287.17460132017106
  0
LINE
  8
_0-f_
  6
CONTINUOUS
 62
    7
 10
388.21928059724155
 20
287.17460132017106
 11
387.68890459724162
 21
286.868249320171
  0
LINE
  8
_0-f_
  6
CONTINUOUS
 62
    7
 10
387.68890459724162
 20
286.868249320171
 11
387.85376000927334
 21
286.58264132017098
  0
LINE
  8
_0-f_
  6
CONTINUOUS
 62
    7
 10
387.85376000927334
 20
286.58264132017098
 11
387.21610459724161
 21
286.58264132017098
  0
LINE
  8
_0-f_
  6
CONTINUOUS
 62
    7
 10
387.21610459724161
 20
286.58264132017098
 11
387.21610459724161
 21
286.182641320171
  0
LINE
  8
_0-f_
  6
CONTINUOUS
 62
    7
 10
387.21610459724161
 20
286.182641320171
 11
388.25289266759404
 21
286.182641320171
  0
LINE
  8
_0-f_
  6
CONTINUOUS
 62
    7
 10
388.25289266759404
 20
286.182641320171
 11
388.34326670277034
 21
285.81467332017098
  0
LINE
  8
_0-f_
  6
CONTINUOUS
 62
    7
 10
388.34326670277034
 20
285.81467332017098
 11
387.53609659724162
 21
285.81467332017098
  0
LINE
  8
_0-f_
  6
CONTINUOUS
 62
    7
 10
387.53609659724162
 20
285.81467332017098
 11
387.53609659724162
 21
285.50256132017103
  0
LINE
  8
_0-f_
  6
CONTINUOUS
 62
    7
 10
387.53609659724162
 20
285.50256132017103
 11
389.21608059724161
 21
285.50256132017103
  0
LINE
  8
_0-f_
  6
CONTINUOUS
 62
    7
 10
389.21608059724161
 20
285.50256132017103
 11
389.21608059724156
 21
285.12658532017105
  0
LINE
  8
_0-f_
  6
CONTINUOUS
 62
    7
 10
389.21608059724156
 20
285.12658532017105
 11
387.53609659724162
 21
285.12658532017105
  0
LINE
  8
_0-f_
  6
CONTINUOUS
 62
    7
 10
387.53609659724162
 20
285.12658532017105
 11
387.53609659724157
 21
284.80666532017096
  0
LINE
  8
_0-f_
  6
CONTINUOUS
 62
    7
 10
387.53609659724157
 20
284.80666532017096
 11
389.21608059724156
 21
284.80666532017096
  0
LINE
  8
_0-f_
  6
CONTINUOUS
 62
    7
 10
389.21608059724156
 20
284.80666532017096
 11
389.21608059724161
 21
284.43068932017104
  0
LINE
  8
_0-f_
  6
CONTINUOUS
 62
    7
 10
389.21608059724161
 20
284.43068932017104
 11
387.21610459724161
 21
284.43068932017104
  0
LINE
  8
_0-f_
  6
CONTINUOUS
 62
    7
 10
387.21610459724161
 20
284.43068932017104
 11
387.21610459724161
 21
284.03067332017099
  0
LINE
  8
_0-f_
  6
CONTINUOUS
 62
    7
 10
387.21610459724161
 20
284.03067332017099
 11
388.34577659724164
 21
284.03067332017099
  0
LINE
  8
_0-f_
  6
CONTINUOUS
 62
    7
 10
388.34577659724164
 20
284.03067332017099
 11
387.84969659724152
 21
283.53459332017104
  0
LINE
  8
_0-f_
  6
CONTINUOUS
 62
    7
 10
387.84969659724152
 20
283.53459332017104
 11
387.21610459724161
 21
283.53459332017104
  0
LINE
  8
_0-f_
  6
CONTINUOUS
 62
    7
 10
387.21610459724161
 20
283.53459332017104
 11
387.21610459724161
 21
283.17459332017103
  0
LINE
  8
_0-f_
  6
CONTINUOUS
 62
    7
 10
387.21610459724161
 20
283.17459332017103
 11
388.04761913099441
 21
283.17459332017103
  0
ARC
  8
_0-f_
  6
CONTINUOUS
 62
    7
 10
388.04761913099441
 20
283.574593320171
 40
0.3999999999999995
 50
270
 51
314.98511379092588
  0
LINE
  8
_0-f_
  6
CONTINUOUS
 62
    7
 10
388.33038834760765
 20
283.29167713092772
 11
389.06976863882255
 21
284.03067332017099
  0
LINE
  8
_0-f_
  6
CONTINUOUS
 62
    7
 10
389.06976863882255
 20
284.03067332017099
 11
389.21608059724161
 21
284.03067332017099
  0
LINE
  8
_0-f_
  6
CONTINUOUS
 62
    7
 10
389.21608059724161
 20
284.03067332017099
 11
389.21608059724156
 21
283.17459332017103
  0
LINE
  8
_0-f_
  6
CONTINUOUS
 62
    7
 10
389.21608059724156
 20
283.17459332017103
 11
390.01610459724162
 21
283.17459332017103
  0
LINE
  8
_0-f_
  6
CONTINUOUS
 62
    7
 10
390.01610459724162
 20
283.17459332017103
 11
390.01610459724162
 21
284.03067332017099
  0
LINE
  8
_0-f_
  6
CONTINUOUS
 62
    7
 10
390.01610459724162
 20
284.03067332017099
 11
390.1632166344952
 21
284.03067332017099
  0
LINE
  8
_0-f_
  6
CONTINUOUS
 62
    7
 10
390.1632166344952
 20
284.03067332017099
 11
390.90172940451265
 21
283.2918164864343
  0
ARC
  8
_0-f_
  6
CONTINUOUS
 62
    7
 10
391.18463798038454
 20
283.574593320171
 40
0.3999999999999968
 50
224.98665642058054
 51
270
  0
LINE
  8
_0-f_
  6
CONTINUOUS
 62
    7
 10
391.18463798038454
 20
283.17459332017103
 11
392.01610459724156
 21
283.17459332017103
  0
LINE
  8
_0-f_
  6
CONTINUOUS
 62
    7
 10
392.01610459724156
 20
283.17459332017103
 11
392.01610459724162
 21
283.53459332017104
  0
LINE
  8
_0-f_
  6
CONTINUOUS
 62
    7
 10
392.01610459724162
 20
283.53459332017104
 11
391.38336860885636
 21
283.53459332017104
  0
LINE
  8
_0-f_
  6
CONTINUOUS
 62
    7
 10
391.38336860885636
 20
283.53459332017104
 11
390.88721658562696
 21
284.03067332017099
  0
LINE
  8
_0-f_
  6
CONTINUOUS
 62
    7
 10
390.88721658562696
 20
284.03067332017099
 11
392.01610459724162
 21
284.03067332017099
  0
LINE
  8
_0-f_
  6
CONTINUOUS
 62
    7
 10
392.01610459724162
 20
284.03067332017099
 11
392.01610459724162
 21
284.43068932017104
  0
LINE
  8
_0-f_
  6
CONTINUOUS
 62
    7
 10
392.01610459724162
 20
284.43068932017104
 11
390.01610459724162
 21
284.43068932017104
  0
LINE
  8
_0-f_
  6
CONTINUOUS
 62
    7
 10
390.01610459724162
 20
284.43068932017104
 11
390.01610459724162
 21
284.80666532017096
  0
LINE
  8
_0-f_
  6
CONTINUOUS
 62
    7
 10
390.01610459724162
 20
284.80666532017096
 11
391.69610459724169
 21
284.80666532017096
  0
LINE
  8
_0-f_
  6
CONTINUOUS
 62
    7
 10
391.69610459724169
 20
284.80666532017096
 11
391.69610459724169
 21
285.12658532017105
  0
LINE
  8
_0-f_
  6
CONTINUOUS
 62
    7
 10
391.69610459724169
 20
285.12658532017105
 11
390.01610459724162
 21
285.12658532017105
  0
LINE
  8
_0-f_
  6
CONTINUOUS
 62
    7
 10
389.06009101394108
 20
285.81467332017098
 11
388.97449085580894
 21
286.18262838816725
  0
LINE
  8
_0-f_
  6
CONTINUOUS
 62
    7
 10
388.97449085580894
 20
286.18262838816725
 11
390.25850527641791
 21
286.18263384740067
  0
LINE
  8
_0-f_
  6
CONTINUOUS
 62
    7
 10
390.25850527641791
 20
286.18263384740067
 11
390.17291464935744
 21
285.81467332017098
  0
LINE
  8
_0-f_
  6
CONTINUOUS
 62
    7
 10
390.17291464935744
 20
285.81467332017098
 11
389.06009101394108
 21
285.81467332017098
  0
LINE
  8
_0-f_
  6
CONTINUOUS
 62
    7
 10
390.01610459724145
 20
285.13459332017101
 11
389.21608059724139
 21
285.13459332017101
  0
LINE
  8
_0-f_
  6
CONTINUOUS
 62
    7
 10
390.01610459724145
 20
285.21459332017105
 11
389.21608059724139
 21
285.21459332017105
  0
LINE
  8
_0-f_
  6
CONTINUOUS
 62
    7
 10
390.01610459724145
 20
285.29459332017097
 11
389.21608059724139
 21
285.29459332017097
  0
LINE
  8
_0-f_
  6
CONTINUOUS
 62
    7
 10
390.01610459724145
 20
285.37459332017102
 11
389.21608059724139
 21
285.37459332017102
  0
LINE
  8
_0-f_
  6
CONTINUOUS
 62
    7
 10
390.01610459724145
 20
285.454593320171
 11
389.21608059724139
 21
285.454593320171
  0
LINE
  8
_0-f_
  6
CONTINUOUS
 62
    7
 10
391.69610459724186
 20
285.53459332017098
 11
387.53609659724157
 21
285.53459332017098
  0
LINE
  8
_0-f_
  6
CONTINUOUS
 62
    7
 10
391.69610459724186
 20
285.61459332017102
 11
387.53609659724157
 21
285.61459332017102
  0
LINE
  8
_0-f_
  6
CONTINUOUS
 62
    7
 10
391.69610459724186
 20
285.69459332017107
 11
387.53609659724157
 21
285.69459332017107
  0
LINE
  8
_0-f_
  6
CONTINUOUS
 62
    7
 10
391.69610459724186
 20
285.77459332017105
 11
387.53609659724157
 21
285.77459332017105
  0
LINE
  8
_0-f_
  6
CONTINUOUS
 62
    7
 10
390.89882326706612
 20
285.85459332017103
 11
390.18220036774136
 21
285.85459332017103
  0
LINE
  8
_0-f_
  6
CONTINUOUS
 62
    7
 10
389.05080412374781
 20
285.85459332017103
 11
388.3334622320437
 21
285.85459332017103
  0
LINE
  8
_0-f_
  6
CONTINUOUS
 62
    7
 10
390.91863683043937
 20
285.93459332017107
 11
390.20080902181729
 21
285.93459332017107
  0
LINE
  8
_0-f_
  6
CONTINUOUS
 62
    7
 10
389.03219312135599
 20
285.93459332017107
 11
388.31381399411515
 21
285.93459332017107
  0
LINE
  8
_0-f_
  6
CONTINUOUS
 62
    7
 10
390.93845039381262
 20
286.014593320171
 11
390.21941767589328
 21
286.014593320171
  0
LINE
  8
_0-f_
  6
CONTINUOUS
 62
    7
 10
389.01358211896417
 20
286.014593320171
 11
388.2941657561866
 21
286.014593320171
  0
LINE
  8
_0-f_
  6
CONTINUOUS
 62
    7
 10
390.95826395718581
 20
286.09459332017104
 11
390.23802632996927
 21
286.09459332017104
  0
LINE
  8
_0-f_
  6
CONTINUOUS
 62
    7
 10
388.99497111657234
 20
286.09459332017104
 11
388.27451751825799
 21
286.09459332017104
  0
LINE
  8
_0-f_
  6
CONTINUOUS
 62
    7
 10
390.97807752055911
 20
286.17459332017103
 11
390.25663498404532
 21
286.17459332017103
  0
LINE
  8
_0-f_
  6
CONTINUOUS
 62
    7
 10
388.97636011418041
 20
286.17459332017103
 11
388.25486928032939
 21
286.17459332017103
  0
LINE
  8
_0-f_
  6
CONTINUOUS
 62
    7
 10
392.01610459724174
 20
286.25459332017101
 11
387.2161045972415
 21
286.25459332017101
  0
LINE
  8
_0-f_
  6
CONTINUOUS
 62
    7
 10
392.01610459724174
 20
286.33459332017105
 11
387.2161045972415
 21
286.33459332017105
  0
LINE
  8
_0-f_
  6
CONTINUOUS
 62
    7
 10
392.01610459724174
 20
286.41459332017098
 11
387.2161045972415
 21
286.41459332017098
  0
LINE
  8
_0-f_
  6
CONTINUOUS
 62
    7
 10
392.01610459724174
 20
286.49459332017102
 11
387.2161045972415
 21
286.49459332017102
  0
LINE
  8
_0-f_
  6
CONTINUOUS
 62
    7
 10
392.01610459724174
 20
286.57459332017106
 11
387.2161045972415
 21
286.57459332017106
  0
LINE
  8
_0-f_
  6
CONTINUOUS
 62
    7
 10
391.42077305358731
 20
286.65459332017099
 11
390.71291294458837
 21
286.65459332017099
  0
LINE
  8
_0-f_
  6
CONTINUOUS
 62
    7
 10
390.57611259724166
 20
286.65459332017099
 11
389.85609659724133
 21
286.65459332017099
  0
LINE
  8
_0-f_
  6
CONTINUOUS
 62
    7
 10
389.37608859724145
 20
286.65459332017099
 11
388.65609659724169
 21
286.65459332017099
  0
LINE
  8
_0-f_
  6
CONTINUOUS
 62
    7
 10
388.51935629384053
 20
286.65459332017099
 11
387.81222869150059
 21
286.65459332017099
  0
LINE
  8
_0-f_
  6
CONTINUOUS
 62
    7
 10
391.46693870721049
 20
286.73459332017103
 11
390.75918042746025
 21
286.73459332017103
  0
LINE
  8
_0-f_
  6
CONTINUOUS
 62
    7
 10
390.57611259724166
 20
286.73459332017103
 11
389.85609659724133
 21
286.73459332017103
  0
LINE
  8
_0-f_
  6
CONTINUOUS
 62
    7
 10
389.37608859724145
 20
286.73459332017103
 11
388.65609659724169
 21
286.73459332017103
  0
LINE
  8
_0-f_
  6
CONTINUOUS
 62
    7
 10
388.47319151228345
 20
286.73459332017103
 11
387.76605199840191
 21
286.73459332017103
  0
LINE
  8
_0-f_
  6
CONTINUOUS
 62
    7
 10
391.51310436083367
 20
286.81459332017107
 11
390.80544791033208
 21
286.81459332017107
  0
LINE
  8
_0-f_
  6
CONTINUOUS
 62
    7
 10
390.57611259724166
 20
286.81459332017107
 11
389.85609659724133
 21
286.81459332017107
  0
LINE
  8
_0-f_
  6
CONTINUOUS
 62
    7
 10
389.37608859724145
 20
286.81459332017107
 11
388.65609659724169
 21
286.81459332017107
  0
LINE
  8
_0-f_
  6
CONTINUOUS
 62
    7
 10
388.42702673072642
 20
286.81459332017107
 11
387.71987530530316
 21
286.81459332017107
  0
LINE
  8
_0-f_
  6
CONTINUOUS
 62
    7
 10
391.4986023759476
 20
286.89459332017105
 11
390.85171539320396
 21
286.89459332017105
  0
LINE
  8
_0-f_
  6
CONTINUOUS
 62
    7
 10
390.57611259724166
 20
286.89459332017105
 11
389.85609659724133
 21
286.89459332017105
  0
LINE
  8
_0-f_
  6
CONTINUOUS
 62
    7
 10
389.37608859724145
 20
286.89459332017105
 11
388.65609659724169
 21
286.89459332017105
  0
LINE
  8
_0-f_
  6
CONTINUOUS
 62
    7
 10
388.3808619491694
 20
286.89459332017105
 11
387.73451299981122
 21
286.89459332017105
  0
LINE
  8
_0-f_
  6
CONTINUOUS
 62
    7
 10
391.36008724263337
 20
286.97459332017104
 11
390.89798287607579
 21
286.97459332017104
  0
LINE
  8
_0-f_
  6
CONTINUOUS
 62
    7
 10
390.57611259724166
 20
286.97459332017104
 11
389.85609659724133
 21
286.97459332017104
  0
LINE
  8
_0-f_
  6
CONTINUOUS
 62
    7
 10
389.37608859724145
 20
286.97459332017104
 11
388.65609659724169
 21
286.97459332017104
  0
LINE
  8
_0-f_
  6
CONTINUOUS
 62
    7
 10
388.33469716761232
 20
286.97459332017104
 11
387.87301407047494
 21
286.97459332017104
  0
LINE
  8
_0-f_
  6
CONTINUOUS
 62
    7
 10
391.2215721093192
 20
287.05459332017108
 11
390.94425035894761
 21
287.05459332017108
  0
LINE
  8
_0-f_
  6
CONTINUOUS
 62
    7
 10
390.57611259724166
 20
287.05459332017108
 11
389.85609659724133
 21
287.05459332017108
  0
LINE
  8
_0-f_
  6
CONTINUOUS
 62
    7
 10
389.37608859724145
 20
287.05459332017108
 11
388.65609659724169
 21
287.05459332017108
  0
LINE
  8
_0-f_
  6
CONTINUOUS
 62
    7
 10
388.28853238605535
 20
287.05459332017108
 11
388.01151514113877
 21
287.05459332017108
  0
LINE
  8
_0-f_
  6
CONTINUOUS
 62
    7
 10
391.08305697600497
 20
287.13459332017101
 11
390.99051784181944
 21
287.13459332017101
  0
LINE
  8
_0-f_
  6
CONTINUOUS
 62
    7
 10
390.57611259724166
 20
287.13459332017101
 11
389.85609659724133
 21
287.13459332017101
  0
LINE
  8
_0-f_
  6
CONTINUOUS
 62
    7
 10
389.37608859724145
 20
287.13459332017101
 11
388.65609659724169
 21
287.13459332017101
  0
LINE
  8
_0-f_
  6
CONTINUOUS
 62
    7
 10
388.24236760449833
 20
287.13459332017101
 11
388.15001621180255
 21
287.13459332017101
  0
LINE
  8
_0-f_
  6
CONTINUOUS
 62
    7
 10
391.69610459724169
 20
285.05459332017102
 11
387.53609659724128
 21
285.05459332017102
  0
LINE
  8
_0-f_
  6
CONTINUOUS
 62
    7
 10
391.69610459724169
 20
284.97459332017104
 11
387.53609659724128
 21
284.97459332017104
  0
LINE
  8
_0-f_
  6
CONTINUOUS
 62
    7
 10
391.69610459724169
 20
284.894593320171
 11
387.53609659724128
 21
284.894593320171
  0
LINE
  8
_0-f_
  6
CONTINUOUS
 62
    7
 10
391.69610459724169
 20
284.81459332017096
 11
387.53609659724128
 21
284.81459332017096
  0
LINE
  8
_0-f_
  6
CONTINUOUS
 62
    7
 10
390.01610459724145
 20
284.73459332017103
 11
389.2160805972415
 21
284.73459332017103
  0
LINE
  8
_0-f_
  6
CONTINUOUS
 62
    7
 10
390.01610459724145
 20
284.65459332017099
 11
389.2160805972415
 21
284.65459332017099
  0
LINE
  8
_0-f_
  6
CONTINUOUS
 62
    7
 10
390.01610459724145
 20
284.57459332017095
 11
389.2160805972415
 21
284.57459332017095
  0
LINE
  8
_0-f_
  6
CONTINUOUS
 62
    7
 10
390.01610459724145
 20
284.49459332017102
 11
389.21608059724156
 21
284.49459332017102
  0
LINE
  8
_0-f_
  6
CONTINUOUS
 62
    7
 10
392.01610459724151
 20
284.41459332017098
 11
387.21610459724178
 21
284.41459332017098
  0
LINE
  8
_0-f_
  6
CONTINUOUS
 62
    7
 10
392.01610459724151
 20
284.334593320171
 11
387.21610459724178
 21
284.334593320171
  0
LINE
  8
_0-f_
  6
CONTINUOUS
 62
    7
 10
392.01610459724151
 20
284.25459332017101
 11
387.21610459724178
 21
284.25459332017101
  0
LINE
  8
_0-f_
  6
CONTINUOUS
 62
    7
 10
392.01610459724151
 20
284.17459332017097
 11
387.21610459724178
 21
284.17459332017097
  0
LINE
  8
_0-f_
  6
CONTINUOUS
 62
    7
 10
392.01610459724151
 20
284.09459332017104
 11
387.21610459724178
 21
284.09459332017104
  0
LINE
  8
_0-f_
  6
CONTINUOUS
 62
    7
 10
390.90329892019707
 20
284.014593320171
 11
390.17928914651594
 21
284.014593320171
  0
LINE
  8
_0-f_
  6
CONTINUOUS
 62
    7
 10
390.01610459724151
 20
284.014593320171
 11
389.21608059724156
 21
284.014593320171
  0
LINE
  8
_0-f_
  6
CONTINUOUS
 62
    7
 10
389.05368028105335
 20
284.014593320171
 11
388.32969659724159
 21
284.014593320171
  0
LINE
  8
_0-f_
  6
CONTINUOUS
 62
    7
 10
390.98331053497361
 20
283.93459332017102
 11
390.25925189288807
 21
283.93459332017102
  0
LINE
  8
_0-f_
  6
CONTINUOUS
 62
    7
 10
390.01610459724151
 20
283.93459332017102
 11
389.21608059724156
 21
283.93459332017102
  0
LINE
  8
_0-f_
  6
CONTINUOUS
 62
    7
 10
388.97363870011128
 20
283.93459332017102
 11
388.24969659724155
 21
283.93459332017102
  0
LINE
  8
_0-f_
  6
CONTINUOUS
 62
    7
 10
391.06332214975015
 20
283.85459332017103
 11
390.33921463926021
 21
283.85459332017103
  0
LINE
  8
_0-f_
  6
CONTINUOUS
 62
    7
 10
390.01610459724151
 20
283.85459332017103
 11
389.21608059724156
 21
283.85459332017103
  0
LINE
  8
_0-f_
  6
CONTINUOUS
 62
    7
 10
388.89359711916921
 20
283.85459332017103
 11
388.16969659724151
 21
283.85459332017103
  0
LINE
  8
_0-f_
  6
CONTINUOUS
 62
    7
 10
391.14333376452674
 20
283.77459332017099
 11
390.41917738563228
 21
283.77459332017099
  0
LINE
  8
_0-f_
  6
CONTINUOUS
 62
    7
 10
390.01610459724151
 20
283.77459332017099
 11
389.21608059724156
 21
283.77459332017099
  0
LINE
  8
_0-f_
  6
CONTINUOUS
 62
    7
 10
388.81355553822715
 20
283.77459332017099
 11
388.08969659724153
 21
283.77459332017099
  0
LINE
  8
_0-f_
  6
CONTINUOUS
 62
    7
 10
391.22334537930323
 20
283.69459332017095
 11
390.49914013200447
 21
283.69459332017095
  0
LINE
  8
_0-f_
  6
CONTINUOUS
 62
    7
 10
390.01610459724151
 20
283.69459332017095
 11
389.21608059724156
 21
283.69459332017095
  0
LINE
  8
_0-f_
  6
CONTINUOUS
 62
    7
 10
388.73351395728508
 20
283.69459332017095
 11
388.00969659724154
 21
283.69459332017095
  0
LINE
  8
_0-f_
  6
CONTINUOUS
 62
    7
 10
391.30335699407982
 20
283.61459332017097
 11
390.57910287837655
 21
283.61459332017097
  0
LINE
  8
_0-f_
  6
CONTINUOUS
 62
    7
 10
390.01610459724151
 20
283.61459332017097
 11
389.21608059724156
 21
283.61459332017097
  0
LINE
  8
_0-f_
  6
CONTINUOUS
 62
    7
 10
388.65347237634302
 20
283.61459332017097
 11
387.9296965972415
 21
283.61459332017097
  0
LINE
  8
_0-f_
  6
CONTINUOUS
 62
    7
 10
392.01610459724162
 20
283.53459332017098
 11
391.38336860885636
 21
283.53459332017098
  0
LINE
  8
_0-f_
  6
CONTINUOUS
 62
    7
 10
387.84969659724146
 20
283.53459332017098
 11
387.21610459724161
 21
283.53459332017098
  0
LINE
  8
_0-f_
  6
CONTINUOUS
 62
    7
 10
392.01610459724162
 20
283.45459332017094
 11
390.73902837112081
 21
283.45459332017094
  0
LINE
  8
_0-f_
  6
CONTINUOUS
 62
    7
 10
390.01610459724151
 20
283.45459332017094
 11
389.21608059724156
 21
283.45459332017094
  0
LINE
  8
_0-f_
  6
CONTINUOUS
 62
    7
 10
388.49338921445894
 20
283.45459332017094
 11
387.21610459724161
 21
283.45459332017094
  0
LINE
  8
_0-f_
  6
CONTINUOUS
 62
    7
 10
392.01610459724162
 20
283.37459332017102
 11
390.81899111749294
 21
283.37459332017102
  0
LINE
  8
_0-f_
  6
CONTINUOUS
 62
    7
 10
390.01610459724151
 20
283.37459332017102
 11
389.21608059724156
 21
283.37459332017102
  0
LINE
  8
_0-f_
  6
CONTINUOUS
 62
    7
 10
388.41334763351688
 20
283.37459332017102
 11
387.21610459724161
 21
283.37459332017102
  0
LINE
  8
_0-f_
  6
CONTINUOUS
 62
    7
 10
392.01610459724162
 20
283.29459332017097
 11
390.89895386386507
 21
283.29459332017097
  0
LINE
  8
_0-f_
  6
CONTINUOUS
 62
    7
 10
390.01610459724151
 20
283.29459332017097
 11
389.21608059724156
 21
283.29459332017097
  0
LINE
  8
_0-f_
  6
CONTINUOUS
 62
    7
 10
388.33330605257476
 20
283.29459332017097
 11
387.21610459724161
 21
283.29459332017097
  0
LINE
  8
_0-f_
  6
CONTINUOUS
 62
    7
 10
392.01610459724162
 20
283.21459332017099
 11
391.01174112565542
 21
283.21459332017099
  0
LINE
  8
_0-f_
  6
CONTINUOUS
 62
    7
 10
390.01610459724151
 20
283.21459332017099
 11
389.2160805972415
 21
283.21459332017099
  0
LINE
  8
_0-f_
  6
CONTINUOUS
 62
    7
 10
388.22052978770176
 20
283.21459332017099
 11
387.21610459724161
 21
283.21459332017099
  0
LINE
  8
_0-f_
  6
CONTINUOUS
 62
    7
 10
388.56090459724174
 20
286.58259332017099
 11
388.21928059724155
 21
287.17460132017106
  0
LINE
  8
_0-f_
  6
CONTINUOUS
 62
    7
 10
387.53609659724162
 20
285.50256132017103
 11
389.21608059724161
 21
285.50256132017103
  0
LINE
  8
_0-f_
  6
CONTINUOUS
 62
    7
 10
387.53609659724162
 20
285.12658532017105
 11
389.21608059724161
 21
285.12658532017105
  0
LINE
  8
_0-f_
  6
CONTINUOUS
 62
    7
 10
387.53609659724162
 20
284.80666532017096
 11
389.21608059724161
 21
284.80666532017096
  0
LINE
  8
_0-f_
  6
CONTINUOUS
 62
    7
 10
387.21610459724161
 20
284.43068932017104
 11
389.21608059724161
 21
284.43068932017104
  0
LINE
  8
_0-f_
  6
CONTINUOUS
 62
    7
 10
388.33038834760765
 20
283.29167713092772
 11
389.06976863882255
 21
284.03067332017099
  0
LINE
  8
_0-f_
  6
CONTINUOUS
 62
    7
 10
387.21610459724161
 20
284.03067332017099
 11
388.34577659724158
 21
284.03067332017099
  0
LINE
  8
_0-f_
  6
CONTINUOUS
 62
    7
 10
387.21610459724161
 20
283.53459332017104
 11
387.84969659724152
 21
283.53459332017104
  0
LINE
  8
_0-f_
  6
CONTINUOUS
 62
    7
 10
387.21610459724161
 20
283.17459332017103
 11
388.04761913099441
 21
283.17459332017103
  0
LINE
  8
_0-f_
  6
CONTINUOUS
 62
    7
 10
387.21610459724161
 20
284.43068932017104
 11
387.21610459724161
 21
284.03067332017099
  0
LINE
  8
_0-f_
  6
CONTINUOUS
 62
    7
 10
387.21610459724161
 20
283.53459332017104
 11
387.21610459724161
 21
283.17459332017103
  0
LINE
  8
_0-f_
  6
CONTINUOUS
 62
    7
 10
387.84969659724152
 20
283.53459332017104
 11
388.34577659724158
 21
284.03067332017099
  0
ARC
  8
_0-f_
  6
CONTINUOUS
 62
    7
 10
388.04761913099441
 20
283.574593320171
 40
0.4
 50
270.0000000000004
 51
314.98511379092611
  0
LINE
  8
_0-f_
  6
CONTINUOUS
 62
    7
 10
388.34569659724161
 20
284.03067332017099
 11
388.34577659724158
 21
284.03067332017099
  0
LINE
  8
_0-f_
  6
CONTINUOUS
 62
    7
 10
387.53609659724162
 20
285.12658532017105
 11
387.53609659724157
 21
284.80666532017096
  0
LINE
  8
_0-f_
  6
CONTINUOUS
 62
    7
 10
387.21610459724161
 20
286.58264132017098
 11
387.85376000927334
 21
286.58264132017098
  0
LINE
  8
_0-f_
  6
CONTINUOUS
 62
    7
 10
387.21610459724161
 20
286.182641320171
 11
388.25289659724166
 21
286.182641320171
  0
LINE
  8
_0-f_
  6
CONTINUOUS
 62
    7
 10
387.21610459724161
 20
286.58264132017098
 11
387.21610459724161
 21
286.182641320171
  0
LINE
  8
_0-f_
  6
CONTINUOUS
 62
    7
 10
387.85376000927334
 20
286.58264132017098
 11
387.68890459724162
 21
286.868249320171
  0
LINE
  8
_0-f_
  6
CONTINUOUS
 62
    7
 10
387.53609659724162
 20
285.81467332017098
 11
388.34327259724165
 21
285.81467332017098
  0
LINE
  8
_0-f_
  6
CONTINUOUS
 62
    7
 10
387.53609659724162
 20
285.81467332017098
 11
387.53609659724162
 21
285.50256132017103
  0
LINE
  8
_0-f_
  6
CONTINUOUS
 62
    7
 10
388.25289659724166
 20
286.18262532017104
 11
388.34327259724165
 21
285.81464932017104
  0
LINE
  8
_0-f_
  6
CONTINUOUS
 62
    7
 10
387.68890459724162
 20
286.868249320171
 11
388.21928059724155
 21
287.17460132017106
  0
LINE
  8
_0-f_
  6
CONTINUOUS
 62
    7
 10
390.01610459724162
 20
285.50256132017103
 11
390.01610459724162
 21
285.12658532017105
  0
LINE
  8
_0-f_
  6
CONTINUOUS
 62
    7
 10
389.21608059724161
 20
285.50256132017103
 11
389.21608059724156
 21
285.12658532017105
  0
LINE
  8
_0-f_
  6
CONTINUOUS
 62
    7
 10
390.01610459724162
 20
285.12658532017105
 11
391.69610459724169
 21
285.12658532017105
  0
LINE
  8
_0-f_
  6
CONTINUOUS
 62
    7
 10
390.90172940451265
 20
283.2918164864343
 11
390.1632166344952
 21
284.03067332017099
  0
LINE
  8
_0-f_
  6
CONTINUOUS
 62
    7
 10
390.01610459724162
 20
284.43068932017104
 11
392.01610459724162
 21
284.43068932017104
  0
LINE
  8
_0-f_
  6
CONTINUOUS
 62
    7
 10
390.01610459724162
 20
284.80666532017096
 11
391.69610459724169
 21
284.80666532017096
  0
LINE
  8
_0-f_
  6
CONTINUOUS
 62
    7
 10
389.21608059724161
 20
283.17459332017103
 11
390.01610459724162
 21
283.17459332017103
  0
LINE
  8
_0-f_
  6
CONTINUOUS
 62
    7
 10
389.06976863882255
 20
284.03067332017099
 11
389.21608059724161
 21
284.03067332017099
  0
LINE
  8
_0-f_
  6
CONTINUOUS
 62
    7
 10
389.21608059724161
 20
284.03067332017099
 11
389.21608059724161
 21
283.17459332017103
  0
LINE
  8
_0-f_
  6
CONTINUOUS
 62
    7
 10
389.21608059724156
 20
284.80666532017096
 11
389.21608059724161
 21
284.43068932017104
  0
LINE
  8
_0-f_
  6
CONTINUOUS
 62
    7
 10
390.01610459724162
 20
284.03067332017099
 11
390.1632166344952
 21
284.03067332017099
  0
LINE
  8
_0-f_
  6
CONTINUOUS
 62
    7
 10
390.01610459724162
 20
284.03067332017099
 11
390.01610459724162
 21
283.17459332017103
  0
LINE
  8
_0-f_
  6
CONTINUOUS
 62
    7
 10
390.01610459724162
 20
284.80666532017096
 11
390.01610459724162
 21
284.43068932017104
  0
LINE
  8
_0-f_
  6
CONTINUOUS
 62
    7
 10
391.18463798038454
 20
283.17459332017103
 11
392.01610459724162
 21
283.17459332017103
  0
LINE
  8
_0-f_
  6
CONTINUOUS
 62
    7
 10
391.38336860885636
 20
283.53459332017104
 11
392.01610459724162
 21
283.53459332017104
  0
LINE
  8
_0-f_
  6
CONTINUOUS
 62
    7
 10
390.88721658562696
 20
284.03067332017099
 11
392.01610459724162
 21
284.03067332017099
  0
LINE
  8
_0-f_
  6
CONTINUOUS
 62
    7
 10
391.38336860885636
 20
283.53459332017104
 11
390.88721658562696
 21
284.03067332017099
  0
ARC
  8
_0-f_
  6
CONTINUOUS
 62
    7
 10
391.18463798038454
 20
283.574593320171
 40
0.4
 50
224.98665642058006
 51
269.9999999999996
  0
LINE
  8
_0-f_
  6
CONTINUOUS
 62
    7
 10
391.69610459724169
 20
285.12658532017099
 11
391.69610459724169
 21
284.80666532017096
  0
LINE
  8
_0-f_
  6
CONTINUOUS
 62
    7
 10
392.01610459724162
 20
284.43068932017104
 11
392.01610459724162
 21
284.03067332017099
  0
LINE
  8
_0-f_
  6
CONTINUOUS
 62
    7
 10
392.01610459724162
 20
283.53459332017104
 11
392.01610459724156
 21
283.17459332017103
  0
LINE
  8
_0-f_
  6
CONTINUOUS
 62
    7
 10
390.01610459724162
 20
285.50256132017103
 11
391.69610459724169
 21
285.50256132017103
  0
LINE
  8
_0-f_
  6
CONTINUOUS
 62
    7
 10
390.57611259724177
 20
286.58264132017098
 11
390.67129997049346
 21
286.58264132017098
  0
LINE
  8
_0-f_
  6
CONTINUOUS
 62
    7
 10
389.37608859724156
 20
286.58264132017098
 11
389.85609659724156
 21
286.58264132017098
  0
LINE
  8
_0-f_
  6
CONTINUOUS
 62
    7
 10
388.97449085580894
 20
286.18262838816725
 11
390.25850527641791
 21
286.18263384740067
  0
LINE
  8
_0-f_
  6
CONTINUOUS
 62
    7
 10
389.06009101394108
 20
285.81467332017098
 11
390.17291464935744
 21
285.81467332017098
  0
LINE
  8
_0-f_
  6
CONTINUOUS
 62
    7
 10
389.37608859724156
 20
287.17463332017104
 11
389.37608859724156
 21
286.58264132017098
  0
LINE
  8
_0-f_
  6
CONTINUOUS
 62
    7
 10
388.65609659724157
 20
287.17463332017104
 11
388.65609659724157
 21
286.58264132017098
  0
LINE
  8
_0-f_
  6
CONTINUOUS
 62
    7
 10
388.97449085580894
 20
286.18262838816725
 11
389.06009659724174
 21
285.81464932017104
  0
LINE
  8
_0-f_
  6
CONTINUOUS
 62
    7
 10
388.56087689837278
 20
286.58264132017098
 11
388.65609659724157
 21
286.58264132017098
  0
LINE
  8
_0-f_
  6
CONTINUOUS
 62
    7
 10
388.65609659724157
 20
287.17463332017104
 11
389.37608859724156
 21
287.17463332017104
  0
LINE
  8
_0-f_
  6
CONTINUOUS
 62
    7
 10
390.57611259724177
 20
287.17463332017104
 11
390.57611259724177
 21
286.58264132017098
  0
LINE
  8
_0-f_
  6
CONTINUOUS
 62
    7
 10
389.85609659724156
 20
287.17463332017104
 11
389.85609659724156
 21
286.58264132017098
  0
LINE
  8
_0-f_
  6
CONTINUOUS
 62
    7
 10
390.25851259724163
 20
286.18266532017105
 11
390.17288859724175
 21
285.81456132017104
  0
LINE
  8
_0-f_
  6
CONTINUOUS
 62
    7
 10
389.85609659724156
 20
287.17463332017104
 11
390.57611259724177
 21
287.17463332017104
  0
LINE
  8
_0-f_
  6
CONTINUOUS
 62
    7
 10
390.98006967407474
 20
286.18263691527
 11
392.01610459724156
 21
286.182641320171
  0
LINE
  8
_0-f_
  6
CONTINUOUS
 62
    7
 10
391.37925166471865
 20
286.58264132017098
 11
392.01610459724162
 21
286.58264132017098
  0
LINE
  8
_0-f_
  6
CONTINUOUS
 62
    7
 10
391.37925166471865
 20
286.58264132017098
 11
391.54410459724176
 21
286.86831332017107
  0
LINE
  8
_0-f_
  6
CONTINUOUS
 62
    7
 10
390.67129997049346
 20
286.58264132017098
 11
391.0136885972417
 21
287.17465732017104
  0
LINE
  8
_0-f_
  6
CONTINUOUS
 62
    7
 10
390.88893629894301
 20
285.81467332017098
 11
391.69610459724169
 21
285.81467332017098
  0
LINE
  8
_0-f_
  6
CONTINUOUS
 62
    7
 10
390.9800885972416
 20
286.18271332017105
 11
390.88890459724161
 21
285.81454532017096
  0
LINE
  8
_0-f_
  6
CONTINUOUS
 62
    7
 10
391.69610459724169
 20
285.81467332017098
 11
391.69610459724169
 21
285.50256132017103
  0
LINE
  8
_0-f_
  6
CONTINUOUS
 62
    7
 10
391.54410459724176
 20
286.86831332017107
 11
391.0136885972417
 21
287.17465732017104
  0
LINE
  8
_0-f_
  6
CONTINUOUS
 62
    7
 10
392.01610459724162
 20
286.58264132017098
 11
392.01610459724162
 21
286.182641320171
  0
LINE
  8
_0-f_
  6
CONTINUOUS
 62
    7
 10
391.38336860885641
 20
283.53459332017098
 11
390.65906562474873
 21
283.53459332017098
  0
LINE
  8
_0-f_
  6
CONTINUOUS
 62
    7
 10
390.01610459724162
 20
283.53459332017098
 11
389.21608059724156
 21
283.53459332017098
  0
LINE
  8
_0-f_
  6
CONTINUOUS
 62
    7
 10
388.57343079540084
 20
283.53459332017098
 11
387.84969659724146
 21
283.53459332017098
  0
LINE
  8
_0-f_
  6
CONTINUOUS
 62
    7
 10
394.3680336525627
 20
286.054713320171
 11
394.3680336525627
 21
286.49475332017101
  0
LINE
  8
_0-f_
  6
CONTINUOUS
 62
    7
 10
394.3680336525627
 20
286.49475332017101
 11
393.70004165256279
 21
286.49475332017101
  0
LINE
  8
_0-f_
  6
CONTINUOUS
 62
    7
 10
393.70004165256279
 20
286.49475332017101
 11
393.70004165256279
 21
287.17463332017104
  0
LINE
  8
_0-f_
  6
CONTINUOUS
 62
    7
 10
393.70004165256279
 20
287.17463332017104
 11
393.18002565256273
 21
287.17463332017104
  0
LINE
  8
_0-f_
  6
CONTINUOUS
 62
    7
 10
393.18002565256273
 20
287.17463332017104
 11
393.18002565256273
 21
286.49475332017101
  0
LINE
  8
_0-f_
  6
CONTINUOUS
 62
    7
 10
393.18002565256273
 20
286.49475332017101
 11
392.50404965256274
 21
286.49475332017101
  0
LINE
  8
_0-f_
  6
CONTINUOUS
 62
    7
 10
392.50404965256274
 20
286.49475332017101
 11
392.50404965256274
 21
286.054713320171
  0
LINE
  8
_0-f_
  6
CONTINUOUS
 62
    7
 10
392.50404965256274
 20
286.054713320171
 11
393.18338322816572
 21
286.054713320171
  0
LINE
  8
_0-f_
  6
CONTINUOUS
 62
    7
 10
393.18338322816572
 20
286.054713320171
 11
392.48231811793556
 21
284.36760132017105
  0
LINE
  8
_0-f_
  6
CONTINUOUS
 62
    7
 10
392.48231811793556
 20
284.36760132017105
 11
392.42404165256272
 21
284.36760132017105
  0
LINE
  8
_0-f_
  6
CONTINUOUS
 62
    7
 10
392.42404165256272
 20
284.36760132017105
 11
392.42404165256272
 21
283.88771332017103
  0
LINE
  8
_0-f_
  6
CONTINUOUS
 62
    7
 10
392.42404165256272
 20
283.88771332017103
 11
392.62223573479713
 21
283.88771332017103
  0
ARC
  8
_0-f_
  6
CONTINUOUS
 62
    7
 10
392.62223573479713
 20
284.08771332017102
 40
0.2
 50
270
 51
338.12209204226002
  0
LINE
  8
_0-f_
  6
CONTINUOUS
 62
    7
 10
392.80783173502397
 20
284.0131873200113
 11
393.18002565256273
 21
284.94008132017098
  0
LINE
  8
_0-f_
  6
CONTINUOUS
 62
    7
 10
393.18002565256273
 20
284.94008132017098
 11
393.18002565256273
 21
283.17459332017103
  0
LINE
  8
_0-f_
  6
CONTINUOUS
 62
    7
 10
393.18002565256273
 20
283.17459332017103
 11
393.70004165256279
 21
283.17459332017103
  0
LINE
  8
_0-f_
  6
CONTINUOUS
 62
    7
 10
393.70004165256279
 20
283.17459332017103
 11
393.70004165256279
 21
284.94539332017098
  0
LINE
  8
_0-f_
  6
CONTINUOUS
 62
    7
 10
393.70004165256279
 20
284.94539332017098
 11
393.97803761998813
 21
284.21644665107613
  0
ARC
  8
_0-f_
  6
CONTINUOUS
 62
    7
 10
394.16490939922761
 20
284.28771332017101
 40
0.200000000000003
 50
200.87518418962418
 51
270
  0
LINE
  8
_0-f_
  6
CONTINUOUS
 62
    7
 10
394.16490939922761
 20
284.08771332017102
 11
394.44804165256272
 21
284.08771332017102
  0
LINE
  8
_0-f_
  6
CONTINUOUS
 62
    7
 10
394.44804165256272
 20
284.08771332017102
 11
394.44804165256272
 21
284.56760132017104
  0
LINE
  8
_0-f_
  6
CONTINUOUS
 62
    7
 10
394.44804165256272
 20
284.56760132017104
 11
394.30378980219365
 21
284.56760132017104
  0
LINE
  8
_0-f_
  6
CONTINUOUS
 62
    7
 10
394.30378980219365
 20
284.56760132017104
 11
393.6967630569913
 21
286.054713320171
  0
LINE
  8
_0-f_
  6
CONTINUOUS
 62
    7
 10
393.6967630569913
 20
286.054713320171
 11
394.3680336525627
 21
286.054713320171
  0
LINE
  8
_0-f_
  6
CONTINUOUS
 62
    7
 10
396.20404965256279
 20
285.38283332017102
 11
396.20404965256279
 21
286.054713320171
  0
LINE
  8
_0-f_
  6
CONTINUOUS
 62
    7
 10
396.20404965256279
 20
286.054713320171
 11
397.22404165256279
 21
286.054713320171
  0
LINE
  8
_0-f_
  6
CONTINUOUS
 62
    7
 10
397.22404165256279
 20
286.054713320171
 11
397.22404165256279
 21
286.49475332017101
  0
LINE
  8
_0-f_
  6
CONTINUOUS
 62
    7
 10
397.22404165256279
 20
286.49475332017101
 11
396.20404965256279
 21
286.49475332017101
  0
LINE
  8
_0-f_
  6
CONTINUOUS
 62
    7
 10
396.20404965256279
 20
286.49475332017101
 11
396.20404965256279
 21
287.17463332017104
  0
LINE
  8
_0-f_
  6
CONTINUOUS
 62
    7
 10
396.20404965256279
 20
287.17463332017104
 11
395.68404965256281
 21
287.17463332017104
  0
LINE
  8
_0-f_
  6
CONTINUOUS
 62
    7
 10
395.68404965256281
 20
287.17463332017104
 11
395.68404965256281
 21
286.49475332017101
  0
LINE
  8
_0-f_
  6
CONTINUOUS
 62
    7
 10
395.68404965256281
 20
286.49475332017101
 11
395.22003365256268
 21
286.49475332017101
  0
LINE
  8
_0-f_
  6
CONTINUOUS
 62
    7
 10
395.22003365256268
 20
286.49475332017101
 11
395.22003365256268
 21
287.17463332017104
  0
LINE
  8
_0-f_
  6
CONTINUOUS
 62
    7
 10
395.22003365256268
 20
287.17463332017104
 11
394.72003365256268
 21
287.17463332017104
  0
LINE
  8
_0-f_
  6
CONTINUOUS
 62
    7
 10
394.72003365256268
 20
287.17463332017104
 11
394.72003365256268
 21
286.054713320171
  0
LINE
  8
_0-f_
  6
CONTINUOUS
 62
    7
 10
394.72003365256268
 20
286.054713320171
 11
395.68404965256281
 21
286.054713320171
  0
LINE
  8
_0-f_
  6
CONTINUOUS
 62
    7
 10
395.68404965256281
 20
286.054713320171
 11
395.68404965256281
 21
285.38283332017102
  0
LINE
  8
_0-f_
  6
CONTINUOUS
 62
    7
 10
395.68404965256281
 20
285.38283332017102
 11
394.72003365256268
 21
285.38283332017102
  0
LINE
  8
_0-f_
  6
CONTINUOUS
 62
    7
 10
394.72003365256268
 20
285.38283332017102
 11
394.72003365256268
 21
284.94279332017106
  0
LINE
  8
_0-f_
  6
CONTINUOUS
 62
    7
 10
394.72003365256268
 20
284.94279332017106
 11
395.39281527604436
 21
284.94279332017106
  0
LINE
  8
_0-f_
  6
CONTINUOUS
 62
    7
 10
395.39281527604436
 20
284.94279332017106
 11
394.85954598821593
 21
283.64886839893734
  0
ARC
  8
_0-f_
  6
CONTINUOUS
 62
    7
 10
394.74859901178945
 20
283.69459332017107
 40
0.1199999999999984
 50
270
 51
337.60181985621841
  0
LINE
  8
_0-f_
  6
CONTINUOUS
 62
    7
 10
394.74859901178945
 20
283.574593320171
 11
394.6880576525628
 21
283.574593320171
  0
LINE
  8
_0-f_
  6
CONTINUOUS
 62
    7
 10
394.6880576525628
 20
283.574593320171
 11
394.6880576525628
 21
283.17459332017103
  0
LINE
  8
_0-f_
  6
CONTINUOUS
 62
    7
 10
394.6880576525628
 20
283.17459332017103
 11
394.99572743600964
 21
283.17459332017103
  0
ARC
  8
_0-f_
  6
CONTINUOUS
 62
    7
 10
394.99572743600964
 20
283.41459332017098
 40
0.2399999999999966
 50
270
 51
337.13773188217931
  0
LINE
  8
_0-f_
  6
CONTINUOUS
 62
    7
 10
395.2168733868063
 20
283.3213491865954
 11
395.68404965256281
 21
284.42934532017102
  0
LINE
  8
_0-f_
  6
CONTINUOUS
 62
    7
 10
395.68404965256281
 20
284.42934532017102
 11
395.68404965256281
 21
283.17459332017103
  0
LINE
  8
_0-f_
  6
CONTINUOUS
 62
    7
 10
395.68404965256281
 20
283.17459332017103
 11
396.20404965256279
 21
283.17459332017103
  0
LINE
  8
_0-f_
  6
CONTINUOUS
 62
    7
 10
396.20404965256279
 20
283.17459332017103
 11
396.20404965256279
 21
284.42940932017103
  0
LINE
  8
_0-f_
  6
CONTINUOUS
 62
    7
 10
396.20404965256279
 20
284.42940932017103
 11
396.67995255246774
 21
283.31997993978257
  0
ARC
  8
_0-f_
  6
CONTINUOUS
 62
    7
 10
396.90051616744421
 20
283.41459332017098
 40
0.2399999999999991
 50
203.21748710460054
 51
270
  0
LINE
  8
_0-f_
  6
CONTINUOUS
 62
    7
 10
396.90051616744421
 20
283.17459332017103
 11
397.22404165256279
 21
283.17459332017103
  0
LINE
  8
_0-f_
  6
CONTINUOUS
 62
    7
 10
397.22404165256279
 20
283.17459332017103
 11
397.22404165256279
 21
283.574593320171
  0
LINE
  8
_0-f_
  6
CONTINUOUS
 62
    7
 10
397.22404165256279
 20
283.574593320171
 11
397.1473834391079
 21
283.574593320171
  0
ARC
  8
_0-f_
  6
CONTINUOUS
 62
    7
 10
397.1473834391079
 20
283.69459332017107
 40
0.1200000000000003
 50
202.69813627100072
 51
270
  0
LINE
  8
_0-f_
  6
CONTINUOUS
 62
    7
 10
397.03667736209189
 20
283.64828819613786
 11
396.49522361406252
 21
284.94279332017106
  0
LINE
  8
_0-f_
  6
CONTINUOUS
 62
    7
 10
396.49522361406252
 20
284.94279332017106
 11
397.22404165256279
 21
284.94279332017106
  0
LINE
  8
_0-f_
  6
CONTINUOUS
 62
    7
 10
397.22404165256279
 20
284.94279332017106
 11
397.22404165256279
 21
285.38283332017102
  0
LINE
  8
_0-f_
  6
CONTINUOUS
 62
    7
 10
397.22404165256279
 20
285.38283332017102
 11
396.20404965256279
 21
285.38283332017102
  0
LINE
  8
_0-f_
  6
CONTINUOUS
 62
    7
 10
397.22404165256273
 20
285.13459332017101
 11
394.72003365256234
 21
285.13459332017101
  0
LINE
  8
_0-f_
  6
CONTINUOUS
 62
    7
 10
394.07234838532935
 20
285.13459332017101
 11
392.8010351509634
 21
285.13459332017101
  0
LINE
  8
_0-f_
  6
CONTINUOUS
 62
    7
 10
397.22404165256273
 20
285.21459332017105
 11
394.72003365256234
 21
285.21459332017105
  0
LINE
  8
_0-f_
  6
CONTINUOUS
 62
    7
 10
394.03969305095222
 20
285.21459332017105
 11
392.83427847376498
 21
285.21459332017105
  0
LINE
  8
_0-f_
  6
CONTINUOUS
 62
    7
 10
397.22404165256273
 20
285.29459332017097
 11
394.72003365256234
 21
285.29459332017097
  0
LINE
  8
_0-f_
  6
CONTINUOUS
 62
    7
 10
394.00703771657516
 20
285.29459332017097
 11
392.86752179656656
 21
285.29459332017097
  0
LINE
  8
_0-f_
  6
CONTINUOUS
 62
    7
 10
397.22404165256273
 20
285.37459332017102
 11
394.72003365256234
 21
285.37459332017102
  0
LINE
  8
_0-f_
  6
CONTINUOUS
 62
    7
 10
393.97438238219803
 20
285.37459332017102
 11
392.90076511936815
 21
285.37459332017102
  0
LINE
  8
_0-f_
  6
CONTINUOUS
 62
    7
 10
396.20404965256284
 20
285.454593320171
 11
395.68404965256258
 21
285.454593320171
  0
LINE
  8
_0-f_
  6
CONTINUOUS
 62
    7
 10
393.94172704782096
 20
285.454593320171
 11
392.93400844216973
 21
285.454593320171
  0
LINE
  8
_0-f_
  6
CONTINUOUS
 62
    7
 10
396.20404965256284
 20
285.53459332017098
 11
395.68404965256258
 21
285.53459332017098
  0
LINE
  8
_0-f_
  6
CONTINUOUS
 62
    7
 10
393.90907171344384
 20
285.53459332017098
 11
392.96725176497131
 21
285.53459332017098
  0
LINE
  8
_0-f_
  6
CONTINUOUS
 62
    7
 10
396.20404965256284
 20
285.61459332017102
 11
395.68404965256258
 21
285.61459332017102
  0
LINE
  8
_0-f_
  6
CONTINUOUS
 62
    7
 10
393.87641637906682
 20
285.61459332017102
 11
393.00049508777289
 21
285.61459332017102
  0
LINE
  8
_0-f_
  6
CONTINUOUS
 62
    7
 10
396.20404965256284
 20
285.69459332017107
 11
395.68404965256258
 21
285.69459332017107
  0
LINE
  8
_0-f_
  6
CONTINUOUS
 62
    7
 10
393.84376104468964
 20
285.69459332017107
 11
393.03373841057447
 21
285.69459332017107
  0
LINE
  8
_0-f_
  6
CONTINUOUS
 62
    7
 10
396.20404965256284
 20
285.77459332017105
 11
395.68404965256258
 21
285.77459332017105
  0
LINE
  8
_0-f_
  6
CONTINUOUS
 62
    7
 10
393.81110571031257
 20
285.77459332017105
 11
393.06698173337605
 21
285.77459332017105
  0
LINE
  8
_0-f_
  6
CONTINUOUS
 62
    7
 10
396.20404965256284
 20
285.85459332017103
 11
395.68404965256258
 21
285.85459332017103
  0
LINE
  8
_0-f_
  6
CONTINUOUS
 62
    7
 10
393.77845037593551
 20
285.85459332017103
 11
393.10022505617763
 21
285.85459332017103
  0
LINE
  8
_0-f_
  6
CONTINUOUS
 62
    7
 10
396.20404965256284
 20
285.93459332017107
 11
395.68404965256258
 21
285.93459332017107
  0
LINE
  8
_0-f_
  6
CONTINUOUS
 62
    7
 10
393.74579504155844
 20
285.93459332017107
 11
393.13346837897922
 21
285.93459332017107
  0
LINE
  8
_0-f_
  6
CONTINUOUS
 62
    7
 10
396.20404965256284
 20
286.014593320171
 11
395.68404965256258
 21
286.014593320171
  0
LINE
  8
_0-f_
  6
CONTINUOUS
 62
    7
 10
393.71313970718137
 20
286.014593320171
 11
393.16671170178074
 21
286.014593320171
  0
LINE
  8
_0-f_
  6
CONTINUOUS
 62
    7
 10
397.2240416525629
 20
286.09459332017104
 11
394.72003365256268
 21
286.09459332017104
  0
LINE
  8
_0-f_
  6
CONTINUOUS
 62
    7
 10
394.36803365256236
 20
286.09459332017104
 11
392.50404965256291
 21
286.09459332017104
  0
LINE
  8
_0-f_
  6
CONTINUOUS
 62
    7
 10
397.2240416525629
 20
286.17459332017103
 11
394.72003365256268
 21
286.17459332017103
  0
LINE
  8
_0-f_
  6
CONTINUOUS
 62
    7
 10
394.36803365256236
 20
286.17459332017103
 11
392.50404965256291
 21
286.17459332017103
  0
LINE
  8
_0-f_
  6
CONTINUOUS
 62
    7
 10
397.2240416525629
 20
286.25459332017101
 11
394.72003365256268
 21
286.25459332017101
  0
LINE
  8
_0-f_
  6
CONTINUOUS
 62
    7
 10
394.36803365256236
 20
286.25459332017101
 11
392.50404965256291
 21
286.25459332017101
  0
LINE
  8
_0-f_
  6
CONTINUOUS
 62
    7
 10
397.2240416525629
 20
286.33459332017105
 11
394.72003365256268
 21
286.33459332017105
  0
LINE
  8
_0-f_
  6
CONTINUOUS
 62
    7
 10
394.36803365256236
 20
286.33459332017105
 11
392.50404965256291
 21
286.33459332017105
  0
LINE
  8
_0-f_
  6
CONTINUOUS
 62
    7
 10
397.2240416525629
 20
286.41459332017098
 11
394.72003365256268
 21
286.41459332017098
  0
LINE
  8
_0-f_
  6
CONTINUOUS
 62
    7
 10
394.36803365256236
 20
286.41459332017098
 11
392.50404965256291
 21
286.41459332017098
  0
LINE
  8
_0-f_
  6
CONTINUOUS
 62
    7
 10
397.2240416525629
 20
286.49459332017102
 11
394.72003365256268
 21
286.49459332017102
  0
LINE
  8
_0-f_
  6
CONTINUOUS
 62
    7
 10
394.36803365256236
 20
286.49459332017102
 11
392.50404965256291
 21
286.49459332017102
  0
LINE
  8
_0-f_
  6
CONTINUOUS
 62
    7
 10
396.20404965256245
 20
286.574593320171
 11
395.68404965256258
 21
286.57459332017106
  0
LINE
  8
_0-f_
  6
CONTINUOUS
 62
    7
 10
395.22003365256256
 20
286.57459332017106
 11
394.72003365256268
 21
286.57459332017106
  0
LINE
  8
_0-f_
  6
CONTINUOUS
 62
    7
 10
393.7000416525629
 20
286.57459332017106
 11
393.18002565256279
 21
286.57459332017106
  0
LINE
  8
_0-f_
  6
CONTINUOUS
 62
    7
 10
396.20404965256245
 20
286.65459332017099
 11
395.68404965256258
 21
286.65459332017099
  0
LINE
  8
_0-f_
  6
CONTINUOUS
 62
    7
 10
395.22003365256256
 20
286.65459332017099
 11
394.72003365256268
 21
286.65459332017099
  0
LINE
  8
_0-f_
  6
CONTINUOUS
 62
    7
 10
393.7000416525629
 20
286.65459332017099
 11
393.18002565256279
 21
286.65459332017099
  0
LINE
  8
_0-f_
  6
CONTINUOUS
 62
    7
 10
396.20404965256245
 20
286.73459332017103
 11
395.68404965256258
 21
286.73459332017103
  0
LINE
  8
_0-f_
  6
CONTINUOUS
 62
    7
 10
395.22003365256256
 20
286.73459332017103
 11
394.72003365256268
 21
286.73459332017103
  0
LINE
  8
_0-f_
  6
CONTINUOUS
 62
    7
 10
393.7000416525629
 20
286.73459332017103
 11
393.18002565256279
 21
286.73459332017103
  0
LINE
  8
_0-f_
  6
CONTINUOUS
 62
    7
 10
396.20404965256245
 20
286.81459332017107
 11
395.68404965256258
 21
286.81459332017107
  0
LINE
  8
_0-f_
  6
CONTINUOUS
 62
    7
 10
395.22003365256256
 20
286.81459332017107
 11
394.72003365256268
 21
286.81459332017107
  0
LINE
  8
_0-f_
  6
CONTINUOUS
 62
    7
 10
393.7000416525629
 20
286.81459332017107
 11
393.18002565256279
 21
286.81459332017107
  0
LINE
  8
_0-f_
  6
CONTINUOUS
 62
    7
 10
396.20404965256245
 20
286.89459332017105
 11
395.68404965256258
 21
286.89459332017105
  0
LINE
  8
_0-f_
  6
CONTINUOUS
 62
    7
 10
395.22003365256256
 20
286.89459332017105
 11
394.72003365256268
 21
286.89459332017105
  0
LINE
  8
_0-f_
  6
CONTINUOUS
 62
    7
 10
393.7000416525629
 20
286.89459332017105
 11
393.18002565256279
 21
286.89459332017105
  0
LINE
  8
_0-f_
  6
CONTINUOUS
 62
    7
 10
396.20404965256245
 20
286.97459332017104
 11
395.68404965256258
 21
286.97459332017104
  0
LINE
  8
_0-f_
  6
CONTINUOUS
 62
    7
 10
395.22003365256256
 20
286.97459332017104
 11
394.72003365256268
 21
286.97459332017104
  0
LINE
  8
_0-f_
  6
CONTINUOUS
 62
    7
 10
393.7000416525629
 20
286.97459332017104
 11
393.18002565256279
 21
286.97459332017104
  0
LINE
  8
_0-f_
  6
CONTINUOUS
 62
    7
 10
396.20404965256245
 20
287.05459332017108
 11
395.68404965256258
 21
287.05459332017108
  0
LINE
  8
_0-f_
  6
CONTINUOUS
 62
    7
 10
395.22003365256256
 20
287.05459332017108
 11
394.72003365256268
 21
287.05459332017108
  0
LINE
  8
_0-f_
  6
CONTINUOUS
 62
    7
 10
393.7000416525629
 20
287.05459332017108
 11
393.18002565256279
 21
287.05459332017108
  0
LINE
  8
_0-f_
  6
CONTINUOUS
 62
    7
 10
396.20404965256245
 20
287.13459332017101
 11
395.68404965256258
 21
287.13459332017101
  0
LINE
  8
_0-f_
  6
CONTINUOUS
 62
    7
 10
395.22003365256256
 20
287.13459332017101
 11
394.72003365256268
 21
287.13459332017101
  0
LINE
  8
_0-f_
  6
CONTINUOUS
 62
    7
 10
393.7000416525629
 20
287.13459332017101
 11
393.18002565256279
 21
287.13459332017101
  0
LINE
  8
_0-f_
  6
CONTINUOUS
 62
    7
 10
397.22404165256273
 20
285.05459332017102
 11
394.72003365256234
 21
285.05459332017102
  0
LINE
  8
_0-f_
  6
CONTINUOUS
 62
    7
 10
394.10500371970642
 20
285.05459332017102
 11
392.76779182816182
 21
285.05459332017102
  0
LINE
  8
_0-f_
  6
CONTINUOUS
 62
    7
 10
397.22404165256273
 20
284.97459332017104
 11
394.72003365256234
 21
284.97459332017104
  0
LINE
  8
_0-f_
  6
CONTINUOUS
 62
    7
 10
394.13765905408349
 20
284.97459332017104
 11
392.73454850536024
 21
284.97459332017104
  0
LINE
  8
_0-f_
  6
CONTINUOUS
 62
    7
 10
396.5153842686405
 20
284.894593320171
 11
395.3729504606664
 21
284.894593320171
  0
LINE
  8
_0-f_
  6
CONTINUOUS
 62
    7
 10
394.17031438846055
 20
284.894593320171
 11
393.7194150796513
 21
284.894593320171
  0
LINE
  8
_0-f_
  6
CONTINUOUS
 62
    7
 10
393.70004165256285
 20
284.894593320171
 11
393.18002565256273
 21
284.894593320171
  0
LINE
  8
_0-f_
  6
CONTINUOUS
 62
    7
 10
393.16175996423368
 20
284.894593320171
 11
392.70130518255866
 21
284.894593320171
  0
LINE
  8
_0-f_
  6
CONTINUOUS
 62
    7
 10
396.54884593598973
 20
284.81459332017096
 11
395.33997981273609
 21
284.81459332017096
  0
LINE
  8
_0-f_
  6
CONTINUOUS
 62
    7
 10
394.20296972283774
 20
284.81459332017096
 11
393.74992441364913
 21
284.81459332017096
  0
LINE
  8
_0-f_
  6
CONTINUOUS
 62
    7
 10
393.70004165256285
 20
284.81459332017096
 11
393.18002565256273
 21
284.81459332017096
  0
LINE
  8
_0-f_
  6
CONTINUOUS
 62
    7
 10
393.12963599601511
 20
284.81459332017096
 11
392.66806185975707
 21
284.81459332017096
  0
LINE
  8
_0-f_
  6
CONTINUOUS
 62
    7
 10
396.58230760333907
 20
284.73459332017103
 11
395.30700916480572
 21
284.73459332017103
  0
LINE
  8
_0-f_
  6
CONTINUOUS
 62
    7
 10
394.2356250572148
 20
284.73459332017103
 11
393.78043374764701
 21
284.73459332017103
  0
LINE
  8
_0-f_
  6
CONTINUOUS
 62
    7
 10
393.70004165256285
 20
284.73459332017103
 11
393.18002565256273
 21
284.73459332017103
  0
LINE
  8
_0-f_
  6
CONTINUOUS
 62
    7
 10
393.09751202779654
 20
284.73459332017103
 11
392.63481853695549
 21
284.73459332017103
  0
LINE
  8
_0-f_
  6
CONTINUOUS
 62
    7
 10
396.6157692706883
 20
284.65459332017099
 11
395.27403851687535
 21
284.65459332017099
  0
LINE
  8
_0-f_
  6
CONTINUOUS
 62
    7
 10
394.26828039159187
 20
284.65459332017099
 11
393.81094308164484
 21
284.65459332017099
  0
LINE
  8
_0-f_
  6
CONTINUOUS
 62
    7
 10
393.70004165256285
 20
284.65459332017099
 11
393.18002565256273
 21
284.65459332017099
  0
LINE
  8
_0-f_
  6
CONTINUOUS
 62
    7
 10
393.06538805957797
 20
284.65459332017099
 11
392.60157521415397
 21
284.65459332017099
  0
LINE
  8
_0-f_
  6
CONTINUOUS
 62
    7
 10
396.64923093803765
 20
284.57459332017106
 11
395.24106786894509
 21
284.57459332017095
  0
LINE
  8
_0-f_
  6
CONTINUOUS
 62
    7
 10
394.30093572596894
 20
284.57459332017095
 11
393.84145241564266
 21
284.57459332017095
  0
LINE
  8
_0-f_
  6
CONTINUOUS
 62
    7
 10
393.70004165256285
 20
284.57459332017095
 11
393.18002565256273
 21
284.57459332017095
  0
LINE
  8
_0-f_
  6
CONTINUOUS
 62
    7
 10
393.0332640913594
 20
284.57459332017106
 11
392.56833189135239
 21
284.57459332017095
  0
LINE
  8
_0-f_
  6
CONTINUOUS
 62
    7
 10
396.68269260538688
 20
284.49459332017102
 11
395.20809722101473
 21
284.49459332017102
  0
LINE
  8
_0-f_
  6
CONTINUOUS
 62
    7
 10
394.44804165256272
 20
284.49459332017102
 11
393.87196174964049
 21
284.49459332017102
  0
LINE
  8
_0-f_
  6
CONTINUOUS
 62
    7
 10
393.70004165256285
 20
284.49459332017102
 11
393.18002565256273
 21
284.49459332017102
  0
LINE
  8
_0-f_
  6
CONTINUOUS
 62
    7
 10
393.00114012314083
 20
284.49459332017102
 11
392.53508856855075
 21
284.49459332017102
  0
LINE
  8
_0-f_
  6
CONTINUOUS
 62
    7
 10
396.71615427273622
 20
284.41459332017098
 11
396.21040515160541
 21
284.41459332017098
  0
LINE
  8
_0-f_
  6
CONTINUOUS
 62
    7
 10
396.20404965256267
 20
284.41459332017098
 11
395.68404965256292
 21
284.41459332017098
  0
LINE
  8
_0-f_
  6
CONTINUOUS
 62
    7
 10
395.67782960895119
 20
284.41459332017098
 11
395.17512657308436
 21
284.41459332017098
  0
LINE
  8
_0-f_
  6
CONTINUOUS
 62
    7
 10
394.44804165256272
 20
284.41459332017098
 11
393.90247108363832
 21
284.41459332017098
  0
LINE
  8
_0-f_
  6
CONTINUOUS
 62
    7
 10
393.70004165256285
 20
284.41459332017098
 11
393.18002565256273
 21
284.41459332017098
  0
LINE
  8
_0-f_
  6
CONTINUOUS
 62
    7
 10
392.96901615492231
 20
284.41459332017098
 11
392.50184524574922
 21
284.41459332017098
  0
LINE
  8
_0-f_
  6
CONTINUOUS
 62
    7
 10
396.74961594008545
 20
284.334593320171
 11
396.24472210107996
 21
284.334593320171
  0
LINE
  8
_0-f_
  6
CONTINUOUS
 62
    7
 10
396.20404965256267
 20
284.334593320171
 11
395.68404965256292
 21
284.334593320171
  0
LINE
  8
_0-f_
  6
CONTINUOUS
 62
    7
 10
395.64409835292241
 20
284.334593320171
 11
395.14215592515399
 21
284.334593320171
  0
LINE
  8
_0-f_
  6
CONTINUOUS
 62
    7
 10
394.44804165256272
 20
284.334593320171
 11
393.9329804176362
 21
284.334593320171
  0
LINE
  8
_0-f_
  6
CONTINUOUS
 62
    7
 10
393.70004165256285
 20
284.334593320171
 11
393.18002565256273
 21
284.334593320171
  0
LINE
  8
_0-f_
  6
CONTINUOUS
 62
    7
 10
392.93689218670369
 20
284.334593320171
 11
392.42404165256283
 21
284.334593320171
  0
LINE
  8
_0-f_
  6
CONTINUOUS
 62
    7
 10
396.78307760743479
 20
284.25459332017101
 11
396.27903905055456
 21
284.25459332017101
  0
LINE
  8
_0-f_
  6
CONTINUOUS
 62
    7
 10
396.20404965256267
 20
284.25459332017101
 11
395.68404965256292
 21
284.25459332017101
  0
LINE
  8
_0-f_
  6
CONTINUOUS
 62
    7
 10
395.61036709689364
 20
284.25459332017101
 11
395.10918527722367
 21
284.25459332017101
  0
LINE
  8
_0-f_
  6
CONTINUOUS
 62
    7
 10
394.44804165256272
 20
284.25459332017101
 11
393.96348975163409
 21
284.25459332017101
  0
LINE
  8
_0-f_
  6
CONTINUOUS
 62
    7
 10
393.70004165256285
 20
284.25459332017101
 11
393.18002565256273
 21
284.25459332017101
  0
LINE
  8
_0-f_
  6
CONTINUOUS
 62
    7
 10
392.90476821848523
 20
284.25459332017101
 11
392.42404165256283
 21
284.25459332017101
  0
LINE
  8
_0-f_
  6
CONTINUOUS
 62
    7
 10
396.81653927478408
 20
284.17459332017097
 11
396.31335600002916
 21
284.17459332017097
  0
LINE
  8
_0-f_
  6
CONTINUOUS
 62
    7
 10
396.20404965256267
 20
284.17459332017097
 11
395.68404965256292
 21
284.17459332017097
  0
LINE
  8
_0-f_
  6
CONTINUOUS
 62
    7
 10
395.57663584086492
 20
284.17459332017097
 11
395.07621462929336
 21
284.17459332017097
  0
LINE
  8
_0-f_
  6
CONTINUOUS
 62
    7
 10
394.44804165256272
 20
284.17459332017097
 11
394.00072090918201
 21
284.17459332017097
  0
LINE
  8
_0-f_
  6
CONTINUOUS
 62
    7
 10
393.70004165256285
 20
284.17459332017097
 11
393.18002565256273
 21
284.17459332017097
  0
LINE
  8
_0-f_
  6
CONTINUOUS
 62
    7
 10
392.87264425026666
 20
284.17459332017097
 11
392.42404165256283
 21
284.17459332017097
  0
LINE
  8
_0-f_
  6
CONTINUOUS
 62
    7
 10
396.85000094213336
 20
284.09459332017104
 11
396.3476729495037
 21
284.09459332017104
  0
LINE
  8
_0-f_
  6
CONTINUOUS
 62
    7
 10
396.20404965256267
 20
284.09459332017104
 11
395.68404965256292
 21
284.09459332017104
  0
LINE
  8
_0-f_
  6
CONTINUOUS
 62
    7
 10
395.54290458483615
 20
284.09459332017104
 11
395.04324398136305
 21
284.09459332017104
  0
LINE
  8
_0-f_
  6
CONTINUOUS
 62
    7
 10
394.44804165256272
 20
284.09459332017104
 11
394.11298340543021
 21
284.09459332017104
  0
LINE
  8
_0-f_
  6
CONTINUOUS
 62
    7
 10
393.70004165256285
 20
284.09459332017104
 11
393.18002565256273
 21
284.09459332017104
  0
LINE
  8
_0-f_
  6
CONTINUOUS
 62
    7
 10
392.84052028204809
 20
284.09459332017104
 11
392.42404165256283
 21
284.09459332017104
  0
LINE
  8
_0-f_
  6
CONTINUOUS
 62
    7
 10
396.88346260948265
 20
284.014593320171
 11
396.38198989897825
 21
284.014593320171
  0
LINE
  8
_0-f_
  6
CONTINUOUS
 62
    7
 10
396.20404965256267
 20
284.014593320171
 11
395.68404965256292
 21
284.014593320171
  0
LINE
  8
_0-f_
  6
CONTINUOUS
 62
    7
 10
395.50917332880738
 20
284.014593320171
 11
395.01027333343274
 21
284.014593320171
  0
LINE
  8
_0-f_
  6
CONTINUOUS
 62
    7
 10
393.70004165256285
 20
284.014593320171
 11
393.18002565256273
 21
284.014593320171
  0
LINE
  8
_0-f_
  6
CONTINUOUS
 62
    7
 10
392.80839631382952
 20
284.014593320171
 11
392.42404165256283
 21
284.014593320171
  0
LINE
  8
_0-f_
  6
CONTINUOUS
 62
    7
 10
396.91692427683194
 20
283.93459332017102
 11
396.41630684845285
 21
283.93459332017102
  0
LINE
  8
_0-f_
  6
CONTINUOUS
 62
    7
 10
396.20404965256267
 20
283.93459332017102
 11
395.68404965256292
 21
283.93459332017102
  0
LINE
  8
_0-f_
  6
CONTINUOUS
 62
    7
 10
395.47544207277861
 20
283.93459332017102
 11
394.97730268550237
 21
283.93459332017102
  0
LINE
  8
_0-f_
  6
CONTINUOUS
 62
    7
 10
393.70004165256285
 20
283.93459332017102
 11
393.18002565256273
 21
283.93459332017102
  0
LINE
  8
_0-f_
  6
CONTINUOUS
 62
    7
 10
392.74995907841486
 20
283.93459332017102
 11
392.42404165256283
 21
283.93459332017102
  0
LINE
  8
_0-f_
  6
CONTINUOUS
 62
    7
 10
396.95038594418122
 20
283.85459332017103
 11
396.45062379792745
 21
283.85459332017103
  0
LINE
  8
_0-f_
  6
CONTINUOUS
 62
    7
 10
396.20404965256267
 20
283.85459332017103
 11
395.68404965256292
 21
283.85459332017103
  0
LINE
  8
_0-f_
  6
CONTINUOUS
 62
    7
 10
395.44171081674983
 20
283.85459332017103
 11
394.94433203757205
 21
283.85459332017103
  0
LINE
  8
_0-f_
  6
CONTINUOUS
 62
    7
 10
393.70004165256285
 20
283.85459332017103
 11
393.18002565256273
 21
283.85459332017103
  0
LINE
  8
_0-f_
  6
CONTINUOUS
 62
    7
 10
396.98384761153056
 20
283.77459332017099
 11
396.48494074740205
 21
283.77459332017099
  0
LINE
  8
_0-f_
  6
CONTINUOUS
 62
    7
 10
396.20404965256267
 20
283.77459332017099
 11
395.68404965256292
 21
283.77459332017099
  0
LINE
  8
_0-f_
  6
CONTINUOUS
 62
    7
 10
395.40797956072112
 20
283.77459332017099
 11
394.91136138964174
 21
283.77459332017099
  0
LINE
  8
_0-f_
  6
CONTINUOUS
 62
    7
 10
393.70004165256285
 20
283.77459332017099
 11
393.18002565256273
 21
283.77459332017099
  0
LINE
  8
_0-f_
  6
CONTINUOUS
 62
    7
 10
397.01730927887985
 20
283.69459332017095
 11
396.51925769687659
 21
283.69459332017095
  0
LINE
  8
_0-f_
  6
CONTINUOUS
 62
    7
 10
396.20404965256267
 20
283.69459332017095
 11
395.68404965256292
 21
283.69459332017095
  0
LINE
  8
_0-f_
  6
CONTINUOUS
 62
    7
 10
395.37424830469234
 20
283.69459332017095
 11
394.87839074171137
 21
283.69459332017095
  0
LINE
  8
_0-f_
  6
CONTINUOUS
 62
    7
 10
393.70004165256285
 20
283.69459332017095
 11
393.18002565256273
 21
283.69459332017095
  0
LINE
  8
_0-f_
  6
CONTINUOUS
 62
    7
 10
397.05816883672327
 20
283.61459332017102
 11
396.55357464635114
 21
283.61459332017097
  0
LINE
  8
_0-f_
  6
CONTINUOUS
 62
    7
 10
396.20404965256267
 20
283.61459332017097
 11
395.68404965256292
 21
283.61459332017097
  0
LINE
  8
_0-f_
  6
CONTINUOUS
 62
    7
 10
395.34051704866357
 20
283.61459332017097
 11
394.83759619734224
 21
283.61459332017097
  0
LINE
  8
_0-f_
  6
CONTINUOUS
 62
    7
 10
393.70004165256285
 20
283.61459332017097
 11
393.18002565256273
 21
283.61459332017097
  0
LINE
  8
_0-f_
  6
CONTINUOUS
 62
    7
 10
397.22404165256222
 20
283.53459332017098
 11
396.58789159582574
 21
283.53459332017098
  0
LINE
  8
_0-f_
  6
CONTINUOUS
 62
    7
 10
396.20404965256267
 20
283.53459332017098
 11
395.68404965256292
 21
283.53459332017098
  0
LINE
  8
_0-f_
  6
CONTINUOUS
 62
    7
 10
395.3067857926348
 20
283.53459332017098
 11
394.68805765256315
 21
283.53459332017098
  0
LINE
  8
_0-f_
  6
CONTINUOUS
 62
    7
 10
393.70004165256285
 20
283.53459332017098
 11
393.18002565256273
 21
283.53459332017098
  0
LINE
  8
_0-f_
  6
CONTINUOUS
 62
    7
 10
397.22404165256222
 20
283.45459332017094
 11
396.62220854530034
 21
283.45459332017094
  0
LINE
  8
_0-f_
  6
CONTINUOUS
 62
    7
 10
396.20404965256267
 20
283.45459332017094
 11
395.68404965256292
 21
283.45459332017094
  0
LINE
  8
_0-f_
  6
CONTINUOUS
 62
    7
 10
395.27305453660603
 20
283.45459332017094
 11
394.68805765256315
 21
283.45459332017094
  0
LINE
  8
_0-f_
  6
CONTINUOUS
 62
    7
 10
393.70004165256285
 20
283.45459332017094
 11
393.18002565256273
 21
283.45459332017094
  0
LINE
  8
_0-f_
  6
CONTINUOUS
 62
    7
 10
397.22404165256222
 20
283.37459332017102
 11
396.65652549477494
 21
283.37459332017102
  0
LINE
  8
_0-f_
  6
CONTINUOUS
 62
    7
 10
396.20404965256267
 20
283.37459332017102
 11
395.68404965256292
 21
283.37459332017102
  0
LINE
  8
_0-f_
  6
CONTINUOUS
 62
    7
 10
395.23932328057725
 20
283.37459332017102
 11
394.68805765256315
 21
283.37459332017102
  0
LINE
  8
_0-f_
  6
CONTINUOUS
 62
    7
 10
393.70004165256285
 20
283.37459332017102
 11
393.18002565256273
 21
283.37459332017102
  0
LINE
  8
_0-f_
  6
CONTINUOUS
 62
    7
 10
397.22404165256222
 20
283.29459332017097
 11
396.69329139038786
 21
283.29459332017097
  0
LINE
  8
_0-f_
  6
CONTINUOUS
 62
    7
 10
396.20404965256267
 20
283.29459332017097
 11
395.68404965256292
 21
283.29459332017097
  0
LINE
  8
_0-f_
  6
CONTINUOUS
 62
    7
 10
395.20280197317123
 20
283.29459332017097
 11
394.68805765256315
 21
283.29459332017097
  0
LINE
  8
_0-f_
  6
CONTINUOUS
 62
    7
 10
393.70004165256285
 20
283.29459332017097
 11
393.18002565256273
 21
283.29459332017097
  0
LINE
  8
_0-f_
  6
CONTINUOUS
 62
    7
 10
397.22404165256222
 20
283.21459332017099
 11
396.76894471611439
 21
283.21459332017099
  0
LINE
  8
_0-f_
  6
CONTINUOUS
 62
    7
 10
396.20404965256267
 20
283.21459332017099
 11
395.68404965256292
 21
283.21459332017099
  0
LINE
  8
_0-f_
  6
CONTINUOUS
 62
    7
 10
395.12727173382035
 20
283.21459332017099
 11
394.68805765256315
 21
283.21459332017099
  0
LINE
  8
_0-f_
  6
CONTINUOUS
 62
    7
 10
393.70004165256285
 20
283.21459332017099
 11
393.18002565256273
 21
283.21459332017099
  0
LINE
  8
_0-f_
  6
CONTINUOUS
 62
    7
 10
394.72003365256268
 20
287.17463332017104
 11
395.22003365256268
 21
287.17463332017104
  0
LINE
  8
_0-f_
  6
CONTINUOUS
 62
    7
 10
395.68404965256281
 20
286.054713320171
 11
394.72003365256268
 21
286.054713320171
  0
LINE
  8
_0-f_
  6
CONTINUOUS
 62
    7
 10
395.68404965256281
 20
285.38283332017102
 11
394.72003365256268
 21
285.38283332017102
  0
LINE
  8
_0-f_
  6
CONTINUOUS
 62
    7
 10
394.72003365256268
 20
284.94279332017106
 11
395.39281527604442
 21
284.94279332017106
  0
LINE
  8
_0-f_
  6
CONTINUOUS
 62
    7
 10
395.39281527604442
 20
284.94279332017106
 11
394.85954598821593
 21
283.64886839893734
  0
ARC
  8
_0-f_
  6
CONTINUOUS
 62
    7
 10
394.99572743600964
 20
283.41459332017098
 40
0.2399999999999999
 50
270
 51
337.13773188217988
  0
LINE
  8
_0-f_
  6
CONTINUOUS
 62
    7
 10
393.18338322816572
 20
286.054713320171
 11
392.50280498353737
 21
284.41690292753231
  0
LINE
  8
_0-f_
  6
CONTINUOUS
 62
    7
 10
393.6967630569913
 20
286.054713320171
 11
394.28347555701242
 21
284.61736775635961
  0
LINE
  8
_0-f_
  6
CONTINUOUS
 62
    7
 10
393.18002565256273
 20
284.94008132017098
 11
392.80783173502397
 21
284.0131873200113
  0
LINE
  8
_0-f_
  6
CONTINUOUS
 62
    7
 10
392.42404165256272
 20
284.36760132017105
 11
392.42404165256272
 21
283.88771332017103
  0
LINE
  8
_0-f_
  6
CONTINUOUS
 62
    7
 10
392.42404165256272
 20
283.88771332017103
 11
392.62223573479713
 21
283.88771332017103
  0
ARC
  8
_0-f_
  6
CONTINUOUS
 62
    7
 10
392.62223573479713
 20
284.08771332017102
 40
0.2
 50
270
 51
338.12209204226036
  0
LINE
  8
_0-f_
  6
CONTINUOUS
 62
    7
 10
392.42892935366251
 20
284.36760132017105
 11
392.42404165256272
 21
284.36760132017105
  0
ARC
  8
_0-f_
  6
CONTINUOUS
 62
    7
 10
392.42892935366251
 20
284.44760132017097
 40
0.08
 50
270
 51
337.43508599410586
  0
ARC
  8
_0-f_
  6
CONTINUOUS
 62
    7
 10
394.16490939922761
 20
284.28771332017101
 40
0.2
 50
200.8751841896235
 51
270
  0
LINE
  8
_0-f_
  6
CONTINUOUS
 62
    7
 10
393.18002565256273
 20
283.17459332017103
 11
393.18002565256273
 21
284.94008132017098
  0
LINE
  8
_0-f_
  6
CONTINUOUS
 62
    7
 10
393.70004165256279
 20
283.17459332017103
 11
393.70004165256279
 21
284.94539332017098
  0
LINE
  8
_0-f_
  6
CONTINUOUS
 62
    7
 10
393.18002565256273
 20
283.17459332017103
 11
393.70004165256279
 21
283.17459332017103
  0
LINE
  8
_0-f_
  6
CONTINUOUS
 62
    7
 10
393.70004165256279
 20
284.94539332017098
 11
393.97803761998813
 21
284.21644665107613
  0
LINE
  8
_0-f_
  6
CONTINUOUS
 62
    7
 10
394.44804165256272
 20
284.08771332017102
 11
394.44804165256272
 21
284.56760132017104
  0
LINE
  8
_0-f_
  6
CONTINUOUS
 62
    7
 10
394.44804165256272
 20
284.08771332017102
 11
394.16490939922761
 21
284.08771332017102
  0
ARC
  8
_0-f_
  6
CONTINUOUS
 62
    7
 10
394.74859901178945
 20
283.69459332017107
 40
0.12
 50
270
 51
337.60181985621841
  0
LINE
  8
_0-f_
  6
CONTINUOUS
 62
    7
 10
394.6880576525628
 20
283.574593320171
 11
394.74859901178945
 21
283.574593320171
  0
LINE
  8
_0-f_
  6
CONTINUOUS
 62
    7
 10
394.6880576525628
 20
283.574593320171
 11
394.6880576525628
 21
283.17459332017103
  0
LINE
  8
_0-f_
  6
CONTINUOUS
 62
    7
 10
394.6880576525628
 20
283.17459332017103
 11
394.99572743600964
 21
283.17459332017103
  0
LINE
  8
_0-f_
  6
CONTINUOUS
 62
    7
 10
394.44804165256272
 20
284.56760132017104
 11
394.35754263214886
 21
284.56760132017104
  0
ARC
  8
_0-f_
  6
CONTINUOUS
 62
    7
 10
394.35754263214886
 20
284.64760132017102
 40
0.08
 50
202.2048740517549
 51
270
  0
LINE
  8
_0-f_
  6
CONTINUOUS
 62
    7
 10
394.72003365256268
 20
284.94279332017106
 11
394.72003365256268
 21
285.38283332017102
  0
LINE
  8
_0-f_
  6
CONTINUOUS
 62
    7
 10
392.50404965256274
 20
286.49475332017101
 11
393.18002565256273
 21
286.49475332017101
  0
LINE
  8
_0-f_
  6
CONTINUOUS
 62
    7
 10
392.50404965256274
 20
286.054713320171
 11
393.18338322816572
 21
286.054713320171
  0
LINE
  8
_0-f_
  6
CONTINUOUS
 62
    7
 10
392.50404965256274
 20
286.49475332017101
 11
392.50404965256274
 21
286.054713320171
  0
LINE
  8
_0-f_
  6
CONTINUOUS
 62
    7
 10
393.6967630569913
 20
286.054713320171
 11
394.3680336525627
 21
286.054713320171
  0
LINE
  8
_0-f_
  6
CONTINUOUS
 62
    7
 10
393.70004165256279
 20
286.49475332017101
 11
394.3680336525627
 21
286.49475332017101
  0
LINE
  8
_0-f_
  6
CONTINUOUS
 62
    7
 10
393.70004165256279
 20
286.49475332017101
 11
393.70004165256279
 21
287.17463332017104
  0
LINE
  8
_0-f_
  6
CONTINUOUS
 62
    7
 10
393.18002565256273
 20
286.49475332017101
 11
393.18002565256273
 21
287.17463332017104
  0
LINE
  8
_0-f_
  6
CONTINUOUS
 62
    7
 10
393.18002565256273
 20
286.04670532017099
 11
393.18002565256273
 21
286.054713320171
  0
LINE
  8
_0-f_
  6
CONTINUOUS
 62
    7
 10
393.70004165256279
 20
286.04670532017099
 11
393.70004165256279
 21
286.054713320171
  0
LINE
  8
_0-f_
  6
CONTINUOUS
 62
    7
 10
393.18002565256273
 20
287.17463332017104
 11
393.70004165256279
 21
287.17463332017104
  0
LINE
  8
_0-f_
  6
CONTINUOUS
 62
    7
 10
394.72003365256268
 20
286.054713320171
 11
394.72003365256268
 21
287.17463332017104
  0
LINE
  8
_0-f_
  6
CONTINUOUS
 62
    7
 10
394.3680336525627
 20
286.054713320171
 11
394.3680336525627
 21
286.49475332017101
  0
LINE
  8
_0-f_
  6
CONTINUOUS
 62
    7
 10
396.20404965256279
 20
286.054713320171
 11
396.20404965256279
 21
285.38283332017102
  0
LINE
  8
_0-f_
  6
CONTINUOUS
 62
    7
 10
395.68404965256281
 20
286.054713320171
 11
395.68404965256281
 21
285.38283332017102
  0
LINE
  8
_0-f_
  6
CONTINUOUS
 62
    7
 10
397.22404165256279
 20
285.38283332017102
 11
396.20404965256279
 21
285.38283332017102
  0
LINE
  8
_0-f_
  6
CONTINUOUS
 62
    7
 10
396.20404965256279
 20
284.42940932017103
 11
396.67995255246774
 21
283.31997993978257
  0
LINE
  8
_0-f_
  6
CONTINUOUS
 62
    7
 10
395.68404965256281
 20
284.42934532017102
 11
395.2168733868063
 21
283.3213491865954
  0
LINE
  8
_0-f_
  6
CONTINUOUS
 62
    7
 10
395.68404965256281
 20
284.42934532017102
 11
395.68404965256281
 21
283.17459332017103
  0
LINE
  8
_0-f_
  6
CONTINUOUS
 62
    7
 10
396.20404965256279
 20
284.42940932017103
 11
396.20404965256279
 21
283.17459332017103
  0
LINE
  8
_0-f_
  6
CONTINUOUS
 62
    7
 10
395.68404965256281
 20
283.17459332017103
 11
396.20404965256279
 21
283.17459332017103
  0
LINE
  8
_0-f_
  6
CONTINUOUS
 62
    7
 10
396.49522361406252
 20
284.94279332017106
 11
397.03667736209189
 21
283.64828819613786
  0
ARC
  8
_0-f_
  6
CONTINUOUS
 62
    7
 10
396.90051616744421
 20
283.41459332017098
 40
0.2399999999999999
 50
203.21748710460054
 51
270
  0
LINE
  8
_0-f_
  6
CONTINUOUS
 62
    7
 10
397.22404165256279
 20
283.17459332017103
 11
396.90051616744421
 21
283.17459332017103
  0
LINE
  8
_0-f_
  6
CONTINUOUS
 62
    7
 10
397.22404165256279
 20
283.574593320171
 11
397.22404165256279
 21
283.17459332017103
  0
LINE
  8
_0-f_
  6
CONTINUOUS
 62
    7
 10
397.22404165256279
 20
283.574593320171
 11
397.14738343910795
 21
283.574593320171
  0
ARC
  8
_0-f_
  6
CONTINUOUS
 62
    7
 10
397.14738343910795
 20
283.69459332017107
 40
0.12
 50
202.6981362709997
 51
270
  0
LINE
  8
_0-f_
  6
CONTINUOUS
 62
    7
 10
396.49522361406252
 20
284.94279332017106
 11
397.22404165256279
 21
284.94279332017106
  0
LINE
  8
_0-f_
  6
CONTINUOUS
 62
    7
 10
397.22404165256279
 20
285.38283332017102
 11
397.22404165256279
 21
284.94279332017106
  0
LINE
  8
_0-f_
  6
CONTINUOUS
 62
    7
 10
397.22404165256279
 20
286.054713320171
 11
396.20404965256279
 21
286.054713320171
  0
LINE
  8
_0-f_
  6
CONTINUOUS
 62
    7
 10
397.22404165256279
 20
286.49475332017101
 11
396.20404965256279
 21
286.49475332017101
  0
LINE
  8
_0-f_
  6
CONTINUOUS
 62
    7
 10
396.20404965256279
 20
287.17463332017104
 11
396.20404965256279
 21
286.49475332017101
  0
LINE
  8
_0-f_
  6
CONTINUOUS
 62
    7
 10
395.68404965256281
 20
287.17463332017104
 11
395.68404965256281
 21
286.49475332017101
  0
LINE
  8
_0-f_
  6
CONTINUOUS
 62
    7
 10
395.22003365256268
 20
286.49475332017101
 11
395.22003365256268
 21
287.17463332017104
  0
LINE
  8
_0-f_
  6
CONTINUOUS
 62
    7
 10
395.68404965256281
 20
286.49475332017101
 11
395.22003365256268
 21
286.49475332017101
  0
LINE
  8
_0-f_
  6
CONTINUOUS
 62
    7
 10
395.68404965256281
 20
287.17463332017104
 11
396.20404965256279
 21
287.17463332017104
  0
LINE
  8
_0-f_
  6
CONTINUOUS
 62
    7
 10
397.22404165256279
 20
286.49475332017101
 11
397.22404165256279
 21
286.054713320171
  0
LINE
  8
_0-f_
  6
CONTINUOUS
 62
    7
 10
400.39861989611109
 20
284.94279332017106
 11
400.39861989611109
 21
285.38283332017102
  0
LINE
  8
_0-f_
  6
CONTINUOUS
 62
    7
 10
400.39861989611109
 20
285.38283332017102
 11
397.99861989611117
 21
285.38283332017102
  0
LINE
  8
_0-f_
  6
CONTINUOUS
 62
    7
 10
397.99861989611117
 20
285.38283332017102
 11
397.99861989611117
 21
284.94279332017106
  0
LINE
  8
_0-f_
  6
CONTINUOUS
 62
    7
 10
397.99861989611117
 20
284.94279332017106
 11
398.75862789611119
 21
284.94279332017106
  0
LINE
  8
_0-f_
  6
CONTINUOUS
 62
    7
 10
398.75862789611119
 20
284.94279332017106
 11
398.75862789611119
 21
283.61467332017105
  0
LINE
  8
_0-f_
  6
CONTINUOUS
 62
    7
 10
398.75862789611119
 20
283.61467332017105
 11
397.99861989611117
 21
283.61467332017105
  0
LINE
  8
_0-f_
  6
CONTINUOUS
 62
    7
 10
397.99861989611117
 20
283.61467332017105
 11
397.99861989611117
 21
283.17459332017103
  0
LINE
  8
_0-f_
  6
CONTINUOUS
 62
    7
 10
397.99861989611117
 20
283.17459332017103
 11
399.48582789611118
 21
283.17459332017103
  0
ARC
  8
_0-f_
  6
CONTINUOUS
 62
    7
 10
399.48582789611118
 20
283.97459332017104
 40
0.8000000000000078
 50
270
 51
285.45094822953388
  0
LINE
  8
_0-f_
  6
CONTINUOUS
 62
    7
 10
399.69895853599718
 20
283.20350621073283
 11
400.39861989611109
 21
283.40547332017104
  0
LINE
  8
_0-f_
  6
CONTINUOUS
 62
    7
 10
400.39861989611109
 20
283.40547332017104
 11
400.39861989611109
 21
283.84555332017101
  0
LINE
  8
_0-f_
  6
CONTINUOUS
 62
    7
 10
400.39861989611109
 20
283.84555332017101
 11
399.59864389611124
 21
283.61467332017105
  0
LINE
  8
_0-f_
  6
CONTINUOUS
 62
    7
 10
399.59864389611124
 20
283.61467332017105
 11
399.49861989611105
 21
283.61467332017105
  0
LINE
  8
_0-f_
  6
CONTINUOUS
 62
    7
 10
399.49861989611105
 20
283.61467332017105
 11
399.49861989611105
 21
284.94279332017106
  0
LINE
  8
_0-f_
  6
CONTINUOUS
 62
    7
 10
399.49861989611105
 20
284.94279332017106
 11
400.39861989611109
 21
284.94279332017106
  0
LINE
  8
_0-f_
  6
CONTINUOUS
 62
    7
 10
401.47258662967278
 20
286.49475332017101
 11
401.31614849725094
 21
287.17463332017104
  0
LINE
  8
_0-f_
  6
CONTINUOUS
 62
    7
 10
401.31614849725094
 20
287.17463332017104
 11
400.47743023744391
 21
287.17463332017104
  0
LINE
  8
_0-f_
  6
CONTINUOUS
 62
    7
 10
400.47743023744391
 20
287.17463332017104
 11
400.63548962621496
 21
286.49475332017101
  0
LINE
  8
_0-f_
  6
CONTINUOUS
 62
    7
 10
400.63548962621496
 20
286.49475332017101
 11
397.99861989611117
 21
286.49475332017101
  0
LINE
  8
_0-f_
  6
CONTINUOUS
 62
    7
 10
397.99861989611117
 20
286.49475332017101
 11
397.99861989611117
 21
286.054713320171
  0
LINE
  8
_0-f_
  6
CONTINUOUS
 62
    7
 10
397.99861989611117
 20
286.054713320171
 11
400.7377906991025
 21
286.054713320171
  0
LINE
  8
_0-f_
  6
CONTINUOUS
 62
    7
 10
400.7377906991025
 20
286.054713320171
 11
401.32104267596657
 21
283.54590092304954
  0
ARC
  8
_0-f_
  6
CONTINUOUS
 62
    7
 10
401.78857445329078
 20
283.65459332017099
 40
0.4800000000000017
 50
193.0877165037698
 51
270
  0
LINE
  8
_0-f_
  6
CONTINUOUS
 62
    7
 10
401.78857445329078
 20
283.17459332017103
 11
402.79861989611118
 21
283.17459332017103
  0
LINE
  8
_0-f_
  6
CONTINUOUS
 62
    7
 10
402.79861989611118
 20
283.17459332017103
 11
402.79861989611118
 21
283.61467332017105
  0
LINE
  8
_0-f_
  6
CONTINUOUS
 62
    7
 10
402.79861989611118
 20
283.61467332017105
 11
402.20203707515151
 21
283.61467332017105
  0
ARC
  8
_0-f_
  6
CONTINUOUS
 62
    7
 10
402.19864389611115
 20
283.69459332017107
 40
0.0799919999999998
 50
267.56884201629123
 51
272.43115798371281
  0
LINE
  8
_0-f_
  6
CONTINUOUS
 62
    7
 10
402.19525071707091
 20
283.61467332017105
 11
402.13528348268466
 21
283.61467332017105
  0
LINE
  8
_0-f_
  6
CONTINUOUS
 62
    7
 10
402.13528348268466
 20
283.61467332017105
 11
402.1226176361028
 21
283.66971907941604
  0
ARC
  8
_0-f_
  6
CONTINUOUS
 62
    7
 10
402.19864389611115
 20
283.69459332017107
 40
0.0799919999999998
 50
187.79901102615551
 51
198.1170401314526
  0
LINE
  8
_0-f_
  6
CONTINUOUS
 62
    7
 10
402.11939180748146
 20
283.68373852805769
 11
401.57383837379075
 21
286.054713320171
  0
LINE
  8
_0-f_
  6
CONTINUOUS
 62
    7
 10
401.57383837379075
 20
286.054713320171
 11
402.79861989611118
 21
286.054713320171
  0
LINE
  8
_0-f_
  6
CONTINUOUS
 62
    7
 10
402.79861989611118
 20
286.054713320171
 11
402.79861989611118
 21
286.49475332017101
  0
LINE
  8
_0-f_
  6
CONTINUOUS
 62
    7
 10
402.79861989611118
 20
286.49475332017101
 11
401.47258662967278
 21
286.49475332017101
  0
LINE
  8
_0-f_
  6
CONTINUOUS
 62
    7
 10
402.47862789611116
 20
287.17463332017104
 11
401.95862789611118
 21
287.17463332017104
  0
LINE
  8
_0-f_
  6
CONTINUOUS
 62
    7
 10
401.95862789611118
 20
287.17463332017104
 11
401.95862789611118
 21
286.81857732017102
  0
LINE
  8
_0-f_
  6
CONTINUOUS
 62
    7
 10
401.95862789611118
 20
286.81857732017102
 11
402.47862789611116
 21
286.81857732017102
  0
LINE
  8
_0-f_
  6
CONTINUOUS
 62
    7
 10
402.47862789611116
 20
286.81857732017102
 11
402.47862789611116
 21
287.17463332017104
  0
LINE
  8
_0-f_
  6
CONTINUOUS
 62
    7
 10
401.78555493318953
 20
285.13459332017101
 11
400.95170139627857
 21
285.13459332017101
  0
LINE
  8
_0-f_
  6
CONTINUOUS
 62
    7
 10
400.3986198961108
 20
285.13459332017101
 11
397.99861989611128
 21
285.13459332017101
  0
LINE
  8
_0-f_
  6
CONTINUOUS
 62
    7
 10
401.76714719859848
 20
285.21459332017105
 11
400.93310289198126
 21
285.21459332017105
  0
LINE
  8
_0-f_
  6
CONTINUOUS
 62
    7
 10
400.3986198961108
 20
285.21459332017105
 11
397.99861989611128
 21
285.21459332017105
  0
LINE
  8
_0-f_
  6
CONTINUOUS
 62
    7
 10
401.74873946400743
 20
285.29459332017097
 11
400.91450438768391
 21
285.29459332017097
  0
LINE
  8
_0-f_
  6
CONTINUOUS
 62
    7
 10
400.3986198961108
 20
285.29459332017097
 11
397.99861989611128
 21
285.29459332017097
  0
LINE
  8
_0-f_
  6
CONTINUOUS
 62
    7
 10
401.73033172941638
 20
285.37459332017102
 11
400.89590588338655
 21
285.37459332017102
  0
LINE
  8
_0-f_
  6
CONTINUOUS
 62
    7
 10
400.3986198961108
 20
285.37459332017102
 11
397.99861989611128
 21
285.37459332017102
  0
LINE
  8
_0-f_
  6
CONTINUOUS
 62
    7
 10
401.71192399482533
 20
285.454593320171
 11
400.87730737908913
 21
285.454593320171
  0
LINE
  8
_0-f_
  6
CONTINUOUS
 62
    7
 10
401.69351626023433
 20
285.53459332017098
 11
400.85870887479183
 21
285.53459332017098
  0
LINE
  8
_0-f_
  6
CONTINUOUS
 62
    7
 10
401.67510852564328
 20
285.61459332017102
 11
400.84011037049447
 21
285.61459332017102
  0
LINE
  8
_0-f_
  6
CONTINUOUS
 62
    7
 10
401.65670079105229
 20
285.69459332017107
 11
400.82151186619711
 21
285.69459332017107
  0
LINE
  8
_0-f_
  6
CONTINUOUS
 62
    7
 10
401.63829305646124
 20
285.77459332017105
 11
400.80291336189981
 21
285.77459332017105
  0
LINE
  8
_0-f_
  6
CONTINUOUS
 62
    7
 10
401.61988532187019
 20
285.85459332017103
 11
400.7843148576024
 21
285.85459332017103
  0
LINE
  8
_0-f_
  6
CONTINUOUS
 62
    7
 10
401.60147758727913
 20
285.93459332017107
 11
400.76571635330504
 21
285.93459332017107
  0
LINE
  8
_0-f_
  6
CONTINUOUS
 62
    7
 10
401.58306985268814
 20
286.014593320171
 11
400.74711784900768
 21
286.014593320171
  0
LINE
  8
_0-f_
  6
CONTINUOUS
 62
    7
 10
402.79861989611123
 20
286.09459332017104
 11
397.99861989611094
 21
286.09459332017104
  0
LINE
  8
_0-f_
  6
CONTINUOUS
 62
    7
 10
402.79861989611123
 20
286.17459332017103
 11
397.99861989611094
 21
286.17459332017103
  0
LINE
  8
_0-f_
  6
CONTINUOUS
 62
    7
 10
402.79861989611123
 20
286.25459332017101
 11
397.99861989611094
 21
286.25459332017101
  0
LINE
  8
_0-f_
  6
CONTINUOUS
 62
    7
 10
402.79861989611123
 20
286.33459332017105
 11
397.99861989611094
 21
286.33459332017105
  0
LINE
  8
_0-f_
  6
CONTINUOUS
 62
    7
 10
402.79861989611123
 20
286.41459332017098
 11
397.99861989611094
 21
286.41459332017098
  0
LINE
  8
_0-f_
  6
CONTINUOUS
 62
    7
 10
402.79861989611123
 20
286.49459332017102
 11
397.99861989611094
 21
286.49459332017102
  0
LINE
  8
_0-f_
  6
CONTINUOUS
 62
    7
 10
401.45421571055073
 20
286.574593320171
 11
400.61692831892634
 21
286.57459332017106
  0
LINE
  8
_0-f_
  6
CONTINUOUS
 62
    7
 10
401.43580797595968
 20
286.65459332017099
 11
400.59832981462893
 21
286.65459332017099
  0
LINE
  8
_0-f_
  6
CONTINUOUS
 62
    7
 10
401.41740024136863
 20
286.73459332017103
 11
400.57973131033162
 21
286.73459332017103
  0
LINE
  8
_0-f_
  6
CONTINUOUS
 62
    7
 10
401.39899250677763
 20
286.81459332017107
 11
400.56113280603432
 21
286.81459332017107
  0
LINE
  8
_0-f_
  6
CONTINUOUS
 62
    7
 10
402.47862789611116
 20
286.89459332017105
 11
401.95862789611044
 21
286.89459332017105
  0
LINE
  8
_0-f_
  6
CONTINUOUS
 62
    7
 10
401.38058477218658
 20
286.89459332017105
 11
400.54253430173691
 21
286.89459332017105
  0
LINE
  8
_0-f_
  6
CONTINUOUS
 62
    7
 10
402.47862789611116
 20
286.97459332017104
 11
401.95862789611044
 21
286.97459332017104
  0
LINE
  8
_0-f_
  6
CONTINUOUS
 62
    7
 10
401.36217703759559
 20
286.97459332017104
 11
400.52393579743961
 21
286.97459332017104
  0
LINE
  8
_0-f_
  6
CONTINUOUS
 62
    7
 10
402.47862789611116
 20
287.05459332017108
 11
401.95862789611044
 21
287.05459332017108
  0
LINE
  8
_0-f_
  6
CONTINUOUS
 62
    7
 10
401.34376930300454
 20
287.05459332017108
 11
400.50533729314219
 21
287.05459332017108
  0
LINE
  8
_0-f_
  6
CONTINUOUS
 62
    7
 10
402.47862789611116
 20
287.13459332017101
 11
401.95862789611044
 21
287.13459332017101
  0
LINE
  8
_0-f_
  6
CONTINUOUS
 62
    7
 10
401.32536156841348
 20
287.13459332017101
 11
400.48673878884483
 21
287.13459332017101
  0
LINE
  8
_0-f_
  6
CONTINUOUS
 62
    7
 10
401.80396266778058
 20
285.05459332017102
 11
400.97029990057598
 21
285.05459332017102
  0
LINE
  8
_0-f_
  6
CONTINUOUS
 62
    7
 10
400.3986198961108
 20
285.05459332017102
 11
397.99861989611128
 21
285.05459332017102
  0
LINE
  8
_0-f_
  6
CONTINUOUS
 62
    7
 10
401.82237040237163
 20
284.97459332017104
 11
400.98889840487328
 21
284.97459332017104
  0
LINE
  8
_0-f_
  6
CONTINUOUS
 62
    7
 10
400.3986198961108
 20
284.97459332017104
 11
397.99861989611128
 21
284.97459332017104
  0
LINE
  8
_0-f_
  6
CONTINUOUS
 62
    7
 10
401.84077813696263
 20
284.894593320171
 11
401.00749690917064
 21
284.894593320171
  0
LINE
  8
_0-f_
  6
CONTINUOUS
 62
    7
 10
399.49861989611094
 20
284.894593320171
 11
398.75862789611131
 21
284.894593320171
  0
LINE
  8
_0-f_
  6
CONTINUOUS
 62
    7
 10
401.85918587155362
 20
284.81459332017096
 11
401.026095413468
 21
284.81459332017096
  0
LINE
  8
_0-f_
  6
CONTINUOUS
 62
    7
 10
399.49861989611094
 20
284.81459332017096
 11
398.75862789611131
 21
284.81459332017096
  0
LINE
  8
_0-f_
  6
CONTINUOUS
 62
    7
 10
401.87759360614467
 20
284.73459332017103
 11
401.04469391776541
 21
284.73459332017103
  0
LINE
  8
_0-f_
  6
CONTINUOUS
 62
    7
 10
399.49861989611094
 20
284.73459332017103
 11
398.75862789611131
 21
284.73459332017103
  0
LINE
  8
_0-f_
  6
CONTINUOUS
 62
    7
 10
401.89600134073572
 20
284.65459332017099
 11
401.06329242206272
 21
284.65459332017099
  0
LINE
  8
_0-f_
  6
CONTINUOUS
 62
    7
 10
399.49861989611094
 20
284.65459332017099
 11
398.75862789611131
 21
284.65459332017099
  0
LINE
  8
_0-f_
  6
CONTINUOUS
 62
    7
 10
401.91440907532677
 20
284.57459332017095
 11
401.08189092636013
 21
284.57459332017095
  0
LINE
  8
_0-f_
  6
CONTINUOUS
 62
    7
 10
399.49861989611094
 20
284.57459332017095
 11
398.75862789611131
 21
284.57459332017095
  0
LINE
  8
_0-f_
  6
CONTINUOUS
 62
    7
 10
401.93281680991782
 20
284.49459332017102
 11
401.10048943065743
 21
284.49459332017102
  0
LINE
  8
_0-f_
  6
CONTINUOUS
 62
    7
 10
399.49861989611094
 20
284.49459332017102
 11
398.75862789611131
 21
284.49459332017102
  0
LINE
  8
_0-f_
  6
CONTINUOUS
 62
    7
 10
401.95122454450882
 20
284.41459332017098
 11
401.11908793495479
 21
284.41459332017098
  0
LINE
  8
_0-f_
  6
CONTINUOUS
 62
    7
 10
399.49861989611094
 20
284.41459332017098
 11
398.75862789611131
 21
284.41459332017098
  0
LINE
  8
_0-f_
  6
CONTINUOUS
 62
    7
 10
401.96963227909987
 20
284.334593320171
 11
401.13768643925215
 21
284.334593320171
  0
LINE
  8
_0-f_
  6
CONTINUOUS
 62
    7
 10
399.49861989611094
 20
284.334593320171
 11
398.75862789611131
 21
284.334593320171
  0
LINE
  8
_0-f_
  6
CONTINUOUS
 62
    7
 10
401.98804001369086
 20
284.25459332017101
 11
401.15628494354951
 21
284.25459332017101
  0
LINE
  8
_0-f_
  6
CONTINUOUS
 62
    7
 10
399.49861989611094
 20
284.25459332017101
 11
398.75862789611131
 21
284.25459332017101
  0
LINE
  8
_0-f_
  6
CONTINUOUS
 62
    7
 10
402.00644774828191
 20
284.17459332017097
 11
401.17488344784687
 21
284.17459332017097
  0
LINE
  8
_0-f_
  6
CONTINUOUS
 62
    7
 10
399.49861989611094
 20
284.17459332017097
 11
398.75862789611131
 21
284.17459332017097
  0
LINE
  8
_0-f_
  6
CONTINUOUS
 62
    7
 10
402.02485548287297
 20
284.09459332017104
 11
401.19348195214423
 21
284.09459332017104
  0
LINE
  8
_0-f_
  6
CONTINUOUS
 62
    7
 10
399.49861989611094
 20
284.09459332017104
 11
398.75862789611131
 21
284.09459332017104
  0
LINE
  8
_0-f_
  6
CONTINUOUS
 62
    7
 10
402.04326321746396
 20
284.014593320171
 11
401.21208045644158
 21
284.014593320171
  0
LINE
  8
_0-f_
  6
CONTINUOUS
 62
    7
 10
399.49861989611094
 20
284.014593320171
 11
398.75862789611131
 21
284.014593320171
  0
LINE
  8
_0-f_
  6
CONTINUOUS
 62
    7
 10
402.06167095205501
 20
283.93459332017102
 11
401.23067896073889
 21
283.93459332017102
  0
LINE
  8
_0-f_
  6
CONTINUOUS
 62
    7
 10
399.49861989611094
 20
283.93459332017102
 11
398.75862789611131
 21
283.93459332017102
  0
LINE
  8
_0-f_
  6
CONTINUOUS
 62
    7
 10
402.080078686646
 20
283.85459332017103
 11
401.24927746503624
 21
283.85459332017103
  0
LINE
  8
_0-f_
  6
CONTINUOUS
 62
    7
 10
399.49861989611094
 20
283.85459332017103
 11
398.75862789611131
 21
283.85459332017103
  0
LINE
  8
_0-f_
  6
CONTINUOUS
 62
    7
 10
402.09848642123706
 20
283.77459332017099
 11
401.2678759693336
 21
283.77459332017099
  0
LINE
  8
_0-f_
  6
CONTINUOUS
 62
    7
 10
400.39861989611137
 20
283.77459332017099
 11
400.15275062653433
 21
283.77459332017099
  0
LINE
  8
_0-f_
  6
CONTINUOUS
 62
    7
 10
399.49861989611094
 20
283.77459332017099
 11
398.75862789611131
 21
283.77459332017099
  0
LINE
  8
_0-f_
  6
CONTINUOUS
 62
    7
 10
402.11689415582811
 20
283.69459332017095
 11
401.28647447363102
 21
283.69459332017095
  0
LINE
  8
_0-f_
  6
CONTINUOUS
 62
    7
 10
400.39861989611137
 20
283.69459332017095
 11
399.87555866534245
 21
283.69459332017095
  0
LINE
  8
_0-f_
  6
CONTINUOUS
 62
    7
 10
399.49861989611094
 20
283.69459332017095
 11
398.75862789611131
 21
283.69459332017095
  0
LINE
  8
_0-f_
  6
CONTINUOUS
 62
    7
 10
402.79861989611118
 20
283.61459332017097
 11
401.30507297792832
 21
283.61459332017097
  0
LINE
  8
_0-f_
  6
CONTINUOUS
 62
    7
 10
400.39861989611137
 20
283.61459332017097
 11
397.99861989611117
 21
283.61459332017097
  0
LINE
  8
_0-f_
  6
CONTINUOUS
 62
    7
 10
402.79861989611118
 20
283.53459332017098
 11
401.32462766879979
 21
283.53459332017098
  0
LINE
  8
_0-f_
  6
CONTINUOUS
 62
    7
 10
400.39861989611137
 20
283.53459332017098
 11
397.99861989611117
 21
283.53459332017098
  0
LINE
  8
_0-f_
  6
CONTINUOUS
 62
    7
 10
402.79861989611118
 20
283.45459332017094
 11
401.35356612683205
 21
283.45459332017094
  0
LINE
  8
_0-f_
  6
CONTINUOUS
 62
    7
 10
400.39861989611137
 20
283.45459332017094
 11
397.99861989611117
 21
283.45459332017094
  0
LINE
  8
_0-f_
  6
CONTINUOUS
 62
    7
 10
402.79861989611118
 20
283.37459332017102
 11
401.40052206627234
 21
283.37459332017102
  0
LINE
  8
_0-f_
  6
CONTINUOUS
 62
    7
 10
400.29164434518856
 20
283.37459332017102
 11
397.99861989611117
 21
283.37459332017102
  0
LINE
  8
_0-f_
  6
CONTINUOUS
 62
    7
 10
402.79861989611118
 20
283.29459332017097
 11
401.47151882939471
 21
283.29459332017097
  0
LINE
  8
_0-f_
  6
CONTINUOUS
 62
    7
 10
400.01450561222947
 20
283.29459332017097
 11
397.99861989611117
 21
283.29459332017097
  0
LINE
  8
_0-f_
  6
CONTINUOUS
 62
    7
 10
402.79861989611118
 20
283.21459332017099
 11
401.59759650959035
 21
283.21459332017099
  0
LINE
  8
_0-f_
  6
CONTINUOUS
 62
    7
 10
399.73736687927038
 20
283.21459332017099
 11
397.99861989611117
 21
283.21459332017099
  0
LINE
  8
_0-f_
  6
CONTINUOUS
 62
    7
 10
401.47258662967278
 20
286.49475332017101
 11
402.79861989611118
 21
286.49475332017101
  0
LINE
  8
_0-f_
  6
CONTINUOUS
 62
    7
 10
401.78857445329078
 20
283.17459332017103
 11
402.79861989611118
 21
283.17459332017103
  0
LINE
  8
_0-f_
  6
CONTINUOUS
 62
    7
 10
402.13528348268466
 20
283.61467332017105
 11
402.79861989611118
 21
283.61467332017105
  0
LINE
  8
_0-f_
  6
CONTINUOUS
 62
    7
 10
401.57383837379075
 20
286.054713320171
 11
402.79861989611118
 21
286.054713320171
  0
LINE
  8
_0-f_
  6
CONTINUOUS
 62
    7
 10
401.95862789611118
 20
287.17463332017104
 11
402.47862789611116
 21
287.17463332017104
  0
LINE
  8
_0-f_
  6
CONTINUOUS
 62
    7
 10
402.47862789611116
 20
286.81857732017102
 11
401.95862789611118
 21
286.81857732017102
  0
LINE
  8
_0-f_
  6
CONTINUOUS
 62
    7
 10
400.7377906991025
 20
286.054713320171
 11
401.32104267596657
 21
283.54590092304954
  0
LINE
  8
_0-f_
  6
CONTINUOUS
 62
    7
 10
401.57383837379075
 20
286.054713320171
 11
402.13528348268466
 21
283.61467332017105
  0
LINE
  8
_0-f_
  6
CONTINUOUS
 62
    7
 10
399.49861989611105
 20
284.94279332017106
 11
400.39861989611109
 21
284.94279332017106
  0
LINE
  8
_0-f_
  6
CONTINUOUS
 62
    7
 10
400.39861989611109
 20
285.38283332017102
 11
397.99861989611117
 21
285.38283332017102
  0
LINE
  8
_0-f_
  6
CONTINUOUS
 62
    7
 10
399.70743589611124
 20
283.20595332017103
 11
400.39861989611109
 21
283.40547332017104
  0
LINE
  8
_0-f_
  6
CONTINUOUS
 62
    7
 10
399.5986438961113
 20
283.61467332017105
 11
400.39861989611109
 21
283.84555332017101
  0
LINE
  8
_0-f_
  6
CONTINUOUS
 62
    7
 10
397.99861989611117
 20
283.17459332017103
 11
399.48582789611118
 21
283.17459332017103
  0
LINE
  8
_0-f_
  6
CONTINUOUS
 62
    7
 10
398.75862789611119
 20
284.94279332017106
 11
398.75862789611119
 21
283.61467332017105
  0
LINE
  8
_0-f_
  6
CONTINUOUS
 62
    7
 10
398.75862789611119
 20
283.61467332017105
 11
397.99861989611117
 21
283.61467332017105
  0
LINE
  8
_0-f_
  6
CONTINUOUS
 62
    7
 10
397.99861989611117
 20
283.61467332017105
 11
397.99861989611117
 21
283.17459332017103
  0
LINE
  8
_0-f_
  6
CONTINUOUS
 62
    7
 10
397.99861989611117
 20
284.94279332017106
 11
398.75862789611119
 21
284.94279332017106
  0
LINE
  8
_0-f_
  6
CONTINUOUS
 62
    7
 10
397.99861989611117
 20
285.38283332017102
 11
397.99861989611117
 21
284.94279332017106
  0
LINE
  8
_0-f_
  6
CONTINUOUS
 62
    7
 10
399.49861989611105
 20
283.61467332017105
 11
399.49861989611105
 21
284.94279332017106
  0
ARC
  8
_0-f_
  6
CONTINUOUS
 62
    7
 10
399.48582789611118
 20
283.97459332017104
 40
0.8000000000000001
 50
270
 51
286.10199
  0
LINE
  8
_0-f_
  6
CONTINUOUS
 62
    7
 10
399.5986438961113
 20
283.61467332017105
 11
399.49861989611105
 21
283.61467332017105
  0
LINE
  8
_0-f_
  6
CONTINUOUS
 62
    7
 10
400.39861989611109
 20
283.84555332017101
 11
400.39861989611109
 21
283.40547332017104
  0
LINE
  8
_0-f_
  6
CONTINUOUS
 62
    7
 10
400.39861989611109
 20
284.94279332017106
 11
400.39861989611109
 21
285.38283332017102
  0
ARC
  8
_0-f_
  6
CONTINUOUS
 62
    7
 10
401.78857445329078
 20
283.65459332017099
 40
0.4799999999999999
 50
193.08771650376977
 51
269.99999999999972
  0
ARC
  8
_0-f_
  6
CONTINUOUS
 62
    7
 10
402.19864389611115
 20
283.69459332017107
 40
0.0799919999999998
 50
192.96201000000002
 51
270
  0
LINE
  8
_0-f_
  6
CONTINUOUS
 62
    7
 10
397.99861989611117
 20
286.49475332017101
 11
400.63548962621496
 21
286.49475332017101
  0
LINE
  8
_0-f_
  6
CONTINUOUS
 62
    7
 10
397.99861989611117
 20
286.054713320171
 11
400.7377906991025
 21
286.054713320171
  0
LINE
  8
_0-f_
  6
CONTINUOUS
 62
    7
 10
397.99861989611117
 20
286.49475332017101
 11
397.99861989611117
 21
286.054713320171
  0
LINE
  8
_0-f_
  6
CONTINUOUS
 62
    7
 10
400.47743023744391
 20
287.17463332017104
 11
401.31614849725094
 21
287.17463332017104
  0
LINE
  8
_0-f_
  6
CONTINUOUS
 62
    7
 10
400.47743023744391
 20
287.17463332017104
 11
400.63548962621496
 21
286.49475332017101
  0
LINE
  8
_0-f_
  6
CONTINUOUS
 62
    7
 10
401.31614849725094
 20
287.17463332017104
 11
401.47258662967278
 21
286.49475332017101
  0
LINE
  8
_0-f_
  6
CONTINUOUS
 62
    7
 10
401.95862789611118
 20
287.17463332017104
 11
401.95862789611118
 21
286.81857732017102
  0
LINE
  8
_0-f_
  6
CONTINUOUS
 62
    7
 10
402.79861989611118
 20
283.61467332017105
 11
402.79861989611118
 21
283.17459332017103
  0
LINE
  8
_0-f_
  6
CONTINUOUS
 62
    7
 10
402.79861989611118
 20
283.61467332017105
 11
402.79861989611118
 21
283.17459332017103
  0
LINE
  8
_0-f_
  6
CONTINUOUS
 62
    7
 10
402.79861989611118
 20
286.49475332017101
 11
402.79861989611118
 21
286.054713320171
  0
LINE
  8
_0-f_
  6
CONTINUOUS
 62
    7
 10
402.47862789611116
 20
287.174673320171
 11
402.47862789611116
 21
286.81862532017101
  0
LINE
  8
_0-f_
  6
CONTINUOUS
 62
    7
 10
406.05269566563635
 20
286.73235836102492
 11
408.30510053329482
 21
286.17464132017108
  0
LINE
  8
_0-f_
  6
CONTINUOUS
 62
    7
 10
408.30510053329482
 20
286.17464132017108
 11
408.30510053329482
 21
286.61467332017105
  0
LINE
  8
_0-f_
  6
CONTINUOUS
 62
    7
 10
408.30510053329482
 20
286.61467332017105
 11
406.18043764281782
 21
287.1426128830754
  0
ARC
  8
_0-f_
  6
CONTINUOUS
 62
    7
 10
405.90507653329485
 20
285.97463332017105
 40
1.1999999999999964
 50
76.734271344360408
 51
103.26596249111499
  0
LINE
  8
_0-f_
  6
CONTINUOUS
 62
    7
 10
405.6297106570172
 20
287.14261175926219
 11
403.50507653329481
 21
286.61468932017101
  0
LINE
  8
_0-f_
  6
CONTINUOUS
 62
    7
 10
403.50507653329481
 20
286.61468932017101
 11
403.50507653329481
 21
286.17463332017098
  0
LINE
  8
_0-f_
  6
CONTINUOUS
 62
    7
 10
403.50507653329481
 20
286.17463332017098
 11
405.74529192460909
 21
286.72913416449785
  0
ARC
  8
_0-f_
  6
CONTINUOUS
 62
    7
 10
405.9050765332949
 20
286.15080132017101
 40
0.5999999999999982
 50
75.757176751039125
 51
105.44466990909265
  0
LINE
  8
_0-f_
  6
CONTINUOUS
 62
    7
 10
407.61068453329477
 20
286.00666532017101
 11
404.19948453329465
 21
286.00666532017101
  0
LINE
  8
_0-f_
  6
CONTINUOUS
 62
    7
 10
404.19948453329465
 20
286.00666532017101
 11
404.19948453329465
 21
285.56662532017106
  0
LINE
  8
_0-f_
  6
CONTINUOUS
 62
    7
 10
404.19948453329465
 20
285.56662532017106
 11
407.61068453329477
 21
285.56662532017106
  0
LINE
  8
_0-f_
  6
CONTINUOUS
 62
    7
 10
407.61068453329477
 20
285.56662532017106
 11
407.61068453329477
 21
286.00666532017101
  0
LINE
  8
_0-f_
  6
CONTINUOUS
 62
    7
 10
408.30510053329482
 20
285.08654532017101
 11
403.50507653329475
 21
285.08654532017101
  0
LINE
  8
_0-f_
  6
CONTINUOUS
 62
    7
 10
403.50507653329475
 20
285.08654532017101
 11
403.50507653329481
 21
284.64670532017101
  0
LINE
  8
_0-f_
  6
CONTINUOUS
 62
    7
 10
403.50507653329481
 20
284.64670532017101
 11
404.75475841952999
 21
284.64670532017101
  0
LINE
  8
_0-f_
  6
CONTINUOUS
 62
    7
 10
404.75475841952999
 20
284.64670532017101
 11
403.98669253329473
 21
283.31611332017098
  0
LINE
  8
_0-f_
  6
CONTINUOUS
 62
    7
 10
403.98669253329473
 20
283.31611332017098
 11
403.98669253329473
 21
283.17459332017103
  0
LINE
  8
_0-f_
  6
CONTINUOUS
 62
    7
 10
403.98669253329473
 20
283.17459332017103
 11
407.82348453329479
 21
283.17459332017103
  0
LINE
  8
_0-f_
  6
CONTINUOUS
 62
    7
 10
407.82348453329479
 20
283.17459332017103
 11
407.82348453329479
 21
283.31603332017102
  0
LINE
  8
_0-f_
  6
CONTINUOUS
 62
    7
 10
407.82348453329479
 20
283.31603332017102
 11
407.05539094216499
 21
284.64670532017101
  0
LINE
  8
_0-f_
  6
CONTINUOUS
 62
    7
 10
407.05539094216499
 20
284.64670532017101
 11
408.30510053329482
 21
284.64670532017101
  0
LINE
  8
_0-f_
  6
CONTINUOUS
 62
    7
 10
408.30510053329482
 20
284.64670532017101
 11
408.30510053329482
 21
285.08654532017101
  0
LINE
  8
_0-f_
  6
CONTINUOUS
 62
    7
 10
405.26277562706883
 20
284.64670532017101
 11
406.54747745424083
 21
284.64670532017101
  0
LINE
  8
_0-f_
  6
CONTINUOUS
 62
    7
 10
406.54747745424083
 20
284.64670532017101
 11
407.09068453329473
 21
283.70523332017103
  0
LINE
  8
_0-f_
  6
CONTINUOUS
 62
    7
 10
407.09068453329473
 20
283.70523332017103
 11
407.09068453329473
 21
283.64667332017098
  0
LINE
  8
_0-f_
  6
CONTINUOUS
 62
    7
 10
407.09068453329473
 20
283.64667332017098
 11
404.7195085332948
 21
283.64667332017098
  0
LINE
  8
_0-f_
  6
CONTINUOUS
 62
    7
 10
404.7195085332948
 20
283.64667332017098
 11
404.7195085332948
 21
283.70523332017103
  0
LINE
  8
_0-f_
  6
CONTINUOUS
 62
    7
 10
404.7195085332948
 20
283.70523332017103
 11
405.26277562706883
 21
284.64670532017101
  0
LINE
  8
_0-f_
  6
CONTINUOUS
 62
    7
 10
407.61068453329489
 20
285.61459332017102
 11
404.19948453329471
 21
285.61459332017102
  0
LINE
  8
_0-f_
  6
CONTINUOUS
 62
    7
 10
407.61068453329489
 20
285.69459332017107
 11
404.19948453329471
 21
285.69459332017107
  0
LINE
  8
_0-f_
  6
CONTINUOUS
 62
    7
 10
407.61068453329489
 20
285.77459332017105
 11
404.19948453329471
 21
285.77459332017105
  0
LINE
  8
_0-f_
  6
CONTINUOUS
 62
    7
 10
407.61068453329489
 20
285.85459332017103
 11
404.19948453329471
 21
285.85459332017103
  0
LINE
  8
_0-f_
  6
CONTINUOUS
 62
    7
 10
407.61068453329489
 20
285.93459332017107
 11
404.19948453329471
 21
285.93459332017107
  0
LINE
  8
_0-f_
  6
CONTINUOUS
 62
    7
 10
408.30510053329448
 20
286.25459332017101
 11
407.98220512076927
 21
286.25459332017101
  0
LINE
  8
_0-f_
  6
CONTINUOUS
 62
    7
 10
403.82811954490103
 20
286.25459332017101
 11
403.50507653329481
 21
286.25459332017101
  0
LINE
  8
_0-f_
  6
CONTINUOUS
 62
    7
 10
408.30510053329448
 20
286.33459332017105
 11
407.65911585468399
 21
286.33459332017105
  0
LINE
  8
_0-f_
  6
CONTINUOUS
 62
    7
 10
404.15132415881413
 20
286.33459332017105
 11
403.50507653329481
 21
286.33459332017105
  0
LINE
  8
_0-f_
  6
CONTINUOUS
 62
    7
 10
408.30510053329448
 20
286.41459332017098
 11
407.33602658859894
 21
286.41459332017098
  0
LINE
  8
_0-f_
  6
CONTINUOUS
 62
    7
 10
404.4745287727273
 20
286.41459332017098
 11
403.50507653329481
 21
286.41459332017098
  0
LINE
  8
_0-f_
  6
CONTINUOUS
 62
    7
 10
408.30510053329448
 20
286.49459332017102
 11
407.01293732251372
 21
286.49459332017102
  0
LINE
  8
_0-f_
  6
CONTINUOUS
 62
    7
 10
404.79773338664046
 20
286.49459332017102
 11
403.50507653329481
 21
286.49459332017102
  0
LINE
  8
_0-f_
  6
CONTINUOUS
 62
    7
 10
408.30510053329448
 20
286.574593320171
 11
406.6898480564285
 21
286.57459332017106
  0
LINE
  8
_0-f_
  6
CONTINUOUS
 62
    7
 10
405.12093800055356
 20
286.574593320171
 11
403.50507653329481
 21
286.57459332017106
  0
LINE
  8
_0-f_
  6
CONTINUOUS
 62
    7
 10
408.14444475269505
 20
286.65459332017099
 11
406.36675879034334
 21
286.65459332017099
  0
LINE
  8
_0-f_
  6
CONTINUOUS
 62
    7
 10
405.44414261446667
 20
286.65459332017099
 11
403.66567095739049
 21
286.65459332017099
  0
LINE
  8
_0-f_
  6
CONTINUOUS
 62
    7
 10
407.82248928055145
 20
286.73459332017103
 11
406.03968017775242
 21
286.73459332017103
  0
LINE
  8
_0-f_
  6
CONTINUOUS
 62
    7
 10
405.76702478170205
 20
286.73459332017103
 11
403.98763251331599
 21
286.73459332017103
  0
LINE
  8
_0-f_
  6
CONTINUOUS
 62
    7
 10
407.50053380840785
 20
286.81459332017107
 11
404.30959406924154
 21
286.81459332017107
  0
LINE
  8
_0-f_
  6
CONTINUOUS
 62
    7
 10
407.17857833626425
 20
286.89459332017105
 11
404.63155562516704
 21
286.89459332017105
  0
LINE
  8
_0-f_
  6
CONTINUOUS
 62
    7
 10
406.85662286412065
 20
286.97459332017104
 11
404.95351718109265
 21
286.97459332017104
  0
LINE
  8
_0-f_
  6
CONTINUOUS
 62
    7
 10
406.53466739197705
 20
287.05459332017108
 11
405.27547873701815
 21
287.05459332017108
  0
LINE
  8
_0-f_
  6
CONTINUOUS
 62
    7
 10
406.21271191983345
 20
287.13459332017101
 11
405.59744029294365
 21
287.13459332017101
  0
LINE
  8
_0-f_
  6
CONTINUOUS
 62
    7
 10
408.30510053329505
 20
285.05459332017102
 11
403.50507653329481
 21
285.05459332017102
  0
LINE
  8
_0-f_
  6
CONTINUOUS
 62
    7
 10
408.30510053329505
 20
284.97459332017104
 11
403.50507653329481
 21
284.97459332017104
  0
LINE
  8
_0-f_
  6
CONTINUOUS
 62
    7
 10
408.30510053329505
 20
284.894593320171
 11
403.50507653329481
 21
284.894593320171
  0
LINE
  8
_0-f_
  6
CONTINUOUS
 62
    7
 10
408.30510053329505
 20
284.81459332017096
 11
403.50507653329481
 21
284.81459332017096
  0
LINE
  8
_0-f_
  6
CONTINUOUS
 62
    7
 10
408.30510053329505
 20
284.73459332017103
 11
403.50507653329481
 21
284.73459332017103
  0
LINE
  8
_0-f_
  6
CONTINUOUS
 62
    7
 10
408.30510053329505
 20
284.65459332017099
 11
403.50507653329481
 21
284.65459332017099
  0
LINE
  8
_0-f_
  6
CONTINUOUS
 62
    7
 10
407.0970155987622
 20
284.57459332017106
 11
406.58908437285828
 21
284.57459332017106
  0
LINE
  8
_0-f_
  6
CONTINUOUS
 62
    7
 10
405.22116411162693
 20
284.57459332017095
 11
404.71313276178648
 21
284.57459332017095
  0
LINE
  8
_0-f_
  6
CONTINUOUS
 62
    7
 10
407.14319338509148
 20
284.49459332017102
 11
406.63524248093194
 21
284.49459332017102
  0
LINE
  8
_0-f_
  6
CONTINUOUS
 62
    7
 10
405.17500090390337
 20
284.49459332017102
 11
404.66695386480018
 21
284.49459332017102
  0
LINE
  8
_0-f_
  6
CONTINUOUS
 62
    7
 10
407.18937117142082
 20
284.41459332017098
 11
406.68140058900559
 21
284.41459332017098
  0
LINE
  8
_0-f_
  6
CONTINUOUS
 62
    7
 10
405.1288376961798
 20
284.41459332017098
 11
404.62077496781382
 21
284.41459332017098
  0
LINE
  8
_0-f_
  6
CONTINUOUS
 62
    7
 10
407.23554895775015
 20
284.334593320171
 11
406.72755869707925
 21
284.334593320171
  0
LINE
  8
_0-f_
  6
CONTINUOUS
 62
    7
 10
405.08267448845623
 20
284.334593320171
 11
404.57459607082751
 21
284.334593320171
  0
LINE
  8
_0-f_
  6
CONTINUOUS
 62
    7
 10
407.28172674407944
 20
284.25459332017101
 11
406.7737168051529
 21
284.25459332017101
  0
LINE
  8
_0-f_
  6
CONTINUOUS
 62
    7
 10
405.03651128073267
 20
284.25459332017101
 11
404.52841717384121
 21
284.25459332017101
  0
LINE
  8
_0-f_
  6
CONTINUOUS
 62
    7
 10
407.32790453040872
 20
284.17459332017097
 11
406.81987491322656
 21
284.17459332017097
  0
LINE
  8
_0-f_
  6
CONTINUOUS
 62
    7
 10
404.9903480730091
 20
284.17459332017097
 11
404.48223827685484
 21
284.17459332017097
  0
LINE
  8
_0-f_
  6
CONTINUOUS
 62
    7
 10
407.374082316738
 20
284.09459332017104
 11
406.86603302130021
 21
284.09459332017104
  0
LINE
  8
_0-f_
  6
CONTINUOUS
 62
    7
 10
404.94418486528554
 20
284.09459332017104
 11
404.43605937986854
 21
284.09459332017104
  0
LINE
  8
_0-f_
  6
CONTINUOUS
 62
    7
 10
407.42026010306733
 20
284.014593320171
 11
406.91219112937387
 21
284.014593320171
  0
LINE
  8
_0-f_
  6
CONTINUOUS
 62
    7
 10
404.89802165756197
 20
284.014593320171
 11
404.38988048288223
 21
284.014593320171
  0
LINE
  8
_0-f_
  6
CONTINUOUS
 62
    7
 10
407.46643788939662
 20
283.93459332017102
 11
406.95834923744752
 21
283.93459332017102
  0
LINE
  8
_0-f_
  6
CONTINUOUS
 62
    7
 10
404.8518584498384
 20
283.93459332017102
 11
404.34370158589587
 21
283.93459332017102
  0
LINE
  8
_0-f_
  6
CONTINUOUS
 62
    7
 10
407.51261567572595
 20
283.85459332017103
 11
407.00450734552118
 21
283.85459332017103
  0
LINE
  8
_0-f_
  6
CONTINUOUS
 62
    7
 10
404.80569524211484
 20
283.85459332017103
 11
404.29752268890962
 21
283.85459332017103
  0
LINE
  8
_0-f_
  6
CONTINUOUS
 62
    7
 10
407.55879346205523
 20
283.77459332017099
 11
407.05066545359477
 21
283.77459332017099
  0
LINE
  8
_0-f_
  6
CONTINUOUS
 62
    7
 10
404.75953203439127
 20
283.77459332017099
 11
404.25134379192326
 21
283.77459332017099
  0
LINE
  8
_0-f_
  6
CONTINUOUS
 62
    7
 10
407.60497124838452
 20
283.69459332017095
 11
407.09068453329479
 21
283.69459332017095
  0
LINE
  8
_0-f_
  6
CONTINUOUS
 62
    7
 10
404.71950853329048
 20
283.69459332017095
 11
404.20516489493701
 21
283.69459332017095
  0
LINE
  8
_0-f_
  6
CONTINUOUS
 62
    7
 10
407.6511490347138
 20
283.61459332017097
 11
404.15898599795065
 21
283.61459332017097
  0
LINE
  8
_0-f_
  6
CONTINUOUS
 62
    7
 10
407.69732682104313
 20
283.53459332017098
 11
404.11280710096429
 21
283.53459332017098
  0
LINE
  8
_0-f_
  6
CONTINUOUS
 62
    7
 10
407.74350460737247
 20
283.45459332017094
 11
404.06662820397804
 21
283.45459332017094
  0
LINE
  8
_0-f_
  6
CONTINUOUS
 62
    7
 10
407.78968239370175
 20
283.37459332017102
 11
404.02044930699168
 21
283.37459332017102
  0
LINE
  8
_0-f_
  6
CONTINUOUS
 62
    7
 10
407.82348453329331
 20
283.29459332017097
 11
403.98669253329598
 21
283.29459332017097
  0
LINE
  8
_0-f_
  6
CONTINUOUS
 62
    7
 10
407.82348453329331
 20
283.21459332017099
 11
403.98669253329598
 21
283.21459332017099
  0
LINE
  8
_0-f_
  6
CONTINUOUS
 62
    7
 10
403.50507653329481
 20
286.61468932017101
 11
405.63227653329477
 21
287.14324932017098
  0
LINE
  8
_0-f_
  6
CONTINUOUS
 62
    7
 10
403.50507653329481
 20
286.17463332017098
 11
405.76909253329478
 21
286.73502532017096
  0
LINE
  8
_0-f_
  6
CONTINUOUS
 62
    7
 10
404.19948453329465
 20
286.00666532017101
 11
407.61068453329477
 21
286.00666532017101
  0
LINE
  8
_0-f_
  6
CONTINUOUS
 62
    7
 10
404.19948453329465
 20
285.56662532017106
 11
407.61068453329477
 21
285.56662532017106
  0
LINE
  8
_0-f_
  6
CONTINUOUS
 62
    7
 10
403.50507653329481
 20
285.08654532017101
 11
408.30510053329482
 21
285.08654532017101
  0
LINE
  8
_0-f_
  6
CONTINUOUS
 62
    7
 10
403.98669253329473
 20
283.17459332017103
 11
407.82348453329479
 21
283.17459332017103
  0
LINE
  8
_0-f_
  6
CONTINUOUS
 62
    7
 10
404.7195085332948
 20
283.64667332017098
 11
407.09068453329473
 21
283.64667332017098
  0
LINE
  8
_0-f_
  6
CONTINUOUS
 62
    7
 10
405.26269253329491
 20
284.64656132017103
 11
404.7195085332948
 21
283.70523332017103
  0
LINE
  8
_0-f_
  6
CONTINUOUS
 62
    7
 10
403.50507653329481
 20
284.64670532017101
 11
404.7554925332949
 21
284.64670532017101
  0
LINE
  8
_0-f_
  6
CONTINUOUS
 62
    7
 10
403.50507653329481
 20
285.08654532017101
 11
403.50507653329481
 21
284.64670532017101
  0
LINE
  8
_0-f_
  6
CONTINUOUS
 62
    7
 10
404.75468453329472
 20
284.64657732017099
 11
403.98669253329473
 21
283.31611332017098
  0
LINE
  8
_0-f_
  6
CONTINUOUS
 62
    7
 10
403.98669253329473
 20
283.17459332017103
 11
403.98669253329473
 21
283.31603332017102
  0
LINE
  8
_0-f_
  6
CONTINUOUS
 62
    7
 10
404.7195085332948
 20
283.64667332017098
 11
404.7195085332948
 21
283.70531332017106
  0
LINE
  8
_0-f_
  6
CONTINUOUS
 62
    7
 10
403.50507653329481
 20
286.61467332017105
 11
403.50507653329481
 21
286.17463332017098
  0
LINE
  8
_0-f_
  6
CONTINUOUS
 62
    7
 10
404.19948453329465
 20
286.00666532017101
 11
404.19948453329465
 21
285.56662532017106
  0
LINE
  8
_0-f_
  6
CONTINUOUS
 62
    7
 10
407.05549253329491
 20
284.646529320171
 11
407.82348453329479
 21
283.31603332017102
  0
LINE
  8
_0-f_
  6
CONTINUOUS
 62
    7
 10
407.05549253329491
 20
284.64670532017101
 11
408.30510053329482
 21
284.64670532017101
  0
LINE
  8
_0-f_
  6
CONTINUOUS
 62
    7
 10
405.26350053329486
 20
284.64670532017101
 11
406.54750053329485
 21
284.64670532017101
  0
LINE
  8
_0-f_
  6
CONTINUOUS
 62
    7
 10
406.54750053329485
 20
284.646665320171
 11
407.09068453329473
 21
283.70523332017103
  0
LINE
  8
_0-f_
  6
CONTINUOUS
 62
    7
 10
407.09068453329473
 20
283.64667332017098
 11
407.09068453329473
 21
283.70531332017106
  0
LINE
  8
_0-f_
  6
CONTINUOUS
 62
    7
 10
407.82348453329479
 20
283.17459332017103
 11
407.82348453329479
 21
283.31603332017102
  0
LINE
  8
_0-f_
  6
CONTINUOUS
 62
    7
 10
408.30510053329482
 20
285.08654532017101
 11
408.30510053329482
 21
284.64670532017101
  0
LINE
  8
_0-f_
  6
CONTINUOUS
 62
    7
 10
406.04189253329486
 20
286.73503332017106
 11
408.30510053329482
 21
286.17464132017096
  0
LINE
  8
_0-f_
  6
CONTINUOUS
 62
    7
 10
406.17790853329484
 20
287.143241320171
 11
408.30510053329482
 21
286.61467332017105
  0
ARC
  8
_0-f_
  6
CONTINUOUS
 62
    7
 10
405.9050765332949
 20
285.97463332017105
 40
1.2000000000000004
 50
76.866900000000015
 51
103.133
  0
ARC
  8
_0-f_
  6
CONTINUOUS
 62
    7
 10
405.9050765332949
 20
286.15080132017101
 40
0.6000000000000002
 50
76.866900000000015
 51
103.133
  0
LINE
  8
_0-f_
  6
CONTINUOUS
 62
    7
 10
407.61068453329477
 20
286.00666532017101
 11
407.61068453329477
 21
285.56662532017106
  0
LINE
  8
_0-f_
  6
CONTINUOUS
 62
    7
 10
408.30510053329482
 20
286.61467332017105
 11
408.30510053329482
 21
286.17463332017098
  0
LINE
  8
_0-f_
  6
CONTINUOUS
 62
    7
 10
411.45967844601381
 20
287.17463332017104
 11
408.69967044601384
 21
287.17463332017104
  0
LINE
  8
_0-f_
  6
CONTINUOUS
 62
    7
 10
408.69967044601384
 20
287.17463332017104
 11
408.69967044601384
 21
286.73459332017103
  0
LINE
  8
_0-f_
  6
CONTINUOUS
 62
    7
 10
408.69967044601384
 20
286.73459332017103
 11
411.45967844601381
 21
286.73459332017103
  0
LINE
  8
_0-f_
  6
CONTINUOUS
 62
    7
 10
411.45967844601381
 20
286.73459332017103
 11
411.45967844601381
 21
287.17463332017104
  0
LINE
  8
_0-f_
  6
CONTINUOUS
 62
    7
 10
411.45967844601381
 20
286.054713320171
 11
408.69967044601384
 21
286.054713320171
  0
LINE
  8
_0-f_
  6
CONTINUOUS
 62
    7
 10
408.69967044601384
 20
286.054713320171
 11
408.69967044601384
 21
285.61467332017105
  0
LINE
  8
_0-f_
  6
CONTINUOUS
 62
    7
 10
408.69967044601384
 20
285.61467332017105
 11
409.8156864460139
 21
285.61467332017105
  0
LINE
  8
_0-f_
  6
CONTINUOUS
 62
    7
 10
409.8156864460139
 20
285.61467332017105
 11
409.8156864460139
 21
283.17459332017103
  0
LINE
  8
_0-f_
  6
CONTINUOUS
 62
    7
 10
409.8156864460139
 20
283.17459332017103
 11
410.34367844601377
 21
283.17459332017103
  0
LINE
  8
_0-f_
  6
CONTINUOUS
 62
    7
 10
410.34367844601377
 20
283.17459332017103
 11
410.34367844601377
 21
285.61467332017105
  0
LINE
  8
_0-f_
  6
CONTINUOUS
 62
    7
 10
410.34367844601377
 20
285.61467332017105
 11
411.45967844601381
 21
285.61467332017105
  0
LINE
  8
_0-f_
  6
CONTINUOUS
 62
    7
 10
411.45967844601381
 20
285.61467332017105
 11
411.45967844601381
 21
286.054713320171
  0
LINE
  8
_0-f_
  6
CONTINUOUS
 62
    7
 10
408.91567044601385
 20
285.13459332017101
 11
408.91567044601385
 21
283.81627330017454
  0
ARC
  8
_0-f_
  6
CONTINUOUS
 62
    7
 10
408.75567844601386
 20
283.81467332017098
 40
0.1600000000000022
 50
270
 51
0.5729601837918403
  0
LINE
  8
_0-f_
  6
CONTINUOUS
 62
    7
 10
408.75567844601386
 20
283.65467332017101
 11
408.69967044601384
 21
283.65467332017101
  0
LINE
  8
_0-f_
  6
CONTINUOUS
 62
    7
 10
408.69967044601384
 20
283.65467332017101
 11
408.69967044601384
 21
283.17459332017103
  0
LINE
  8
_0-f_
  6
CONTINUOUS
 62
    7
 10
408.69967044601384
 20
283.17459332017103
 11
408.99567844601387
 21
283.17459332017103
  0
ARC
  8
_0-f_
  6
CONTINUOUS
 62
    7
 10
408.99567844601387
 20
283.574593320171
 40
0.4
 50
270
 51
0
  0
LINE
  8
_0-f_
  6
CONTINUOUS
 62
    7
 10
409.39567844601385
 20
283.574593320171
 11
409.39567844601385
 21
285.13459332017101
  0
LINE
  8
_0-f_
  6
CONTINUOUS
 62
    7
 10
409.39567844601385
 20
285.13459332017101
 11
408.91567044601385
 21
285.13459332017101
  0
LINE
  8
_0-f_
  6
CONTINUOUS
 62
    7
 10
410.76368644601388
 20
285.13459332017101
 11
410.76368644601388
 21
283.5710156471888
  0
ARC
  8
_0-f_
  6
CONTINUOUS
 62
    7
 10
411.1636704460139
 20
283.574593320171
 40
0.4
 50
180.51247073885855
 51
270
  0
LINE
  8
_0-f_
  6
CONTINUOUS
 62
    7
 10
411.1636704460139
 20
283.17459332017103
 11
411.45967844601381
 21
283.17459332017103
  0
LINE
  8
_0-f_
  6
CONTINUOUS
 62
    7
 10
411.45967844601381
 20
283.17459332017103
 11
411.45967844601381
 21
283.65467332017101
  0
LINE
  8
_0-f_
  6
CONTINUOUS
 62
    7
 10
411.45967844601381
 20
283.65467332017101
 11
411.40367044601385
 21
283.65467332017101
  0
ARC
  8
_0-f_
  6
CONTINUOUS
 62
    7
 10
411.40367044601385
 20
283.81467332017098
 40
0.1600000000000022
 50
179.42703981620815
 51
270
  0
LINE
  8
_0-f_
  6
CONTINUOUS
 62
    7
 10
411.24367844601392
 20
283.81627330017454
 11
411.24367844601392
 21
285.13459332017101
  0
LINE
  8
_0-f_
  6
CONTINUOUS
 62
    7
 10
411.24367844601392
 20
285.13459332017101
 11
410.76368644601388
 21
285.13459332017101
  0
LINE
  8
_0-f_
  6
CONTINUOUS
 62
    7
 10
412.87968644601398
 20
285.81467332017098
 11
413.49967844601395
 21
285.81467332017098
  0
LINE
  8
_0-f_
  6
CONTINUOUS
 62
    7
 10
413.49967844601395
 20
285.81467332017098
 11
413.49967844601395
 21
286.25471332017099
  0
LINE
  8
_0-f_
  6
CONTINUOUS
 62
    7
 10
413.49967844601395
 20
286.25471332017099
 11
412.87968644601398
 21
286.25471332017105
  0
LINE
  8
_0-f_
  6
CONTINUOUS
 62
    7
 10
412.87968644601398
 20
286.25471332017105
 11
412.87968644601398
 21
287.17463332017104
  0
LINE
  8
_0-f_
  6
CONTINUOUS
 62
    7
 10
412.87968644601398
 20
287.17463332017104
 11
412.43968644601387
 21
287.17463332017104
  0
LINE
  8
_0-f_
  6
CONTINUOUS
 62
    7
 10
412.43968644601387
 20
287.17463332017104
 11
412.43968644601387
 21
286.25471332017105
  0
LINE
  8
_0-f_
  6
CONTINUOUS
 62
    7
 10
412.43968644601387
 20
286.25471332017105
 11
411.8596784460139
 21
286.25471332017105
  0
LINE
  8
_0-f_
  6
CONTINUOUS
 62
    7
 10
411.8596784460139
 20
286.25471332017105
 11
411.8596784460139
 21
285.81467332017098
  0
LINE
  8
_0-f_
  6
CONTINUOUS
 62
    7
 10
411.8596784460139
 20
285.81467332017098
 11
412.43968644601392
 21
285.81467332017098
  0
LINE
  8
_0-f_
  6
CONTINUOUS
 62
    7
 10
412.43968644601392
 20
285.81467332017098
 11
412.43968644601387
 21
283.65467332017101
  0
LINE
  8
_0-f_
  6
CONTINUOUS
 62
    7
 10
412.43968644601387
 20
283.65467332017101
 11
411.8596784460139
 21
283.65467332017101
  0
LINE
  8
_0-f_
  6
CONTINUOUS
 62
    7
 10
411.8596784460139
 20
283.65467332017101
 11
411.8596784460139
 21
283.17459332017103
  0
LINE
  8
_0-f_
  6
CONTINUOUS
 62
    7
 10
411.8596784460139
 20
283.17459332017103
 11
413.49967844601395
 21
283.17459332017103
  0
LINE
  8
_0-f_
  6
CONTINUOUS
 62
    7
 10
413.49967844601395
 20
283.17459332017103
 11
413.49967844601395
 21
283.65467332017101
  0
LINE
  8
_0-f_
  6
CONTINUOUS
 62
    7
 10
413.49967844601395
 20
283.65467332017101
 11
412.87968644601398
 21
283.65467332017101
  0
LINE
  8
_0-f_
  6
CONTINUOUS
 62
    7
 10
412.87968644601398
 20
283.65467332017101
 11
412.87968644601398
 21
285.81467332017098
  0
LINE
  8
_0-f_
  6
CONTINUOUS
 62
    7
 10
412.87968644601398
 20
285.13459332017101
 11
412.4396864460137
 21
285.13459332017101
  0
LINE
  8
_0-f_
  6
CONTINUOUS
 62
    7
 10
411.24367844601375
 20
285.13459332017101
 11
410.76368644601388
 21
285.13459332017101
  0
LINE
  8
_0-f_
  6
CONTINUOUS
 62
    7
 10
410.34367844601377
 20
285.13459332017101
 11
409.8156864460139
 21
285.13459332017101
  0
LINE
  8
_0-f_
  6
CONTINUOUS
 62
    7
 10
409.39567844601385
 20
285.13459332017101
 11
408.91567044601379
 21
285.13459332017101
  0
LINE
  8
_0-f_
  6
CONTINUOUS
 62
    7
 10
412.87968644601398
 20
285.21459332017105
 11
412.4396864460137
 21
285.21459332017105
  0
LINE
  8
_0-f_
  6
CONTINUOUS
 62
    7
 10
410.34367844601377
 20
285.21459332017105
 11
409.8156864460139
 21
285.21459332017105
  0
LINE
  8
_0-f_
  6
CONTINUOUS
 62
    7
 10
412.87968644601398
 20
285.29459332017097
 11
412.4396864460137
 21
285.29459332017097
  0
LINE
  8
_0-f_
  6
CONTINUOUS
 62
    7
 10
410.34367844601377
 20
285.29459332017097
 11
409.8156864460139
 21
285.29459332017097
  0
LINE
  8
_0-f_
  6
CONTINUOUS
 62
    7
 10
412.87968644601398
 20
285.37459332017102
 11
412.4396864460137
 21
285.37459332017102
  0
LINE
  8
_0-f_
  6
CONTINUOUS
 62
    7
 10
410.34367844601377
 20
285.37459332017102
 11
409.8156864460139
 21
285.37459332017102
  0
LINE
  8
_0-f_
  6
CONTINUOUS
 62
    7
 10
412.87968644601398
 20
285.454593320171
 11
412.4396864460137
 21
285.454593320171
  0
LINE
  8
_0-f_
  6
CONTINUOUS
 62
    7
 10
410.34367844601377
 20
285.454593320171
 11
409.8156864460139
 21
285.454593320171
  0
LINE
  8
_0-f_
  6
CONTINUOUS
 62
    7
 10
412.87968644601398
 20
285.53459332017098
 11
412.4396864460137
 21
285.53459332017098
  0
LINE
  8
_0-f_
  6
CONTINUOUS
 62
    7
 10
410.34367844601377
 20
285.53459332017098
 11
409.8156864460139
 21
285.53459332017098
  0
LINE
  8
_0-f_
  6
CONTINUOUS
 62
    7
 10
412.87968644601398
 20
285.61459332017102
 11
412.4396864460137
 21
285.61459332017102
  0
LINE
  8
_0-f_
  6
CONTINUOUS
 62
    7
 10
410.34367844601377
 20
285.61459332017102
 11
409.8156864460139
 21
285.61459332017102
  0
LINE
  8
_0-f_
  6
CONTINUOUS
 62
    7
 10
412.87968644601398
 20
285.69459332017107
 11
412.4396864460137
 21
285.69459332017107
  0
LINE
  8
_0-f_
  6
CONTINUOUS
 62
    7
 10
411.45967844601381
 20
285.69459332017107
 11
408.69967044601373
 21
285.69459332017107
  0
LINE
  8
_0-f_
  6
CONTINUOUS
 62
    7
 10
412.87968644601398
 20
285.77459332017105
 11
412.4396864460137
 21
285.77459332017105
  0
LINE
  8
_0-f_
  6
CONTINUOUS
 62
    7
 10
411.45967844601381
 20
285.77459332017105
 11
408.69967044601373
 21
285.77459332017105
  0
LINE
  8
_0-f_
  6
CONTINUOUS
 62
    7
 10
413.499678446014
 20
285.85459332017103
 11
411.85967844601379
 21
285.85459332017103
  0
LINE
  8
_0-f_
  6
CONTINUOUS
 62
    7
 10
411.45967844601381
 20
285.85459332017103
 11
408.69967044601373
 21
285.85459332017103
  0
LINE
  8
_0-f_
  6
CONTINUOUS
 62
    7
 10
413.499678446014
 20
285.93459332017107
 11
411.85967844601379
 21
285.93459332017107
  0
LINE
  8
_0-f_
  6
CONTINUOUS
 62
    7
 10
411.45967844601381
 20
285.93459332017107
 11
408.69967044601373
 21
285.93459332017107
  0
LINE
  8
_0-f_
  6
CONTINUOUS
 62
    7
 10
413.499678446014
 20
286.014593320171
 11
411.85967844601379
 21
286.014593320171
  0
LINE
  8
_0-f_
  6
CONTINUOUS
 62
    7
 10
411.45967844601381
 20
286.014593320171
 11
408.69967044601373
 21
286.014593320171
  0
LINE
  8
_0-f_
  6
CONTINUOUS
 62
    7
 10
413.499678446014
 20
286.09459332017104
 11
411.85967844601379
 21
286.09459332017104
  0
LINE
  8
_0-f_
  6
CONTINUOUS
 62
    7
 10
413.499678446014
 20
286.17459332017103
 11
411.85967844601379
 21
286.17459332017103
  0
LINE
  8
_0-f_
  6
CONTINUOUS
 62
    7
 10
413.499678446014
 20
286.25459332017101
 11
411.85967844601379
 21
286.25459332017101
  0
LINE
  8
_0-f_
  6
CONTINUOUS
 62
    7
 10
412.87968644601398
 20
286.33459332017105
 11
412.43968644601392
 21
286.33459332017105
  0
LINE
  8
_0-f_
  6
CONTINUOUS
 62
    7
 10
412.87968644601398
 20
286.41459332017098
 11
412.43968644601392
 21
286.41459332017098
  0
LINE
  8
_0-f_
  6
CONTINUOUS
 62
    7
 10
412.87968644601398
 20
286.49459332017102
 11
412.43968644601392
 21
286.49459332017102
  0
LINE
  8
_0-f_
  6
CONTINUOUS
 62
    7
 10
412.87968644601398
 20
286.57459332017106
 11
412.43968644601392
 21
286.57459332017106
  0
LINE
  8
_0-f_
  6
CONTINUOUS
 62
    7
 10
412.87968644601398
 20
286.65459332017099
 11
412.43968644601392
 21
286.65459332017099
  0
LINE
  8
_0-f_
  6
CONTINUOUS
 62
    7
 10
412.87968644601398
 20
286.73459332017103
 11
412.43968644601392
 21
286.73459332017103
  0
LINE
  8
_0-f_
  6
CONTINUOUS
 62
    7
 10
411.45967844601381
 20
286.73459332017103
 11
408.69967044601373
 21
286.73459332017103
  0
LINE
  8
_0-f_
  6
CONTINUOUS
 62
    7
 10
412.87968644601398
 20
286.81459332017107
 11
412.43968644601392
 21
286.81459332017107
  0
LINE
  8
_0-f_
  6
CONTINUOUS
 62
    7
 10
411.45967844601381
 20
286.81459332017107
 11
408.69967044601373
 21
286.81459332017107
  0
LINE
  8
_0-f_
  6
CONTINUOUS
 62
    7
 10
412.87968644601398
 20
286.89459332017105
 11
412.43968644601392
 21
286.89459332017105
  0
LINE
  8
_0-f_
  6
CONTINUOUS
 62
    7
 10
411.45967844601381
 20
286.89459332017105
 11
408.69967044601373
 21
286.89459332017105
  0
LINE
  8
_0-f_
  6
CONTINUOUS
 62
    7
 10
412.87968644601398
 20
286.97459332017104
 11
412.43968644601392
 21
286.97459332017104
  0
LINE
  8
_0-f_
  6
CONTINUOUS
 62
    7
 10
411.45967844601381
 20
286.97459332017104
 11
408.69967044601373
 21
286.97459332017104
  0
LINE
  8
_0-f_
  6
CONTINUOUS
 62
    7
 10
412.87968644601398
 20
287.05459332017108
 11
412.43968644601392
 21
287.05459332017108
  0
LINE
  8
_0-f_
  6
CONTINUOUS
 62
    7
 10
411.45967844601381
 20
287.05459332017108
 11
408.69967044601373
 21
287.05459332017108
  0
LINE
  8
_0-f_
  6
CONTINUOUS
 62
    7
 10
412.87968644601398
 20
287.13459332017101
 11
412.43968644601392
 21
287.13459332017101
  0
LINE
  8
_0-f_
  6
CONTINUOUS
 62
    7
 10
411.45967844601381
 20
287.13459332017101
 11
408.69967044601373
 21
287.13459332017101
  0
LINE
  8
_0-f_
  6
CONTINUOUS
 62
    7
 10
412.87968644601398
 20
285.05459332017102
 11
412.4396864460137
 21
285.05459332017102
  0
LINE
  8
_0-f_
  6
CONTINUOUS
 62
    7
 10
411.24367844601375
 20
285.05459332017102
 11
410.76368644601388
 21
285.05459332017102
  0
LINE
  8
_0-f_
  6
CONTINUOUS
 62
    7
 10
410.34367844601377
 20
285.05459332017102
 11
409.8156864460139
 21
285.05459332017102
  0
LINE
  8
_0-f_
  6
CONTINUOUS
 62
    7
 10
409.39567844601385
 20
285.05459332017102
 11
408.91567044601379
 21
285.05459332017102
  0
LINE
  8
_0-f_
  6
CONTINUOUS
 62
    7
 10
412.87968644601398
 20
284.97459332017104
 11
412.4396864460137
 21
284.97459332017104
  0
LINE
  8
_0-f_
  6
CONTINUOUS
 62
    7
 10
411.24367844601375
 20
284.97459332017104
 11
410.76368644601388
 21
284.97459332017104
  0
LINE
  8
_0-f_
  6
CONTINUOUS
 62
    7
 10
410.34367844601377
 20
284.97459332017104
 11
409.8156864460139
 21
284.97459332017104
  0
LINE
  8
_0-f_
  6
CONTINUOUS
 62
    7
 10
409.39567844601385
 20
284.97459332017104
 11
408.91567044601379
 21
284.97459332017104
  0
LINE
  8
_0-f_
  6
CONTINUOUS
 62
    7
 10
412.87968644601398
 20
284.894593320171
 11
412.4396864460137
 21
284.894593320171
  0
LINE
  8
_0-f_
  6
CONTINUOUS
 62
    7
 10
411.24367844601375
 20
284.894593320171
 11
410.76368644601388
 21
284.894593320171
  0
LINE
  8
_0-f_
  6
CONTINUOUS
 62
    7
 10
410.34367844601377
 20
284.894593320171
 11
409.8156864460139
 21
284.894593320171
  0
LINE
  8
_0-f_
  6
CONTINUOUS
 62
    7
 10
409.39567844601385
 20
284.894593320171
 11
408.91567044601379
 21
284.894593320171
  0
LINE
  8
_0-f_
  6
CONTINUOUS
 62
    7
 10
412.87968644601398
 20
284.81459332017096
 11
412.4396864460137
 21
284.81459332017096
  0
LINE
  8
_0-f_
  6
CONTINUOUS
 62
    7
 10
411.24367844601375
 20
284.81459332017096
 11
410.76368644601388
 21
284.81459332017096
  0
LINE
  8
_0-f_
  6
CONTINUOUS
 62
    7
 10
410.34367844601377
 20
284.81459332017096
 11
409.8156864460139
 21
284.81459332017096
  0
LINE
  8
_0-f_
  6
CONTINUOUS
 62
    7
 10
409.39567844601385
 20
284.81459332017096
 11
408.91567044601379
 21
284.81459332017096
  0
LINE
  8
_0-f_
  6
CONTINUOUS
 62
    7
 10
412.87968644601398
 20
284.73459332017103
 11
412.4396864460137
 21
284.73459332017103
  0
LINE
  8
_0-f_
  6
CONTINUOUS
 62
    7
 10
411.24367844601375
 20
284.73459332017103
 11
410.76368644601388
 21
284.73459332017103
  0
LINE
  8
_0-f_
  6
CONTINUOUS
 62
    7
 10
410.34367844601377
 20
284.73459332017103
 11
409.8156864460139
 21
284.73459332017103
  0
LINE
  8
_0-f_
  6
CONTINUOUS
 62
    7
 10
409.39567844601385
 20
284.73459332017103
 11
408.91567044601379
 21
284.73459332017103
  0
LINE
  8
_0-f_
  6
CONTINUOUS
 62
    7
 10
412.87968644601398
 20
284.65459332017099
 11
412.4396864460137
 21
284.65459332017099
  0
LINE
  8
_0-f_
  6
CONTINUOUS
 62
    7
 10
411.24367844601375
 20
284.65459332017099
 11
410.76368644601388
 21
284.65459332017099
  0
LINE
  8
_0-f_
  6
CONTINUOUS
 62
    7
 10
410.34367844601377
 20
284.65459332017099
 11
409.8156864460139
 21
284.65459332017099
  0
LINE
  8
_0-f_
  6
CONTINUOUS
 62
    7
 10
409.39567844601385
 20
284.65459332017099
 11
408.91567044601379
 21
284.65459332017099
  0
LINE
  8
_0-f_
  6
CONTINUOUS
 62
    7
 10
412.87968644601398
 20
284.57459332017095
 11
412.4396864460137
 21
284.57459332017095
  0
LINE
  8
_0-f_
  6
CONTINUOUS
 62
    7
 10
411.24367844601375
 20
284.57459332017095
 11
410.76368644601388
 21
284.57459332017095
  0
LINE
  8
_0-f_
  6
CONTINUOUS
 62
    7
 10
410.34367844601377
 20
284.57459332017095
 11
409.8156864460139
 21
284.57459332017095
  0
LINE
  8
_0-f_
  6
CONTINUOUS
 62
    7
 10
409.39567844601385
 20
284.57459332017095
 11
408.91567044601379
 21
284.57459332017095
  0
LINE
  8
_0-f_
  6
CONTINUOUS
 62
    7
 10
412.87968644601398
 20
284.49459332017102
 11
412.4396864460137
 21
284.49459332017102
  0
LINE
  8
_0-f_
  6
CONTINUOUS
 62
    7
 10
411.24367844601375
 20
284.49459332017102
 11
410.76368644601388
 21
284.49459332017102
  0
LINE
  8
_0-f_
  6
CONTINUOUS
 62
    7
 10
410.34367844601377
 20
284.49459332017102
 11
409.8156864460139
 21
284.49459332017102
  0
LINE
  8
_0-f_
  6
CONTINUOUS
 62
    7
 10
409.39567844601385
 20
284.49459332017102
 11
408.91567044601379
 21
284.49459332017102
  0
LINE
  8
_0-f_
  6
CONTINUOUS
 62
    7
 10
412.87968644601398
 20
284.41459332017098
 11
412.4396864460137
 21
284.41459332017098
  0
LINE
  8
_0-f_
  6
CONTINUOUS
 62
    7
 10
411.24367844601375
 20
284.41459332017098
 11
410.76368644601388
 21
284.41459332017098
  0
LINE
  8
_0-f_
  6
CONTINUOUS
 62
    7
 10
410.34367844601377
 20
284.41459332017098
 11
409.8156864460139
 21
284.41459332017098
  0
LINE
  8
_0-f_
  6
CONTINUOUS
 62
    7
 10
409.39567844601385
 20
284.41459332017098
 11
408.91567044601379
 21
284.41459332017098
  0
LINE
  8
_0-f_
  6
CONTINUOUS
 62
    7
 10
412.87968644601398
 20
284.334593320171
 11
412.4396864460137
 21
284.334593320171
  0
LINE
  8
_0-f_
  6
CONTINUOUS
 62
    7
 10
411.24367844601375
 20
284.334593320171
 11
410.76368644601388
 21
284.334593320171
  0
LINE
  8
_0-f_
  6
CONTINUOUS
 62
    7
 10
410.34367844601377
 20
284.334593320171
 11
409.8156864460139
 21
284.334593320171
  0
LINE
  8
_0-f_
  6
CONTINUOUS
 62
    7
 10
409.39567844601385
 20
284.334593320171
 11
408.91567044601379
 21
284.334593320171
  0
LINE
  8
_0-f_
  6
CONTINUOUS
 62
    7
 10
412.87968644601398
 20
284.25459332017101
 11
412.4396864460137
 21
284.25459332017101
  0
LINE
  8
_0-f_
  6
CONTINUOUS
 62
    7
 10
411.24367844601375
 20
284.25459332017101
 11
410.76368644601388
 21
284.25459332017101
  0
LINE
  8
_0-f_
  6
CONTINUOUS
 62
    7
 10
410.34367844601377
 20
284.25459332017101
 11
409.8156864460139
 21
284.25459332017101
  0
LINE
  8
_0-f_
  6
CONTINUOUS
 62
    7
 10
409.39567844601385
 20
284.25459332017101
 11
408.91567044601379
 21
284.25459332017101
  0
LINE
  8
_0-f_
  6
CONTINUOUS
 62
    7
 10
412.87968644601398
 20
284.17459332017097
 11
412.4396864460137
 21
284.17459332017097
  0
LINE
  8
_0-f_
  6
CONTINUOUS
 62
    7
 10
411.24367844601375
 20
284.17459332017097
 11
410.76368644601388
 21
284.17459332017097
  0
LINE
  8
_0-f_
  6
CONTINUOUS
 62
    7
 10
410.34367844601377
 20
284.17459332017097
 11
409.8156864460139
 21
284.17459332017097
  0
LINE
  8
_0-f_
  6
CONTINUOUS
 62
    7
 10
409.39567844601385
 20
284.17459332017097
 11
408.91567044601379
 21
284.17459332017097
  0
LINE
  8
_0-f_
  6
CONTINUOUS
 62
    7
 10
412.87968644601398
 20
284.09459332017104
 11
412.4396864460137
 21
284.09459332017104
  0
LINE
  8
_0-f_
  6
CONTINUOUS
 62
    7
 10
411.24367844601375
 20
284.09459332017104
 11
410.76368644601388
 21
284.09459332017104
  0
LINE
  8
_0-f_
  6
CONTINUOUS
 62
    7
 10
410.34367844601377
 20
284.09459332017104
 11
409.8156864460139
 21
284.09459332017104
  0
LINE
  8
_0-f_
  6
CONTINUOUS
 62
    7
 10
409.39567844601385
 20
284.09459332017104
 11
408.91567044601379
 21
284.09459332017104
  0
LINE
  8
_0-f_
  6
CONTINUOUS
 62
    7
 10
412.87968644601398
 20
284.014593320171
 11
412.4396864460137
 21
284.014593320171
  0
LINE
  8
_0-f_
  6
CONTINUOUS
 62
    7
 10
411.24367844601375
 20
284.014593320171
 11
410.76368644601388
 21
284.014593320171
  0
LINE
  8
_0-f_
  6
CONTINUOUS
 62
    7
 10
410.34367844601377
 20
284.014593320171
 11
409.8156864460139
 21
284.014593320171
  0
LINE
  8
_0-f_
  6
CONTINUOUS
 62
    7
 10
409.39567844601385
 20
284.014593320171
 11
408.91567044601379
 21
284.014593320171
  0
LINE
  8
_0-f_
  6
CONTINUOUS
 62
    7
 10
412.87968644601398
 20
283.93459332017102
 11
412.4396864460137
 21
283.93459332017102
  0
LINE
  8
_0-f_
  6
CONTINUOUS
 62
    7
 10
411.24367844601375
 20
283.93459332017102
 11
410.76368644601388
 21
283.93459332017102
  0
LINE
  8
_0-f_
  6
CONTINUOUS
 62
    7
 10
410.34367844601377
 20
283.93459332017102
 11
409.8156864460139
 21
283.93459332017102
  0
LINE
  8
_0-f_
  6
CONTINUOUS
 62
    7
 10
409.39567844601385
 20
283.93459332017102
 11
408.91567044601379
 21
283.93459332017102
  0
LINE
  8
_0-f_
  6
CONTINUOUS
 62
    7
 10
412.87968644601398
 20
283.85459332017103
 11
412.4396864460137
 21
283.85459332017103
  0
LINE
  8
_0-f_
  6
CONTINUOUS
 62
    7
 10
411.24367844601375
 20
283.85459332017103
 11
410.76368644601388
 21
283.85459332017103
  0
LINE
  8
_0-f_
  6
CONTINUOUS
 62
    7
 10
410.34367844601377
 20
283.85459332017103
 11
409.8156864460139
 21
283.85459332017103
  0
LINE
  8
_0-f_
  6
CONTINUOUS
 62
    7
 10
409.39567844601385
 20
283.85459332017103
 11
408.91567044601379
 21
283.85459332017103
  0
LINE
  8
_0-f_
  6
CONTINUOUS
 62
    7
 10
412.87968644601398
 20
283.77459332017099
 11
412.4396864460137
 21
283.77459332017099
  0
LINE
  8
_0-f_
  6
CONTINUOUS
 62
    7
 10
411.24921588304875
 20
283.77459332017099
 11
410.76368644601388
 21
283.77459332017099
  0
LINE
  8
_0-f_
  6
CONTINUOUS
 62
    7
 10
410.34367844601377
 20
283.77459332017099
 11
409.8156864460139
 21
283.77459332017099
  0
LINE
  8
_0-f_
  6
CONTINUOUS
 62
    7
 10
409.39567844601385
 20
283.77459332017099
 11
408.91009524788188
 21
283.77459332017099
  0
LINE
  8
_0-f_
  6
CONTINUOUS
 62
    7
 10
412.87968644601398
 20
283.69459332017095
 11
412.4396864460137
 21
283.69459332017095
  0
LINE
  8
_0-f_
  6
CONTINUOUS
 62
    7
 10
411.29867954085444
 20
283.69459332017095
 11
410.76368644601388
 21
283.69459332017095
  0
LINE
  8
_0-f_
  6
CONTINUOUS
 62
    7
 10
410.34367844601377
 20
283.69459332017095
 11
409.8156864460139
 21
283.69459332017095
  0
LINE
  8
_0-f_
  6
CONTINUOUS
 62
    7
 10
409.39567844601385
 20
283.69459332017095
 11
408.86068612014463
 21
283.69459332017095
  0
LINE
  8
_0-f_
  6
CONTINUOUS
 62
    7
 10
413.49967844601377
 20
283.61459332017097
 11
411.85967844601402
 21
283.61459332017097
  0
LINE
  8
_0-f_
  6
CONTINUOUS
 62
    7
 10
411.45967844601364
 20
283.61459332017097
 11
410.76368644601388
 21
283.61459332017097
  0
LINE
  8
_0-f_
  6
CONTINUOUS
 62
    7
 10
410.34367844601377
 20
283.61459332017097
 11
409.8156864460139
 21
283.61459332017097
  0
LINE
  8
_0-f_
  6
CONTINUOUS
 62
    7
 10
409.39567844601385
 20
283.61459332017097
 11
408.6996704460139
 21
283.61459332017097
  0
LINE
  8
_0-f_
  6
CONTINUOUS
 62
    7
 10
413.49967844601377
 20
283.53459332017098
 11
411.85967844601402
 21
283.53459332017098
  0
LINE
  8
_0-f_
  6
CONTINUOUS
 62
    7
 10
411.45967844601364
 20
283.53459332017098
 11
410.76688133793385
 21
283.53459332017098
  0
LINE
  8
_0-f_
  6
CONTINUOUS
 62
    7
 10
410.34367844601377
 20
283.53459332017098
 11
409.8156864460139
 21
283.53459332017098
  0
LINE
  8
_0-f_
  6
CONTINUOUS
 62
    7
 10
409.39253026116779
 20
283.53459332017098
 11
408.6996704460139
 21
283.53459332017098
  0
LINE
  8
_0-f_
  6
CONTINUOUS
 62
    7
 10
413.49967844601377
 20
283.45459332017094
 11
411.85967844601402
 21
283.45459332017094
  0
LINE
  8
_0-f_
  6
CONTINUOUS
 62
    7
 10
411.45967844601364
 20
283.45459332017094
 11
410.78262093975599
 21
283.45459332017094
  0
LINE
  8
_0-f_
  6
CONTINUOUS
 62
    7
 10
410.34367844601377
 20
283.45459332017094
 11
409.8156864460139
 21
283.45459332017094
  0
LINE
  8
_0-f_
  6
CONTINUOUS
 62
    7
 10
409.37696704390021
 20
283.45459332017094
 11
408.6996704460139
 21
283.45459332017094
  0
LINE
  8
_0-f_
  6
CONTINUOUS
 62
    7
 10
413.49967844601377
 20
283.37459332017102
 11
411.85967844601402
 21
283.37459332017102
  0
LINE
  8
_0-f_
  6
CONTINUOUS
 62
    7
 10
411.45967844601364
 20
283.37459332017102
 11
410.81842422755773
 21
283.37459332017102
  0
LINE
  8
_0-f_
  6
CONTINUOUS
 62
    7
 10
410.34367844601377
 20
283.37459332017102
 11
409.8156864460139
 21
283.37459332017102
  0
LINE
  8
_0-f_
  6
CONTINUOUS
 62
    7
 10
409.34080297136751
 20
283.37459332017102
 11
408.6996704460139
 21
283.37459332017102
  0
LINE
  8
_0-f_
  6
CONTINUOUS
 62
    7
 10
413.49967844601377
 20
283.29459332017097
 11
411.85967844601402
 21
283.29459332017097
  0
LINE
  8
_0-f_
  6
CONTINUOUS
 62
    7
 10
411.45967844601364
 20
283.29459332017097
 11
410.87870713158821
 21
283.29459332017097
  0
LINE
  8
_0-f_
  6
CONTINUOUS
 62
    7
 10
410.34367844601377
 20
283.29459332017097
 11
409.8156864460139
 21
283.29459332017097
  0
LINE
  8
_0-f_
  6
CONTINUOUS
 62
    7
 10
409.28094887028931
 20
283.29459332017097
 11
408.6996704460139
 21
283.29459332017097
  0
LINE
  8
_0-f_
  6
CONTINUOUS
 62
    7
 10
413.49967844601377
 20
283.21459332017099
 11
411.85967844601402
 21
283.21459332017099
  0
LINE
  8
_0-f_
  6
CONTINUOUS
 62
    7
 10
411.45967844601364
 20
283.21459332017099
 11
410.99019320374589
 21
283.21459332017099
  0
LINE
  8
_0-f_
  6
CONTINUOUS
 62
    7
 10
410.34367844601377
 20
283.21459332017099
 11
409.8156864460139
 21
283.21459332017099
  0
LINE
  8
_0-f_
  6
CONTINUOUS
 62
    7
 10
409.16858910272111
 20
283.21459332017099
 11
408.6996704460139
 21
283.21459332017099
  0
LINE
  8
_0-f_
  6
CONTINUOUS
 62
    7
 10
409.8156864460139
 20
285.61467332017105
 11
409.8156864460139
 21
283.17459332017103
  0
LINE
  8
_0-f_
  6
CONTINUOUS
 62
    7
 10
410.34367844601377
 20
285.61467332017105
 11
410.34367844601377
 21
283.17459332017103
  0
LINE
  8
_0-f_
  6
CONTINUOUS
 62
    7
 10
408.91567044601385
 20
285.13459332017101
 11
408.91567044601385
 21
283.81467332017098
  0
LINE
  8
_0-f_
  6
CONTINUOUS
 62
    7
 10
409.39567844601385
 20
285.13459332017101
 11
409.39567844601385
 21
283.574593320171
  0
ARC
  8
_0-f_
  6
CONTINUOUS
 62
    7
 10
408.75567844601386
 20
283.81467332017098
 40
0.16
 50
270
 51
0
  0
LINE
  8
_0-f_
  6
CONTINUOUS
 62
    7
 10
408.69967044601384
 20
283.17459332017103
 11
408.99567844601387
 21
283.17459332017103
  0
LINE
  8
_0-f_
  6
CONTINUOUS
 62
    7
 10
408.69967044601384
 20
283.65467332017101
 11
408.75567844601386
 21
283.65467332017101
  0
LINE
  8
_0-f_
  6
CONTINUOUS
 62
    7
 10
408.69967044601384
 20
283.65467332017101
 11
408.69967044601384
 21
283.17459332017103
  0
ARC
  8
_0-f_
  6
CONTINUOUS
 62
    7
 10
408.99567844601387
 20
283.574593320171
 40
0.4
 50
270
 51
0
  0
LINE
  8
_0-f_
  6
CONTINUOUS
 62
    7
 10
408.91567044601385
 20
285.13459332017101
 11
409.39567844601385
 21
285.13459332017101
  0
LINE
  8
_0-f_
  6
CONTINUOUS
 62
    7
 10
409.8156864460139
 20
283.17459332017103
 11
410.34367844601377
 21
283.17459332017103
  0
LINE
  8
_0-f_
  6
CONTINUOUS
 62
    7
 10
410.76368644601388
 20
285.13459332017101
 11
410.76368644601388
 21
283.574593320171
  0
LINE
  8
_0-f_
  6
CONTINUOUS
 62
    7
 10
411.24367844601392
 20
285.13459332017101
 11
411.24367844601392
 21
283.81467332017098
  0
ARC
  8
_0-f_
  6
CONTINUOUS
 62
    7
 10
411.1636704460139
 20
283.574593320171
 40
0.4
 50
180
 51
270
  0
LINE
  8
_0-f_
  6
CONTINUOUS
 62
    7
 10
411.1636704460139
 20
283.17459332017103
 11
411.45967844601381
 21
283.17459332017103
  0
LINE
  8
_0-f_
  6
CONTINUOUS
 62
    7
 10
411.45967844601381
 20
283.65467332017101
 11
411.45967844601381
 21
283.17459332017103
  0
LINE
  8
_0-f_
  6
CONTINUOUS
 62
    7
 10
411.40367044601385
 20
283.65467332017101
 11
411.45967844601381
 21
283.65467332017101
  0
ARC
  8
_0-f_
  6
CONTINUOUS
 62
    7
 10
411.40367044601385
 20
283.81467332017098
 40
0.16
 50
180
 51
270
  0
LINE
  8
_0-f_
  6
CONTINUOUS
 62
    7
 10
410.76368644601388
 20
285.13459332017101
 11
411.24367844601392
 21
285.13459332017101
  0
LINE
  8
_0-f_
  6
CONTINUOUS
 62
    7
 10
408.69967044601384
 20
287.17463332017104
 11
411.45967844601381
 21
287.17463332017104
  0
LINE
  8
_0-f_
  6
CONTINUOUS
 62
    7
 10
408.69967044601384
 20
286.73459332017103
 11
411.45967844601381
 21
286.73459332017103
  0
LINE
  8
_0-f_
  6
CONTINUOUS
 62
    7
 10
408.69967044601384
 20
286.054713320171
 11
411.45967844601381
 21
286.054713320171
  0
LINE
  8
_0-f_
  6
CONTINUOUS
 62
    7
 10
408.69967044601384
 20
285.61467332017105
 11
409.8156864460139
 21
285.61467332017105
  0
LINE
  8
_0-f_
  6
CONTINUOUS
 62
    7
 10
408.69967044601384
 20
286.054713320171
 11
408.69967044601384
 21
285.61467332017105
  0
LINE
  8
_0-f_
  6
CONTINUOUS
 62
    7
 10
408.69967044601384
 20
287.17463332017104
 11
408.69967044601384
 21
286.73459332017103
  0
LINE
  8
_0-f_
  6
CONTINUOUS
 62
    7
 10
410.34367844601377
 20
285.61467332017105
 11
411.45967844601381
 21
285.61467332017105
  0
LINE
  8
_0-f_
  6
CONTINUOUS
 62
    7
 10
411.45967844601381
 20
286.054713320171
 11
411.45967844601381
 21
285.61467332017105
  0
LINE
  8
_0-f_
  6
CONTINUOUS
 62
    7
 10
411.45967844601381
 20
287.17463332017104
 11
411.45967844601381
 21
286.73459332017103
  0
LINE
  8
_0-f_
  6
CONTINUOUS
 62
    7
 10
412.43968644601387
 20
285.81467332017098
 11
412.43968644601387
 21
283.65467332017101
  0
LINE
  8
_0-f_
  6
CONTINUOUS
 62
    7
 10
412.87968644601398
 20
285.81467332017098
 11
412.87968644601398
 21
283.65467332017101
  0
LINE
  8
_0-f_
  6
CONTINUOUS
 62
    7
 10
411.8596784460139
 20
283.17459332017103
 11
413.49967844601395
 21
283.17459332017103
  0
LINE
  8
_0-f_
  6
CONTINUOUS
 62
    7
 10
411.8596784460139
 20
283.65467332017101
 11
412.43968644601387
 21
283.65467332017101
  0
LINE
  8
_0-f_
  6
CONTINUOUS
 62
    7
 10
411.8596784460139
 20
283.65467332017101
 11
411.8596784460139
 21
283.17459332017103
  0
LINE
  8
_0-f_
  6
CONTINUOUS
 62
    7
 10
413.49967844601395
 20
283.65467332017101
 11
412.87968644601398
 21
283.65467332017101
  0
LINE
  8
_0-f_
  6
CONTINUOUS
 62
    7
 10
413.49967844601395
 20
283.65467332017101
 11
413.49967844601395
 21
283.17459332017103
  0
LINE
  8
_0-f_
  6
CONTINUOUS
 62
    7
 10
412.43968644601387
 20
287.17463332017104
 11
412.87968644601398
 21
287.17463332017104
  0
LINE
  8
_0-f_
  6
CONTINUOUS
 62
    7
 10
412.43968644601387
 20
287.17463332017104
 11
412.43968644601387
 21
286.25471332017105
  0
LINE
  8
_0-f_
  6
CONTINUOUS
 62
    7
 10
411.8596784460139
 20
286.25471332017105
 11
412.43968644601387
 21
286.25471332017105
  0
LINE
  8
_0-f_
  6
CONTINUOUS
 62
    7
 10
411.8596784460139
 20
285.81467332017098
 11
412.43968644601387
 21
285.81467332017098
  0
LINE
  8
_0-f_
  6
CONTINUOUS
 62
    7
 10
411.8596784460139
 20
286.25471332017105
 11
411.8596784460139
 21
285.81467332017098
  0
LINE
  8
_0-f_
  6
CONTINUOUS
 62
    7
 10
412.87968644601398
 20
287.17463332017104
 11
412.87968644601398
 21
286.25471332017105
  0
LINE
  8
_0-f_
  6
CONTINUOUS
 62
    7
 10
413.49967844601395
 20
285.81467332017098
 11
412.87968644601398
 21
285.81467332017098
  0
LINE
  8
_0-f_
  6
CONTINUOUS
 62
    7
 10
412.87968644601398
 20
286.25471332017105
 11
413.49967844601395
 21
286.25471332017105
  0
LINE
  8
_0-f_
  6
CONTINUOUS
 62
    7
 10
413.49967844601395
 20
286.25334532017104
 11
413.49967844601395
 21
285.81467332017098
  0
LINE
  8
_0-f_
  6
CONTINUOUS
 62
    7
 10
386.023028071449
 20
287.17463332017104
 11
381.86302007144883
 21
287.17463332017104
  0
LINE
  8
_0-f_
  6
CONTINUOUS
 62
    7
 10
381.86302007144883
 20
287.17463332017104
 11
381.86302007144883
 21
286.694553320171
  0
LINE
  8
_0-f_
  6
CONTINUOUS
 62
    7
 10
381.86302007144883
 20
286.694553320171
 11
383.54300407144888
 21
286.69455332017105
  0
LINE
  8
_0-f_
  6
CONTINUOUS
 62
    7
 10
383.54300407144888
 20
286.69455332017105
 11
383.54300407144888
 21
283.65467332017101
  0
LINE
  8
_0-f_
  6
CONTINUOUS
 62
    7
 10
383.54300407144888
 20
283.65467332017101
 11
381.54302807144876
 21
283.65467332017101
  0
LINE
  8
_0-f_
  6
CONTINUOUS
 62
    7
 10
381.54302807144876
 20
283.65467332017101
 11
381.54302807144876
 21
283.17459332017103
  0
LINE
  8
_0-f_
  6
CONTINUOUS
 62
    7
 10
381.54302807144876
 20
283.17459332017103
 11
386.34300407144895
 21
283.17459332017103
  0
LINE
  8
_0-f_
  6
CONTINUOUS
 62
    7
 10
386.34300407144895
 20
283.17459332017103
 11
386.34300407144895
 21
283.65467332017101
  0
LINE
  8
_0-f_
  6
CONTINUOUS
 62
    7
 10
386.34300407144895
 20
283.65467332017101
 11
384.34300407144883
 21
283.65467332017101
  0
LINE
  8
_0-f_
  6
CONTINUOUS
 62
    7
 10
384.34300407144883
 20
283.65467332017101
 11
384.34300407144883
 21
286.694553320171
  0
LINE
  8
_0-f_
  6
CONTINUOUS
 62
    7
 10
384.34300407144883
 20
286.694553320171
 11
386.023028071449
 21
286.69455332017105
  0
LINE
  8
_0-f_
  6
CONTINUOUS
 62
    7
 10
386.023028071449
 20
286.69455332017105
 11
386.023028071449
 21
287.17463332017104
  0
LINE
  8
_0-f_
  6
CONTINUOUS
 62
    7
 10
384.34300407144883
 20
285.13459332017101
 11
383.54300407144888
 21
285.13459332017101
  0
LINE
  8
_0-f_
  6
CONTINUOUS
 62
    7
 10
384.34300407144883
 20
285.21459332017105
 11
383.54300407144888
 21
285.21459332017105
  0
LINE
  8
_0-f_
  6
CONTINUOUS
 62
    7
 10
384.34300407144883
 20
285.29459332017097
 11
383.54300407144888
 21
285.29459332017097
  0
LINE
  8
_0-f_
  6
CONTINUOUS
 62
    7
 10
384.34300407144883
 20
285.37459332017102
 11
383.54300407144888
 21
285.37459332017102
  0
LINE
  8
_0-f_
  6
CONTINUOUS
 62
    7
 10
384.34300407144883
 20
285.454593320171
 11
383.54300407144888
 21
285.454593320171
  0
LINE
  8
_0-f_
  6
CONTINUOUS
 62
    7
 10
384.34300407144883
 20
285.53459332017098
 11
383.54300407144888
 21
285.53459332017098
  0
LINE
  8
_0-f_
  6
CONTINUOUS
 62
    7
 10
384.34300407144883
 20
285.61459332017102
 11
383.54300407144888
 21
285.61459332017102
  0
LINE
  8
_0-f_
  6
CONTINUOUS
 62
    7
 10
384.34300407144883
 20
285.69459332017107
 11
383.54300407144888
 21
285.69459332017107
  0
LINE
  8
_0-f_
  6
CONTINUOUS
 62
    7
 10
384.34300407144883
 20
285.77459332017105
 11
383.54300407144888
 21
285.77459332017105
  0
LINE
  8
_0-f_
  6
CONTINUOUS
 62
    7
 10
384.34300407144883
 20
285.85459332017103
 11
383.54300407144888
 21
285.85459332017103
  0
LINE
  8
_0-f_
  6
CONTINUOUS
 62
    7
 10
384.34300407144883
 20
285.93459332017107
 11
383.54300407144888
 21
285.93459332017107
  0
LINE
  8
_0-f_
  6
CONTINUOUS
 62
    7
 10
384.34300407144883
 20
286.014593320171
 11
383.54300407144888
 21
286.014593320171
  0
LINE
  8
_0-f_
  6
CONTINUOUS
 62
    7
 10
384.34300407144883
 20
286.09459332017104
 11
383.54300407144888
 21
286.09459332017104
  0
LINE
  8
_0-f_
  6
CONTINUOUS
 62
    7
 10
384.34300407144883
 20
286.17459332017103
 11
383.54300407144888
 21
286.17459332017103
  0
LINE
  8
_0-f_
  6
CONTINUOUS
 62
    7
 10
384.34300407144883
 20
286.25459332017101
 11
383.54300407144888
 21
286.25459332017101
  0
LINE
  8
_0-f_
  6
CONTINUOUS
 62
    7
 10
384.34300407144883
 20
286.33459332017105
 11
383.54300407144888
 21
286.33459332017105
  0
LINE
  8
_0-f_
  6
CONTINUOUS
 62
    7
 10
384.34300407144883
 20
286.41459332017098
 11
383.54300407144888
 21
286.41459332017098
  0
LINE
  8
_0-f_
  6
CONTINUOUS
 62
    7
 10
384.34300407144883
 20
286.49459332017102
 11
383.54300407144888
 21
286.49459332017102
  0
LINE
  8
_0-f_
  6
CONTINUOUS
 62
    7
 10
384.34300407144883
 20
286.57459332017106
 11
383.54300407144888
 21
286.57459332017106
  0
LINE
  8
_0-f_
  6
CONTINUOUS
 62
    7
 10
384.34300407144883
 20
286.65459332017099
 11
383.54300407144888
 21
286.65459332017099
  0
LINE
  8
_0-f_
  6
CONTINUOUS
 62
    7
 10
386.02302807144883
 20
286.73459332017103
 11
381.86302007144883
 21
286.73459332017103
  0
LINE
  8
_0-f_
  6
CONTINUOUS
 62
    7
 10
386.02302807144883
 20
286.81459332017107
 11
381.86302007144883
 21
286.81459332017107
  0
LINE
  8
_0-f_
  6
CONTINUOUS
 62
    7
 10
386.02302807144883
 20
286.89459332017105
 11
381.86302007144883
 21
286.89459332017105
  0
LINE
  8
_0-f_
  6
CONTINUOUS
 62
    7
 10
386.02302807144883
 20
286.97459332017104
 11
381.86302007144883
 21
286.97459332017104
  0
LINE
  8
_0-f_
  6
CONTINUOUS
 62
    7
 10
386.02302807144883
 20
287.05459332017108
 11
381.86302007144883
 21
287.05459332017108
  0
LINE
  8
_0-f_
  6
CONTINUOUS
 62
    7
 10
386.02302807144883
 20
287.13459332017101
 11
381.86302007144883
 21
287.13459332017101
  0
LINE
  8
_0-f_
  6
CONTINUOUS
 62
    7
 10
384.34300407144883
 20
285.05459332017102
 11
383.54300407144888
 21
285.05459332017102
  0
LINE
  8
_0-f_
  6
CONTINUOUS
 62
    7
 10
384.34300407144883
 20
284.97459332017104
 11
383.54300407144888
 21
284.97459332017104
  0
LINE
  8
_0-f_
  6
CONTINUOUS
 62
    7
 10
384.34300407144883
 20
284.894593320171
 11
383.54300407144888
 21
284.894593320171
  0
LINE
  8
_0-f_
  6
CONTINUOUS
 62
    7
 10
384.34300407144883
 20
284.81459332017096
 11
383.54300407144888
 21
284.81459332017096
  0
LINE
  8
_0-f_
  6
CONTINUOUS
 62
    7
 10
384.34300407144883
 20
284.73459332017103
 11
383.54300407144888
 21
284.73459332017103
  0
LINE
  8
_0-f_
  6
CONTINUOUS
 62
    7
 10
384.34300407144883
 20
284.65459332017099
 11
383.54300407144888
 21
284.65459332017099
  0
LINE
  8
_0-f_
  6
CONTINUOUS
 62
    7
 10
384.34300407144883
 20
284.57459332017095
 11
383.54300407144888
 21
284.57459332017095
  0
LINE
  8
_0-f_
  6
CONTINUOUS
 62
    7
 10
384.34300407144883
 20
284.49459332017102
 11
383.54300407144888
 21
284.49459332017102
  0
LINE
  8
_0-f_
  6
CONTINUOUS
 62
    7
 10
384.34300407144883
 20
284.41459332017098
 11
383.54300407144888
 21
284.41459332017098
  0
LINE
  8
_0-f_
  6
CONTINUOUS
 62
    7
 10
384.34300407144883
 20
284.334593320171
 11
383.54300407144888
 21
284.334593320171
  0
LINE
  8
_0-f_
  6
CONTINUOUS
 62
    7
 10
384.34300407144883
 20
284.25459332017101
 11
383.54300407144888
 21
284.25459332017101
  0
LINE
  8
_0-f_
  6
CONTINUOUS
 62
    7
 10
384.34300407144883
 20
284.17459332017097
 11
383.54300407144888
 21
284.17459332017097
  0
LINE
  8
_0-f_
  6
CONTINUOUS
 62
    7
 10
384.34300407144883
 20
284.09459332017104
 11
383.54300407144888
 21
284.09459332017104
  0
LINE
  8
_0-f_
  6
CONTINUOUS
 62
    7
 10
384.34300407144883
 20
284.014593320171
 11
383.54300407144888
 21
284.014593320171
  0
LINE
  8
_0-f_
  6
CONTINUOUS
 62
    7
 10
384.34300407144883
 20
283.93459332017102
 11
383.54300407144888
 21
283.93459332017102
  0
LINE
  8
_0-f_
  6
CONTINUOUS
 62
    7
 10
384.34300407144883
 20
283.85459332017103
 11
383.54300407144888
 21
283.85459332017103
  0
LINE
  8
_0-f_
  6
CONTINUOUS
 62
    7
 10
384.34300407144883
 20
283.77459332017099
 11
383.54300407144888
 21
283.77459332017099
  0
LINE
  8
_0-f_
  6
CONTINUOUS
 62
    7
 10
384.34300407144883
 20
283.69459332017095
 11
383.54300407144888
 21
283.69459332017095
  0
LINE
  8
_0-f_
  6
CONTINUOUS
 62
    7
 10
386.34300407144889
 20
283.61459332017097
 11
381.54302807144876
 21
283.61459332017097
  0
LINE
  8
_0-f_
  6
CONTINUOUS
 62
    7
 10
386.34300407144889
 20
283.53459332017098
 11
381.54302807144876
 21
283.53459332017098
  0
LINE
  8
_0-f_
  6
CONTINUOUS
 62
    7
 10
386.34300407144889
 20
283.45459332017094
 11
381.54302807144876
 21
283.45459332017094
  0
LINE
  8
_0-f_
  6
CONTINUOUS
 62
    7
 10
386.34300407144889
 20
283.37459332017102
 11
381.54302807144876
 21
283.37459332017102
  0
LINE
  8
_0-f_
  6
CONTINUOUS
 62
    7
 10
386.34300407144889
 20
283.29459332017097
 11
381.54302807144876
 21
283.29459332017097
  0
LINE
  8
_0-f_
  6
CONTINUOUS
 62
    7
 10
386.34300407144889
 20
283.21459332017099
 11
381.54302807144876
 21
283.21459332017099
  0
LINE
  8
_0-f_
  6
CONTINUOUS
 62
    7
 10
381.86302007144883
 20
287.17463332017104
 11
386.023028071449
 21
287.17463332017104
  0
LINE
  8
_0-f_
  6
CONTINUOUS
 62
    7
 10
381.54302807144876
 20
283.17459332017103
 11
386.34300407144895
 21
283.17459332017103
  0
LINE
  8
_0-f_
  6
CONTINUOUS
 62
    7
 10
384.34300407144883
 20
283.65467332017101
 11
386.34300407144895
 21
283.65467332017101
  0
LINE
  8
_0-f_
  6
CONTINUOUS
 62
    7
 10
384.34300407144883
 20
286.69455332017105
 11
386.023028071449
 21
286.69455332017105
  0
LINE
  8
_0-f_
  6
CONTINUOUS
 62
    7
 10
383.54300407144888
 20
286.69455332017105
 11
383.54300407144888
 21
283.65467332017101
  0
LINE
  8
_0-f_
  6
CONTINUOUS
 62
    7
 10
384.34300407144883
 20
286.69455332017105
 11
384.34300407144883
 21
283.65467332017101
  0
LINE
  8
_0-f_
  6
CONTINUOUS
 62
    7
 10
381.54302807144876
 20
283.65467332017101
 11
383.54300407144888
 21
283.65467332017101
  0
LINE
  8
_0-f_
  6
CONTINUOUS
 62
    7
 10
381.54302807144876
 20
283.65467332017101
 11
381.54302807144876
 21
283.17459332017103
  0
LINE
  8
_0-f_
  6
CONTINUOUS
 62
    7
 10
381.86302007144883
 20
286.694553320171
 11
383.54300407144888
 21
286.69455332017105
  0
LINE
  8
_0-f_
  6
CONTINUOUS
 62
    7
 10
381.86302007144883
 20
287.17463332017104
 11
381.86302007144883
 21
286.694553320171
  0
LINE
  8
_0-f_
  6
CONTINUOUS
 62
    7
 10
386.34300407144895
 20
283.65467332017101
 11
386.34300407144895
 21
283.17459332017103
  0
LINE
  8
_0-f_
  6
CONTINUOUS
 62
    7
 10
386.023028071449
 20
287.17463332017104
 11
386.023028071449
 21
286.694553320171
  0
LINE
  8
_0-f_
  6
CONTINUOUS
 62
    7
 10
379.62308591344294
 20
285.73459332017103
 11
378.95352158068215
 21
283.89459332017105
  0
LINE
  8
_0-f_
  6
CONTINUOUS
 62
    7
 10
378.95352158068215
 20
283.89459332017105
 11
378.55346846918928
 21
283.89459332017105
  0
LINE
  8
_0-f_
  6
CONTINUOUS
 62
    7
 10
378.55346846918928
 20
283.89459332017105
 11
378.29109246918938
 21
283.17459332017103
  0
LINE
  8
_0-f_
  6
CONTINUOUS
 62
    7
 10
378.29109246918938
 20
283.17459332017103
 11
379.76560448803531
 21
283.17459332017103
  0
ARC
  8
_0-f_
  6
CONTINUOUS
 62
    7
 10
379.76560448803531
 20
283.574593320171
 40
0.4000000000000004
 50
270
 51
339.99904441127069
  0
LINE
  8
_0-f_
  6
CONTINUOUS
 62
    7
 10
380.1414792545894
 20
283.43777899391864
 11
381.12237378590567
 21
286.13262472441954
  0
ARC
  8
_0-f_
  6
CONTINUOUS
 62
    7
 10
380.89684892597313
 20
286.21471332017103
 40
0.2399999999999993
 50
339.99904441126887
 51
90.000000000000014
  0
LINE
  8
_0-f_
  6
CONTINUOUS
 62
    7
 10
380.89684892597313
 20
286.45471332017098
 11
378.85752013889191
 21
286.45471332017098
  0
LINE
  8
_0-f_
  6
CONTINUOUS
 62
    7
 10
378.85752013889191
 20
286.45471332017098
 11
379.00230206221624
 21
286.85255964726377
  0
ARC
  8
_0-f_
  6
CONTINUOUS
 62
    7
 10
378.7767717710899
 20
286.93463332017097
 40
0.2399999999999989
 50
340.002835592856
 51
90.000000000000043
  0
LINE
  8
_0-f_
  6
CONTINUOUS
 62
    7
 10
378.7767717710899
 20
287.17463332017104
 11
377.76473244510083
 21
287.17463332017104
  0
LINE
  8
_0-f_
  6
CONTINUOUS
 62
    7
 10
377.76473244510083
 20
287.17463332017104
 11
377.50314042101206
 21
286.45471332017098
  0
LINE
  8
_0-f_
  6
CONTINUOUS
 62
    7
 10
377.50314042101206
 20
286.45471332017098
 11
376.86309246918938
 21
286.45471332017098
  0
LINE
  8
_0-f_
  6
CONTINUOUS
 62
    7
 10
376.86309246918938
 20
286.45471332017098
 11
376.60066114584799
 21
285.73459332017103
  0
LINE
  8
_0-f_
  6
CONTINUOUS
 62
    7
 10
376.60066114584799
 20
285.73459332017103
 11
377.24072084894004
 21
285.73459332017103
  0
LINE
  8
_0-f_
  6
CONTINUOUS
 62
    7
 10
377.24072084894004
 20
285.73459332017103
 11
376.57110046918933
 21
283.89459332017105
  0
LINE
  8
_0-f_
  6
CONTINUOUS
 62
    7
 10
376.57110046918933
 20
283.89459332017105
 11
375.93108446918927
 21
283.89459332017105
  0
LINE
  8
_0-f_
  6
CONTINUOUS
 62
    7
 10
375.93108446918927
 20
283.89459332017105
 11
375.66870562239444
 21
283.17459332017103
  0
LINE
  8
_0-f_
  6
CONTINUOUS
 62
    7
 10
375.66870562239444
 20
283.17459332017103
 11
377.32805760830297
 21
283.17459332017103
  0
ARC
  8
_0-f_
  6
CONTINUOUS
 62
    7
 10
377.32805760830297
 20
283.65459332017099
 40
0.4800000000000009
 50
270
 51
340.00100452272619
  0
LINE
  8
_0-f_
  6
CONTINUOUS
 62
    7
 10
377.77911294447085
 20
283.49043155935505
 11
378.59587646918931
 21
285.73459332017103
  0
LINE
  8
_0-f_
  6
CONTINUOUS
 62
    7
 10
378.59587646918931
 20
285.73459332017103
 11
379.62308591344294
 21
285.73459332017103
  0
LINE
  8
_0-f_
  6
CONTINUOUS
 62
    7
 10
380.75910121136485
 20
285.13459332017101
 11
379.40474971797744
 21
285.13459332017101
  0
LINE
  8
_0-f_
  6
CONTINUOUS
 62
    7
 10
378.37750624143314
 20
285.13459332017101
 11
377.0223663772822
 21
285.13459332017101
  0
LINE
  8
_0-f_
  6
CONTINUOUS
 62
    7
 10
380.78822034112318
 20
285.21459332017105
 11
379.4338612107062
 21
285.21459332017105
  0
LINE
  8
_0-f_
  6
CONTINUOUS
 62
    7
 10
378.40662227180059
 20
285.21459332017105
 11
377.05148030683659
 21
285.21459332017105
  0
LINE
  8
_0-f_
  6
CONTINUOUS
 62
    7
 10
380.81733947088162
 20
285.29459332017097
 11
379.4629727034349
 21
285.29459332017097
  0
LINE
  8
_0-f_
  6
CONTINUOUS
 62
    7
 10
378.43573830216809
 20
285.29459332017097
 11
377.08059423639099
 21
285.29459332017097
  0
LINE
  8
_0-f_
  6
CONTINUOUS
 62
    7
 10
380.84645860064006
 20
285.37459332017102
 11
379.49208419616366
 21
285.37459332017102
  0
LINE
  8
_0-f_
  6
CONTINUOUS
 62
    7
 10
378.46485433253559
 20
285.37459332017102
 11
377.10970816594534
 21
285.37459332017102
  0
LINE
  8
_0-f_
  6
CONTINUOUS
 62
    7
 10
380.87557773039839
 20
285.454593320171
 11
379.52119568889236
 21
285.454593320171
  0
LINE
  8
_0-f_
  6
CONTINUOUS
 62
    7
 10
378.4939703629031
 20
285.45459332017106
 11
377.13882209549968
 21
285.454593320171
  0
LINE
  8
_0-f_
  6
CONTINUOUS
 62
    7
 10
380.90469686015678
 20
285.53459332017098
 11
379.55030718162106
 21
285.53459332017098
  0
LINE
  8
_0-f_
  6
CONTINUOUS
 62
    7
 10
378.52308639327055
 20
285.53459332017098
 11
377.16793602505408
 21
285.53459332017098
  0
LINE
  8
_0-f_
  6
CONTINUOUS
 62
    7
 10
380.93381598991516
 20
285.61459332017102
 11
379.57941867434988
 21
285.61459332017102
  0
LINE
  8
_0-f_
  6
CONTINUOUS
 62
    7
 10
378.55220242363805
 20
285.61459332017102
 11
377.19704995460847
 21
285.61459332017102
  0
LINE
  8
_0-f_
  6
CONTINUOUS
 62
    7
 10
380.96293511967355
 20
285.69459332017107
 11
379.60853016707858
 21
285.69459332017107
  0
LINE
  8
_0-f_
  6
CONTINUOUS
 62
    7
 10
378.58131845400555
 20
285.69459332017107
 11
377.22616388416287
 21
285.69459332017107
  0
LINE
  8
_0-f_
  6
CONTINUOUS
 62
    7
 10
380.99205424943193
 20
285.77459332017105
 11
376.61523823429673
 21
285.77459332017105
  0
LINE
  8
_0-f_
  6
CONTINUOUS
 62
    7
 10
381.02117337919037
 20
285.85459332017103
 11
376.64439241119408
 21
285.85459332017103
  0
LINE
  8
_0-f_
  6
CONTINUOUS
 62
    7
 10
381.05029250894876
 20
285.93459332017107
 11
376.67354658809143
 21
285.93459332017107
  0
LINE
  8
_0-f_
  6
CONTINUOUS
 62
    7
 10
381.07941163870714
 20
286.014593320171
 11
376.70270076498872
 21
286.014593320171
  0
LINE
  8
_0-f_
  6
CONTINUOUS
 62
    7
 10
381.10853076846547
 20
286.09459332017104
 11
376.73185494188613
 21
286.09459332017104
  0
LINE
  8
_0-f_
  6
CONTINUOUS
 62
    7
 10
381.1330855217069
 20
286.17459332017103
 11
376.76100911878342
 21
286.17459332017103
  0
LINE
  8
_0-f_
  6
CONTINUOUS
 62
    7
 10
381.13289696749439
 20
286.25459332017101
 11
376.79016329568071
 21
286.25459332017101
  0
LINE
  8
_0-f_
  6
CONTINUOUS
 62
    7
 10
381.10392335778488
 20
286.33459332017105
 11
376.81931747257806
 21
286.33459332017105
  0
LINE
  8
_0-f_
  6
CONTINUOUS
 62
    7
 10
381.02835507899329
 20
286.41459332017098
 11
376.84847164947541
 21
286.41459332017098
  0
LINE
  8
_0-f_
  6
CONTINUOUS
 62
    7
 10
378.87203303673454
 20
286.49459332017102
 11
377.51763132266871
 21
286.49459332017102
  0
LINE
  8
_0-f_
  6
CONTINUOUS
 62
    7
 10
378.90114617182519
 20
286.57459332017106
 11
377.54670033301306
 21
286.57459332017106
  0
LINE
  8
_0-f_
  6
CONTINUOUS
 62
    7
 10
378.93025930691573
 20
286.65459332017099
 11
377.57576934335736
 21
286.65459332017099
  0
LINE
  8
_0-f_
  6
CONTINUOUS
 62
    7
 10
378.95937244200627
 20
286.73459332017103
 11
377.60483835370172
 21
286.73459332017103
  0
LINE
  8
_0-f_
  6
CONTINUOUS
 62
    7
 10
378.98848557709692
 20
286.81459332017107
 11
377.63390736404608
 21
286.81459332017107
  0
LINE
  8
_0-f_
  6
CONTINUOUS
 62
    7
 10
379.01301853029793
 20
286.89459332017105
 11
377.6629763743905
 21
286.89459332017105
  0
LINE
  8
_0-f_
  6
CONTINUOUS
 62
    7
 10
379.01280399205052
 20
286.97459332017104
 11
377.6920453847348
 21
286.97459332017104
  0
LINE
  8
_0-f_
  6
CONTINUOUS
 62
    7
 10
378.98380077546744
 20
287.05459332017108
 11
377.72111439507916
 21
287.05459332017108
  0
LINE
  8
_0-f_
  6
CONTINUOUS
 62
    7
 10
378.90815685588871
 20
287.13459332017101
 11
377.75018340542351
 21
287.13459332017101
  0
LINE
  8
_0-f_
  6
CONTINUOUS
 62
    7
 10
380.72998208160647
 20
285.05459332017102
 11
379.37563822524874
 21
285.05459332017102
  0
LINE
  8
_0-f_
  6
CONTINUOUS
 62
    7
 10
378.34839021106563
 20
285.05459332017102
 11
376.9932524477278
 21
285.05459332017102
  0
LINE
  8
_0-f_
  6
CONTINUOUS
 62
    7
 10
380.70086295184808
 20
284.97459332017104
 11
379.34652673251998
 21
284.97459332017104
  0
LINE
  8
_0-f_
  6
CONTINUOUS
 62
    7
 10
378.31927418069813
 20
284.97459332017104
 11
376.96413851817346
 21
284.97459332017104
  0
LINE
  8
_0-f_
  6
CONTINUOUS
 62
    7
 10
380.6717438220897
 20
284.894593320171
 11
379.31741523979127
 21
284.894593320171
  0
LINE
  8
_0-f_
  6
CONTINUOUS
 62
    7
 10
378.29015815033063
 20
284.894593320171
 11
376.93502458861906
 21
284.894593320171
  0
LINE
  8
_0-f_
  6
CONTINUOUS
 62
    7
 10
380.64262469233131
 20
284.81459332017096
 11
379.28830374706251
 21
284.81459332017096
  0
LINE
  8
_0-f_
  6
CONTINUOUS
 62
    7
 10
378.26104211996312
 20
284.81459332017096
 11
376.90591065906466
 21
284.81459332017096
  0
LINE
  8
_0-f_
  6
CONTINUOUS
 62
    7
 10
380.61350556257287
 20
284.73459332017103
 11
379.25919225433381
 21
284.73459332017103
  0
LINE
  8
_0-f_
  6
CONTINUOUS
 62
    7
 10
378.23192608959567
 20
284.73459332017103
 11
376.87679672951026
 21
284.73459332017103
  0
LINE
  8
_0-f_
  6
CONTINUOUS
 62
    7
 10
380.58438643281454
 20
284.65459332017099
 11
379.23008076160511
 21
284.65459332017099
  0
LINE
  8
_0-f_
  6
CONTINUOUS
 62
    7
 10
378.20281005922817
 20
284.65459332017099
 11
376.84768279995592
 21
284.65459332017099
  0
LINE
  8
_0-f_
  6
CONTINUOUS
 62
    7
 10
380.5552673030561
 20
284.57459332017095
 11
379.20096926887629
 21
284.57459332017095
  0
LINE
  8
_0-f_
  6
CONTINUOUS
 62
    7
 10
378.17369402886072
 20
284.57459332017106
 11
376.81856887040158
 21
284.57459332017095
  0
LINE
  8
_0-f_
  6
CONTINUOUS
 62
    7
 10
380.52614817329777
 20
284.49459332017102
 11
379.17185777614759
 21
284.49459332017102
  0
LINE
  8
_0-f_
  6
CONTINUOUS
 62
    7
 10
378.14457799849322
 20
284.49459332017102
 11
376.78945494084718
 21
284.49459332017102
  0
LINE
  8
_0-f_
  6
CONTINUOUS
 62
    7
 10
380.49702904353933
 20
284.41459332017098
 11
379.14274628341889
 21
284.41459332017098
  0
LINE
  8
_0-f_
  6
CONTINUOUS
 62
    7
 10
378.11546196812571
 20
284.41459332017098
 11
376.76034101129278
 21
284.41459332017098
  0
LINE
  8
_0-f_
  6
CONTINUOUS
 62
    7
 10
380.46790991378094
 20
284.334593320171
 11
379.11363479069013
 21
284.334593320171
  0
LINE
  8
_0-f_
  6
CONTINUOUS
 62
    7
 10
378.08634593775821
 20
284.334593320171
 11
376.73122708173838
 21
284.334593320171
  0
LINE
  8
_0-f_
  6
CONTINUOUS
 62
    7
 10
380.43879078402256
 20
284.25459332017101
 11
379.08452329796143
 21
284.25459332017101
  0
LINE
  8
_0-f_
  6
CONTINUOUS
 62
    7
 10
378.05722990739076
 20
284.25459332017101
 11
376.70211315218404
 21
284.25459332017101
  0
LINE
  8
_0-f_
  6
CONTINUOUS
 62
    7
 10
380.40967165426417
 20
284.17459332017097
 11
379.05541180523267
 21
284.17459332017097
  0
LINE
  8
_0-f_
  6
CONTINUOUS
 62
    7
 10
378.02811387702332
 20
284.17459332017097
 11
376.67299922262964
 21
284.17459332017097
  0
LINE
  8
_0-f_
  6
CONTINUOUS
 62
    7
 10
380.38055252450579
 20
284.09459332017104
 11
379.02630031250396
 21
284.09459332017104
  0
LINE
  8
_0-f_
  6
CONTINUOUS
 62
    7
 10
377.99899784665581
 20
284.09459332017104
 11
376.64388529307524
 21
284.09459332017104
  0
LINE
  8
_0-f_
  6
CONTINUOUS
 62
    7
 10
380.35143339474746
 20
284.014593320171
 11
378.9971888197752
 21
284.014593320171
  0
LINE
  8
_0-f_
  6
CONTINUOUS
 62
    7
 10
377.96988181628831
 20
284.014593320171
 11
376.61477136352084
 21
284.014593320171
  0
LINE
  8
_0-f_
  6
CONTINUOUS
 62
    7
 10
380.32231426498902
 20
283.93459332017102
 11
378.9680773270465
 21
283.93459332017102
  0
LINE
  8
_0-f_
  6
CONTINUOUS
 62
    7
 10
377.9407657859208
 20
283.93459332017102
 11
376.5856574339665
 21
283.93459332017102
  0
LINE
  8
_0-f_
  6
CONTINUOUS
 62
    7
 10
380.29319513523058
 20
283.85459332017103
 11
378.53889202474483
 21
283.85459332017103
  0
LINE
  8
_0-f_
  6
CONTINUOUS
 62
    7
 10
377.9116497555533
 20
283.85459332017103
 11
375.91650786658948
 21
283.85459332017103
  0
LINE
  8
_0-f_
  6
CONTINUOUS
 62
    7
 10
380.26407600547225
 20
283.77459332017099
 11
378.50973913585597
 21
283.77459332017099
  0
LINE
  8
_0-f_
  6
CONTINUOUS
 62
    7
 10
377.88253372518579
 20
283.77459332017099
 11
375.88735466139002
 21
283.77459332017099
  0
LINE
  8
_0-f_
  6
CONTINUOUS
 62
    7
 10
380.23495687571386
 20
283.69459332017095
 11
378.48058624696705
 21
283.69459332017095
  0
LINE
  8
_0-f_
  6
CONTINUOUS
 62
    7
 10
377.85341769481835
 20
283.69459332017095
 11
375.85820145619061
 21
283.69459332017095
  0
LINE
  8
_0-f_
  6
CONTINUOUS
 62
    7
 10
380.20583774595548
 20
283.61459332017097
 11
378.45143335807819
 21
283.61459332017097
  0
LINE
  8
_0-f_
  6
CONTINUOUS
 62
    7
 10
377.82430166445084
 20
283.61459332017102
 11
375.82904825099115
 21
283.61459332017097
  0
LINE
  8
_0-f_
  6
CONTINUOUS
 62
    7
 10
380.17671861619709
 20
283.53459332017098
 11
378.42228046918933
 21
283.53459332017098
  0
LINE
  8
_0-f_
  6
CONTINUOUS
 62
    7
 10
377.79518563408334
 20
283.53459332017098
 11
375.7998950457918
 21
283.53459332017098
  0
LINE
  8
_0-f_
  6
CONTINUOUS
 62
    7
 10
380.14759948643871
 20
283.45459332017094
 11
378.39312758030042
 21
283.45459332017094
  0
LINE
  8
_0-f_
  6
CONTINUOUS
 62
    7
 10
377.76353025754173
 20
283.45459332017094
 11
375.77074184059239
 21
283.45459332017094
  0
LINE
  8
_0-f_
  6
CONTINUOUS
 62
    7
 10
380.11072901339162
 20
283.37459332017102
 11
378.36397469141156
 21
283.37459332017102
  0
LINE
  8
_0-f_
  6
CONTINUOUS
 62
    7
 10
377.71769480914725
 20
283.37459332017102
 11
375.74158863539299
 21
283.37459332017102
  0
LINE
  8
_0-f_
  6
CONTINUOUS
 62
    7
 10
380.05087491231131
 20
283.29459332017097
 11
378.3348218025227
 21
283.29459332017097
  0
LINE
  8
_0-f_
  6
CONTINUOUS
 62
    7
 10
377.64336187415097
 20
283.29459332017097
 11
375.71243543019352
 21
283.29459332017097
  0
LINE
  8
_0-f_
  6
CONTINUOUS
 62
    7
 10
379.93851514474204
 20
283.21459332017099
 11
378.30566891363378
 21
283.21459332017099
  0
LINE
  8
_0-f_
  6
CONTINUOUS
 62
    7
 10
377.51623672527654
 20
283.21459332017099
 11
375.68328222499412
 21
283.21459332017099
  0
LINE
  8
_0-f_
  6
CONTINUOUS
 62
    7
 10
378.59587646918931
 20
285.73459332017103
 11
379.62308591344294
 21
285.73459332017103
  0
LINE
  8
_0-f_
  6
CONTINUOUS
 62
    7
 10
378.95352158068215
 20
283.89459332017105
 11
379.62308591344294
 21
285.73459332017103
  0
LINE
  8
_0-f_
  6
CONTINUOUS
 62
    7
 10
378.29109246918938
 20
283.17459332017103
 11
379.76560448803531
 21
283.17459332017103
  0
LINE
  8
_0-f_
  6
CONTINUOUS
 62
    7
 10
378.85747646918924
 20
286.45471332017098
 11
380.89684892597313
 21
286.45471332017098
  0
ARC
  8
_0-f_
  6
CONTINUOUS
 62
    7
 10
378.7767717710899
 20
286.93463332017097
 40
0.2399999999999999
 50
340.00283559285606
 51
90.000000000000014
  0
LINE
  8
_0-f_
  6
CONTINUOUS
 62
    7
 10
376.57110046918933
 20
283.89459332017105
 11
377.24070046918933
 21
285.73453732017106
  0
LINE
  8
_0-f_
  6
CONTINUOUS
 62
    7
 10
377.77911275639696
 20
283.49043104259817
 11
378.59587646918931
 21
285.73459332017103
  0
LINE
  8
_0-f_
  6
CONTINUOUS
 62
    7
 10
375.66870562239444
 20
283.17459332017103
 11
377.32805760830297
 21
283.17459332017103
  0
LINE
  8
_0-f_
  6
CONTINUOUS
 62
    7
 10
375.93108446918927
 20
283.89459332017105
 11
376.57110046918933
 21
283.89459332017105
  0
LINE
  8
_0-f_
  6
CONTINUOUS
 62
    7
 10
375.66870562239444
 20
283.17459332017103
 11
375.93108446918927
 21
283.89459332017105
  0
ARC
  8
_0-f_
  6
CONTINUOUS
 62
    7
 10
377.32805760830297
 20
283.65459332017099
 40
0.4799999999999999
 50
270
 51
340.00093888113781
  0
LINE
  8
_0-f_
  6
CONTINUOUS
 62
    7
 10
378.29109246918938
 20
283.17459332017103
 11
378.55346846918928
 21
283.89459332017105
  0
LINE
  8
_0-f_
  6
CONTINUOUS
 62
    7
 10
378.55346846918928
 20
283.89459332017105
 11
378.95352158068215
 21
283.89459332017105
  0
LINE
  8
_0-f_
  6
CONTINUOUS
 62
    7
 10
376.60068446918956
 20
285.73465732017098
 11
376.86309246918938
 21
286.45471332017098
  0
LINE
  8
_0-f_
  6
CONTINUOUS
 62
    7
 10
376.60068446918956
 20
285.73459332017103
 11
377.24070046918933
 21
285.73459332017103
  0
LINE
  8
_0-f_
  6
CONTINUOUS
 62
    7
 10
377.76470046918945
 20
287.17463332017104
 11
378.7767717710899
 21
287.17463332017104
  0
LINE
  8
_0-f_
  6
CONTINUOUS
 62
    7
 10
377.50314042101206
 20
286.45471332017098
 11
377.76470046918945
 21
287.17454532017098
  0
LINE
  8
_0-f_
  6
CONTINUOUS
 62
    7
 10
376.86309246918938
 20
286.45471332017098
 11
377.50314042101206
 21
286.45471332017098
  0
LINE
  8
_0-f_
  6
CONTINUOUS
 62
    7
 10
378.85747646918924
 20
286.45459332017106
 11
379.00230206221624
 21
286.85255964726377
  0
LINE
  8
_0-f_
  6
CONTINUOUS
 62
    7
 10
380.1414792545894
 20
283.43777899391864
 11
381.12237378590567
 21
286.13262472441954
  0
ARC
  8
_0-f_
  6
CONTINUOUS
 62
    7
 10
379.76560448803531
 20
283.574593320171
 40
0.4
 50
270
 51
339.99904441127069
  0
ARC
  8
_0-f_
  6
CONTINUOUS
 62
    7
 10
380.89684892597313
 20
286.21471332017103
 40
0.2399999999999999
 50
339.99904441127069
 51
90.000000000000043
  0
LINE
  8
_0-f_
  6
CONTINUOUS
 62
    7
 10
376.17701067716786
 20
285.73459332017103
 11
376.32186538332985
 21
286.13263964726389
  0
ARC
  8
_0-f_
  6
CONTINUOUS
 62
    7
 10
376.0963350922035
 20
286.21471332017103
 40
0.2399999999999993
 50
340.00283559286606
 51
89.999999999999915
  0
LINE
  8
_0-f_
  6
CONTINUOUS
 62
    7
 10
376.0963350922035
 20
286.45471332017098
 11
374.90188347314938
 21
286.45471332017098
  0
LINE
  8
_0-f_
  6
CONTINUOUS
 62
    7
 10
374.90188347314938
 20
286.45471332017098
 11
375.04668264048252
 21
286.85254909240837
  0
ARC
  8
_0-f_
  6
CONTINUOUS
 62
    7
 10
374.82115619069759
 20
286.93463332017097
 40
0.2399999999999979
 50
340.00015411793316
 51
89.999999999999986
  0
LINE
  8
_0-f_
  6
CONTINUOUS
 62
    7
 10
374.82115619069759
 20
287.17463332017104
 11
373.6490092092867
 21
287.17463332017104
  0
LINE
  8
_0-f_
  6
CONTINUOUS
 62
    7
 10
373.6490092092867
 20
287.17463332017104
 11
373.38658520928675
 21
286.45471332017098
  0
LINE
  8
_0-f_
  6
CONTINUOUS
 62
    7
 10
373.38658520928675
 20
286.45471332017098
 11
371.42100920928692
 21
286.45471332017098
  0
LINE
  8
_0-f_
  6
CONTINUOUS
 62
    7
 10
371.42100920928692
 20
286.45471332017098
 11
371.158629613188
 21
285.73459332017103
  0
LINE
  8
_0-f_
  6
CONTINUOUS
 62
    7
 10
371.158629613188
 20
285.73459332017103
 11
373.12499172159892
 21
285.73459332017103
  0
LINE
  8
_0-f_
  6
CONTINUOUS
 62
    7
 10
373.12499172159892
 20
285.73459332017103
 11
372.45463035543327
 21
283.89459332017105
  0
LINE
  8
_0-f_
  6
CONTINUOUS
 62
    7
 10
372.45463035543327
 20
283.89459332017105
 11
371.12980120928688
 21
283.89459332017105
  0
LINE
  8
_0-f_
  6
CONTINUOUS
 62
    7
 10
371.12980120928688
 20
283.89459332017105
 11
370.86820120928678
 21
283.17459332017103
  0
LINE
  8
_0-f_
  6
CONTINUOUS
 62
    7
 10
370.86820120928678
 20
283.17459332017103
 11
373.42755834558403
 21
283.17459332017103
  0
ARC
  8
_0-f_
  6
CONTINUOUS
 62
    7
 10
373.42755834558403
 20
283.574593320171
 40
0.399999999999999
 50
270
 51
340.00026326049675
  0
LINE
  8
_0-f_
  6
CONTINUOUS
 62
    7
 10
373.80343602249496
 20
283.43778698990798
 11
374.63939320928671
 21
285.73459332017103
  0
LINE
  8
_0-f_
  6
CONTINUOUS
 62
    7
 10
374.63939320928671
 20
285.73459332017103
 11
376.17701067716786
 21
285.73459332017103
  0
LINE
  8
_0-f_
  6
CONTINUOUS
 62
    7
 10
374.42101419079211
 20
285.13459332017101
 11
372.90639562393619
 21
285.13459332017101
  0
LINE
  8
_0-f_
  6
CONTINUOUS
 62
    7
 10
374.45013139325806
 20
285.21459332017105
 11
372.93554177029125
 21
285.21459332017105
  0
LINE
  8
_0-f_
  6
CONTINUOUS
 62
    7
 10
374.47924859572402
 20
285.29459332017097
 11
372.96468791664626
 21
285.29459332017097
  0
LINE
  8
_0-f_
  6
CONTINUOUS
 62
    7
 10
374.50836579818997
 20
285.37459332017102
 11
372.99383406300132
 21
285.37459332017102
  0
LINE
  8
_0-f_
  6
CONTINUOUS
 62
    7
 10
374.53748300065593
 20
285.454593320171
 11
373.02298020935632
 21
285.45459332017106
  0
LINE
  8
_0-f_
  6
CONTINUOUS
 62
    7
 10
374.56660020312188
 20
285.53459332017098
 11
373.05212635571132
 21
285.53459332017098
  0
LINE
  8
_0-f_
  6
CONTINUOUS
 62
    7
 10
374.59571740558783
 20
285.61459332017102
 11
373.08127250206633
 21
285.61459332017102
  0
LINE
  8
_0-f_
  6
CONTINUOUS
 62
    7
 10
374.62483460805373
 20
285.69459332017107
 11
373.11041864842139
 21
285.69459332017107
  0
LINE
  8
_0-f_
  6
CONTINUOUS
 62
    7
 10
376.1915672447131
 20
285.77459332017105
 11
371.17320382837988
 21
285.77459332017105
  0
LINE
  8
_0-f_
  6
CONTINUOUS
 62
    7
 10
376.22068037980364
 20
285.85459332017103
 11
371.20235225876354
 21
285.85459332017103
  0
LINE
  8
_0-f_
  6
CONTINUOUS
 62
    7
 10
376.24979351489424
 20
285.93459332017107
 11
371.23150068914725
 21
285.93459332017107
  0
LINE
  8
_0-f_
  6
CONTINUOUS
 62
    7
 10
376.27890664998483
 20
286.014593320171
 11
371.26064911953097
 21
286.014593320171
  0
LINE
  8
_0-f_
  6
CONTINUOUS
 62
    7
 10
376.30801978507537
 20
286.09459332017104
 11
371.28979754991462
 21
286.09459332017104
  0
LINE
  8
_0-f_
  6
CONTINUOUS
 62
    7
 10
376.33257274017149
 20
286.17459332017103
 11
371.31894598029834
 21
286.17459332017103
  0
LINE
  8
_0-f_
  6
CONTINUOUS
 62
    7
 10
376.3323835932448
 20
286.25459332017101
 11
371.34809441068205
 21
286.25459332017101
  0
LINE
  8
_0-f_
  6
CONTINUOUS
 62
    7
 10
376.30340936372289
 20
286.33459332017105
 11
371.37724284106582
 21
286.33459332017105
  0
LINE
  8
_0-f_
  6
CONTINUOUS
 62
    7
 10
376.22784105689095
 20
286.41459332017098
 11
371.40639127144948
 21
286.41459332017098
  0
LINE
  8
_0-f_
  6
CONTINUOUS
 62
    7
 10
374.91639848460943
 20
286.49459332017102
 11
373.40112219828552
 21
286.49459332017102
  0
LINE
  8
_0-f_
  6
CONTINUOUS
 62
    7
 10
374.94551585965468
 20
286.57459332017106
 11
373.43028366067017
 21
286.574593320171
  0
LINE
  8
_0-f_
  6
CONTINUOUS
 62
    7
 10
374.97463323469992
 20
286.65459332017099
 11
373.45944512305493
 21
286.65459332017099
  0
LINE
  8
_0-f_
  6
CONTINUOUS
 62
    7
 10
375.00375060974517
 20
286.73459332017103
 11
373.48860658543964
 21
286.73459332017103
  0
LINE
  8
_0-f_
  6
CONTINUOUS
 62
    7
 10
375.03286798479041
 20
286.81459332017107
 11
373.51776804782435
 21
286.81459332017107
  0
LINE
  8
_0-f_
  6
CONTINUOUS
 62
    7
 10
375.05740247148356
 20
286.89459332017105
 11
373.54692951020905
 21
286.89459332017105
  0
LINE
  8
_0-f_
  6
CONTINUOUS
 62
    7
 10
375.05718793653591
 20
286.97459332017104
 11
373.57609097259376
 21
286.97459332017104
  0
LINE
  8
_0-f_
  6
CONTINUOUS
 62
    7
 10
375.02818539879638
 20
287.05459332017108
 11
373.60525243497847
 21
287.05459332017108
  0
LINE
  8
_0-f_
  6
CONTINUOUS
 62
    7
 10
374.95254138039923
 20
287.13459332017101
 11
373.63441389736317
 21
287.13459332017101
  0
LINE
  8
_0-f_
  6
CONTINUOUS
 62
    7
 10
374.39189698832615
 20
285.05459332017102
 11
372.87724947758119
 21
285.05459332017102
  0
LINE
  8
_0-f_
  6
CONTINUOUS
 62
    7
 10
374.3627797858602
 20
284.97459332017104
 11
372.84810333122613
 21
284.97459332017104
  0
LINE
  8
_0-f_
  6
CONTINUOUS
 62
    7
 10
374.33366258339424
 20
284.894593320171
 11
372.81895718487112
 21
284.894593320171
  0
LINE
  8
_0-f_
  6
CONTINUOUS
 62
    7
 10
374.30454538092829
 20
284.81459332017096
 11
372.78981103851606
 21
284.81459332017096
  0
LINE
  8
_0-f_
  6
CONTINUOUS
 62
    7
 10
374.27542817846233
 20
284.73459332017103
 11
372.76066489216106
 21
284.73459332017103
  0
LINE
  8
_0-f_
  6
CONTINUOUS
 62
    7
 10
374.24631097599638
 20
284.65459332017099
 11
372.731518745806
 21
284.65459332017099
  0
LINE
  8
_0-f_
  6
CONTINUOUS
 62
    7
 10
374.21719377353043
 20
284.57459332017106
 11
372.702372599451
 21
284.57459332017095
  0
LINE
  8
_0-f_
  6
CONTINUOUS
 62
    7
 10
374.18807657106447
 20
284.49459332017102
 11
372.67322645309594
 21
284.49459332017102
  0
LINE
  8
_0-f_
  6
CONTINUOUS
 62
    7
 10
374.15895936859857
 20
284.41459332017098
 11
372.64408030674093
 21
284.41459332017098
  0
LINE
  8
_0-f_
  6
CONTINUOUS
 62
    7
 10
374.12984216613262
 20
284.334593320171
 11
372.61493416038587
 21
284.334593320171
  0
LINE
  8
_0-f_
  6
CONTINUOUS
 62
    7
 10
374.10072496366666
 20
284.25459332017101
 11
372.58578801403087
 21
284.25459332017101
  0
LINE
  8
_0-f_
  6
CONTINUOUS
 62
    7
 10
374.07160776120071
 20
284.17459332017097
 11
372.55664186767586
 21
284.17459332017097
  0
LINE
  8
_0-f_
  6
CONTINUOUS
 62
    7
 10
374.04249055873476
 20
284.09459332017104
 11
372.52749572132086
 21
284.09459332017104
  0
LINE
  8
_0-f_
  6
CONTINUOUS
 62
    7
 10
374.01337335626886
 20
284.014593320171
 11
372.4983495749658
 21
284.014593320171
  0
LINE
  8
_0-f_
  6
CONTINUOUS
 62
    7
 10
373.9842561538029
 20
283.93459332017102
 11
372.46920342861074
 21
283.93459332017102
  0
LINE
  8
_0-f_
  6
CONTINUOUS
 62
    7
 10
373.95513895133695
 20
283.85459332017103
 11
371.11526787595346
 21
283.85459332017103
  0
LINE
  8
_0-f_
  6
CONTINUOUS
 62
    7
 10
373.92602174887099
 20
283.77459332017099
 11
371.08620120928686
 21
283.77459332017099
  0
LINE
  8
_0-f_
  6
CONTINUOUS
 62
    7
 10
373.89690454640504
 20
283.69459332017095
 11
371.05713454262013
 21
283.69459332017095
  0
LINE
  8
_0-f_
  6
CONTINUOUS
 62
    7
 10
373.86778734393909
 20
283.61459332017097
 11
371.02806787595352
 21
283.61459332017102
  0
LINE
  8
_0-f_
  6
CONTINUOUS
 62
    7
 10
373.83867014147313
 20
283.53459332017098
 11
370.9990012092868
 21
283.53459332017098
  0
LINE
  8
_0-f_
  6
CONTINUOUS
 62
    7
 10
373.80955293900718
 20
283.45459332017094
 11
370.96993454262014
 21
283.45459332017094
  0
LINE
  8
_0-f_
  6
CONTINUOUS
 62
    7
 10
373.77268287093995
 20
283.37459332017102
 11
370.94086787595342
 21
283.37459332017102
  0
LINE
  8
_0-f_
  6
CONTINUOUS
 62
    7
 10
373.71282876986123
 20
283.29459332017097
 11
370.91180120928675
 21
283.29459332017097
  0
LINE
  8
_0-f_
  6
CONTINUOUS
 62
    7
 10
373.60046900229008
 20
283.21459332017099
 11
370.88273454262008
 21
283.21459332017099
  0
LINE
  8
_0-f_
  6
CONTINUOUS
 62
    7
 10
371.42100920928692
 20
286.45471332017098
 11
373.38658520928675
 21
286.45471332017098
  0
LINE
  8
_0-f_
  6
CONTINUOUS
 62
    7
 10
373.38658520928675
 20
286.45471332017098
 11
371.42100920928692
 21
286.45471332017098
  0
LINE
  8
_0-f_
  6
CONTINUOUS
 62
    7
 10
373.12499172159892
 20
285.73459332017103
 11
371.158629613188
 21
285.73459332017103
  0
LINE
  8
_0-f_
  6
CONTINUOUS
 62
    7
 10
372.45463035543327
 20
283.89459332017105
 11
373.12499172159892
 21
285.73459332017103
  0
LINE
  8
_0-f_
  6
CONTINUOUS
 62
    7
 10
370.86820120928678
 20
283.17459332017103
 11
373.42755834558403
 21
283.17459332017103
  0
LINE
  8
_0-f_
  6
CONTINUOUS
 62
    7
 10
371.12980120928688
 20
283.89459332017105
 11
372.45463035543327
 21
283.89459332017105
  0
LINE
  8
_0-f_
  6
CONTINUOUS
 62
    7
 10
370.86820120928678
 20
283.17459332017103
 11
371.12980120928688
 21
283.89459332017105
  0
LINE
  8
_0-f_
  6
CONTINUOUS
 62
    7
 10
371.158629613188
 20
285.73459332017103
 11
371.42100920928692
 21
286.45471332017098
  0
LINE
  8
_0-f_
  6
CONTINUOUS
 62
    7
 10
373.80343602249496
 20
283.43778698990798
 11
374.63939320928671
 21
285.73459332017103
  0
ARC
  8
_0-f_
  6
CONTINUOUS
 62
    7
 10
373.42755834558403
 20
283.574593320171
 40
0.4
 50
270
 51
340.00026326049698
  0
LINE
  8
_0-f_
  6
CONTINUOUS
 62
    7
 10
374.63939320928671
 20
285.73459332017103
 11
376.17701067716786
 21
285.73459332017103
  0
ARC
  8
_0-f_
  6
CONTINUOUS
 62
    7
 10
374.82115619069759
 20
286.93463332017097
 40
0.2399999999999999
 50
340.00015411793424
 51
89.999999999999957
  0
LINE
  8
_0-f_
  6
CONTINUOUS
 62
    7
 10
373.6490092092867
 20
287.17463332017104
 11
374.82115619069759
 21
287.17463332017104
  0
LINE
  8
_0-f_
  6
CONTINUOUS
 62
    7
 10
373.38658520928675
 20
286.45471332017098
 11
373.6490092092867
 21
287.17463332017104
  0
LINE
  8
_0-f_
  6
CONTINUOUS
 62
    7
 10
374.90188347314938
 20
286.45471332017098
 11
376.0963350922035
 21
286.45471332017098
  0
LINE
  8
_0-f_
  6
CONTINUOUS
 62
    7
 10
374.90188347314938
 20
286.45471332017098
 11
375.04668264048252
 21
286.85254909240837
  0
LINE
  8
_0-f_
  6
CONTINUOUS
 62
    7
 10
376.17701067716786
 20
285.73459332017103
 11
376.32186538332985
 21
286.13263964726389
  0
ARC
  8
_0-f_
  6
CONTINUOUS
 62
    7
 10
376.0963350922035
 20
286.21471332017103
 40
0.2399999999999999
 50
340.00283559286788
 51
89.999999999999986
  0
LINE
  8
_0-f_
  6
CONTINUOUS
 62
    7
 10
364.338302531664
 20
286.39902411339796
 11
364.92708681546316
 21
286.86322743239191
  0
LINE
  8
_0-f_
  6
CONTINUOUS
 62
    7
 10
368.82284722422355
 20
283.562593320171
 11
368.22113296456035
 21
283.41902271890353
  0
LINE
  8
_0-f_
  6
CONTINUOUS
 62
    7
 10
368.22113296456035
 20
283.41902271890353
 11
367.58030214444437
 21
283.34817561916384
  0
LINE
  8
_0-f_
  6
CONTINUOUS
 62
    7
 10
367.58030214444437
 20
283.34817561916384
 11
367.0483622940709
 21
283.34652910649106
  0
LINE
  8
_0-f_
  6
CONTINUOUS
 62
    7
 10
367.0483622940709
 20
283.34652910649106
 11
366.62244492715911
 21
283.38205998649323
  0
LINE
  8
_0-f_
  6
CONTINUOUS
 62
    7
 10
366.62244492715911
 20
283.38205998649323
 11
366.27293686722101
 21
283.45323410642561
  0
LINE
  8
_0-f_
  6
CONTINUOUS
 62
    7
 10
366.27293686722101
 20
283.45323410642561
 11
366.45565623337131
 21
284.13515287029179
  0
LINE
  8
_0-f_
  6
CONTINUOUS
 62
    7
 10
366.45565623337131
 20
284.13515287029179
 11
366.66289385312325
 21
284.90857511045959
  0
LINE
  8
_0-f_
  6
CONTINUOUS
 62
    7
 10
366.66289385312325
 20
284.90857511045959
 11
366.8153806883272
 21
284.8316032987899
  0
LINE
  8
_0-f_
  6
CONTINUOUS
 62
    7
 10
366.8153806883272
 20
284.8316032987899
 11
367.19751017566415
 21
284.45317268866557
  0
LINE
  8
_0-f_
  6
CONTINUOUS
 62
    7
 10
367.19751017566415
 20
284.45317268866557
 11
367.36222674095819
 21
284.29248509669492
  0
LINE
  8
_0-f_
  6
CONTINUOUS
 62
    7
 10
367.36222674095819
 20
284.29248509669492
 11
367.47413810988269
 21
284.22704945397561
  0
LINE
  8
_0-f_
  6
CONTINUOUS
 62
    7
 10
367.47413810988269
 20
284.22704945397561
 11
367.601148478298
 21
284.19995733005032
  0
LINE
  8
_0-f_
  6
CONTINUOUS
 62
    7
 10
367.601148478298
 20
284.19995733005032
 11
368.01255216737479
 21
284.19964976836997
  0
LINE
  8
_0-f_
  6
CONTINUOUS
 62
    7
 10
368.01255216737479
 20
284.19964976836997
 11
368.80131836172279
 21
284.20007100019654
  0
LINE
  8
_0-f_
  6
CONTINUOUS
 62
    7
 10
368.80131836172279
 20
284.20007100019654
 11
369.06097916061327
 21
284.45131248361986
  0
LINE
  8
_0-f_
  6
CONTINUOUS
 62
    7
 10
369.06097916061327
 20
284.45131248361986
 11
369.50876465338604
 21
286.1224703467833
  0
LINE
  8
_0-f_
  6
CONTINUOUS
 62
    7
 10
369.50876465338604
 20
286.1224703467833
 11
369.81000216670679
 21
287.2467038183662
  0
LINE
  8
_0-f_
  6
CONTINUOUS
 62
    7
 10
369.81000216670679
 20
287.2467038183662
 11
368.86635788416606
 21
287.64063008037351
  0
LINE
  8
_0-f_
  6
CONTINUOUS
 62
    7
 10
368.86635788416606
 20
287.64063008037351
 11
367.78654794111469
 21
287.83721785230989
  0
LINE
  8
_0-f_
  6
CONTINUOUS
 62
    7
 10
367.78654794111469
 20
287.83721785230989
 11
366.60418310008276
 21
287.81694180892464
  0
LINE
  8
_0-f_
  6
CONTINUOUS
 62
    7
 10
366.60418310008276
 20
287.81694180892464
 11
365.4781180366839
 21
287.56064697016399
  0
LINE
  8
_0-f_
  6
CONTINUOUS
 62
    7
 10
365.4781180366839
 20
287.56064697016399
 11
364.51989130315519
 21
287.08123137247878
  0
LINE
  8
_0-f_
  6
CONTINUOUS
 62
    7
 10
364.51989130315519
 20
287.08123137247878
 11
363.83094369452152
 21
286.41257602331962
  0
LINE
  8
_0-f_
  6
CONTINUOUS
 62
    7
 10
363.83094369452152
 20
286.41257602331962
 11
363.51618656732717
 21
285.63346593904043
  0
LINE
  8
_0-f_
  6
CONTINUOUS
 62
    7
 10
363.51618656732717
 20
285.63346593904043
 11
363.6032462685472
 21
284.81691612038219
  0
LINE
  8
_0-f_
  6
CONTINUOUS
 62
    7
 10
363.6032462685472
 20
284.81691612038219
 11
364.08222131984098
 21
284.07920450895801
  0
LINE
  8
_0-f_
  6
CONTINUOUS
 62
    7
 10
364.08222131984098
 20
284.07920450895801
 11
364.90719581945763
 21
283.48062429320134
  0
LINE
  8
_0-f_
  6
CONTINUOUS
 62
    7
 10
364.90719581945763
 20
283.48062429320134
 11
365.94389732169321
 21
283.0961249453901
  0
LINE
  8
_0-f_
  6
CONTINUOUS
 62
    7
 10
365.94389732169321
 20
283.0961249453901
 11
367.12142105239059
 21
282.94005008967349
  0
LINE
  8
_0-f_
  6
CONTINUOUS
 62
    7
 10
367.12142105239059
 20
282.94005008967349
 11
367.80825334251188
 21
282.95940813280151
  0
LINE
  8
_0-f_
  6
CONTINUOUS
 62
    7
 10
367.80825334251188
 20
282.95940813280151
 11
368.38474096141931
 21
283.03886419483933
  0
LINE
  8
_0-f_
  6
CONTINUOUS
 62
    7
 10
368.38474096141931
 20
283.03886419483933
 11
368.71142647654199
 21
283.14676877825042
  0
LINE
  8
_0-f_
  6
CONTINUOUS
 62
    7
 10
368.71142647654199
 20
283.14676877825042
 11
368.77803670613321
 21
283.39535953700863
  0
LINE
  8
_0-f_
  6
CONTINUOUS
 62
    7
 10
368.77803670613321
 20
283.39535953700863
 11
368.82284722422355
 21
283.562593320171
  0
LINE
  8
_0-f_
  6
CONTINUOUS
 62
    7
 10
365.37983383181052
 20
285.87011490436339
 11
365.2244044918819
 21
285.29004469681286
  0
LINE
  8
_0-f_
  6
CONTINUOUS
 62
    7
 10
365.2244044918819
 20
285.29004469681286
 11
364.95926032376786
 21
284.30051316628203
  0
LINE
  8
_0-f_
  6
CONTINUOUS
 62
    7
 10
364.95926032376786
 20
284.30051316628203
 11
364.86898896280616
 21
283.96712461846619
  0
LINE
  8
_0-f_
  6
CONTINUOUS
 62
    7
 10
364.86898896280616
 20
283.96712461846619
 11
364.86598314579157
 21
283.96890743076676
  0
LINE
  8
_0-f_
  6
CONTINUOUS
 62
    7
 10
364.86598314579157
 20
283.96890743076676
 11
364.86297193607328
 21
283.97068532341268
  0
LINE
  8
_0-f_
  6
CONTINUOUS
 62
    7
 10
364.86297193607328
 20
283.97068532341268
 11
364.52451965693297
 21
284.21788934610481
  0
LINE
  8
_0-f_
  6
CONTINUOUS
 62
    7
 10
364.52451965693297
 20
284.21788934610481
 11
364.08961543463209
 21
284.72835259203606
  0
LINE
  8
_0-f_
  6
CONTINUOUS
 62
    7
 10
364.08961543463209
 20
284.72835259203606
 11
363.90743749897189
 21
285.29146792032054
  0
LINE
  8
_0-f_
  6
CONTINUOUS
 62
    7
 10
363.90743749897189
 20
285.29146792032054
 11
363.99315208576616
 21
285.86622658481895
  0
LINE
  8
_0-f_
  6
CONTINUOUS
 62
    7
 10
363.99315208576616
 20
285.86622658481895
 11
364.338302531664
 21
286.39902411339796
  0
LINE
  8
_0-f_
  6
CONTINUOUS
 62
    7
 10
364.92708681546316
 20
286.86322743239191
 11
365.73270654304457
 21
287.22074650296918
  0
LINE
  8
_0-f_
  6
CONTINUOUS
 62
    7
 10
365.73270654304457
 20
287.22074650296918
 11
366.66232438251302
 21
287.41760843371151
  0
LINE
  8
_0-f_
  6
CONTINUOUS
 62
    7
 10
366.66232438251302
 20
287.41760843371151
 11
367.43457791653555
 21
287.45198741501468
  0
LINE
  8
_0-f_
  6
CONTINUOUS
 62
    7
 10
367.43457791653555
 20
287.45198741501468
 11
367.80774431649741
 21
287.43040149033027
  0
LINE
  8
_0-f_
  6
CONTINUOUS
 62
    7
 10
367.80774431649741
 20
287.43040149033027
 11
368.17098104711221
 21
287.38440294067095
  0
LINE
  8
_0-f_
  6
CONTINUOUS
 62
    7
 10
368.17098104711221
 20
287.38440294067095
 11
368.2276922919628
 21
287.09142936351003
  0
LINE
  8
_0-f_
  6
CONTINUOUS
 62
    7
 10
368.2276922919628
 20
287.09142936351003
 11
367.95982333231734
 21
286.0917289925211
  0
LINE
  8
_0-f_
  6
CONTINUOUS
 62
    7
 10
367.95982333231734
 20
286.0917289925211
 11
367.77667969856805
 21
285.40822778040763
  0
LINE
  8
_0-f_
  6
CONTINUOUS
 62
    7
 10
367.77667969856805
 20
285.40822778040763
 11
367.60548607228429
 21
285.57083252346115
  0
LINE
  8
_0-f_
  6
CONTINUOUS
 62
    7
 10
367.60548607228429
 20
285.57083252346115
 11
367.26245449712502
 21
285.91287355567874
  0
LINE
  8
_0-f_
  6
CONTINUOUS
 62
    7
 10
367.26245449712502
 20
285.91287355567874
 11
367.10558076111948
 21
286.06849075980767
  0
LINE
  8
_0-f_
  6
CONTINUOUS
 62
    7
 10
367.10558076111948
 20
286.06849075980767
 11
367.00825427710333
 21
286.13330808581992
  0
LINE
  8
_0-f_
  6
CONTINUOUS
 62
    7
 10
367.00825427710333
 20
286.13330808581992
 11
366.89697445766933
 21
286.16783360518286
  0
LINE
  8
_0-f_
  6
CONTINUOUS
 62
    7
 10
366.89697445766933
 20
286.16783360518286
 11
366.75440357713927
 21
286.17290380633301
  0
LINE
  8
_0-f_
  6
CONTINUOUS
 62
    7
 10
366.75440357713927
 20
286.17290380633301
 11
366.25077979820378
 21
286.17290380633301
  0
LINE
  8
_0-f_
  6
CONTINUOUS
 62
    7
 10
366.25077979820378
 20
286.17290380633301
 11
365.80407240524278
 21
286.17290380633301
  0
LINE
  8
_0-f_
  6
CONTINUOUS
 62
    7
 10
365.80407240524278
 20
286.17290380633301
 11
365.63316006455426
 21
286.14773330067601
  0
LINE
  8
_0-f_
  6
CONTINUOUS
 62
    7
 10
365.63316006455426
 20
286.14773330067601
 11
365.47396946401659
 21
286.04118911815124
  0
LINE
  8
_0-f_
  6
CONTINUOUS
 62
    7
 10
365.47396946401659
 20
286.04118911815124
 11
365.37983383181052
 21
285.87011490436339
  0
SOLID
  8
_0-f_
  6
CONTINUOUS
 62
    7
 10
367.601148478298
 20
284.19995733005032
 11
368.01255216737479
 21
284.19964976836997
 12
368.80131836172279
 22
284.20007100019654
 13
368.80131836172279
 23
284.20007100019654
  0
LINE
  8
_0-f_
  6
CONTINUOUS
 62
    7
 10
367.9525860904443
 20
282.97930120838146
 11
366.82528671657622
 21
282.97930120838146
  0
LINE
  8
_0-f_
  6
CONTINUOUS
 62
    7
 10
368.47268560940745
 20
283.0679124083814
 11
366.15674987682382
 21
283.0679124083814
  0
LINE
  8
_0-f_
  6
CONTINUOUS
 62
    7
 10
368.73778378718271
 20
283.24513480838141
 11
365.54213136372636
 21
283.24513480838141
  0
LINE
  8
_0-f_
  6
CONTINUOUS
 62
    7
 10
368.76152727791361
 20
283.33374600838147
 11
365.3032145367464
 21
283.33374600838147
  0
LINE
  8
_0-f_
  6
CONTINUOUS
 62
    7
 10
368.71404029645186
 20
283.15652360838146
 11
365.78104819070626
 21
283.15652360838146
  0
LINE
  8
_0-f_
  6
CONTINUOUS
 62
    7
 10
366.33589325136671
 20
283.68819080838148
 11
364.62112374842962
 21
283.68819080838148
  0
LINE
  8
_0-f_
  6
CONTINUOUS
 62
    7
 10
366.31214997994533
 20
283.59957960838142
 11
364.74324936911694
 21
283.59957960838142
  0
LINE
  8
_0-f_
  6
CONTINUOUS
 62
    7
 10
366.38337979420953
 20
283.86541320838143
 11
364.376872507055
 21
283.86541320838143
  0
LINE
  8
_0-f_
  6
CONTINUOUS
 62
    7
 10
366.40712306563091
 20
283.95402440838143
 11
364.25474688636768
 21
283.95402440838143
  0
LINE
  8
_0-f_
  6
CONTINUOUS
 62
    7
 10
366.35963652278815
 20
283.77680200838142
 11
364.49899812774237
 21
283.77680200838142
  0
LINE
  8
_0-f_
  6
CONTINUOUS
 62
    7
 10
366.28840670852389
 20
283.51096840838142
 11
364.86537498980431
 21
283.51096840838142
  0
LINE
  8
_0-f_
  6
CONTINUOUS
 62
    7
 10
366.42456114782453
 20
283.42235720838141
 11
365.06429770976649
 21
283.42235720838141
  0
LINE
  8
_0-f_
  6
CONTINUOUS
 62
    7
 10
368.80901425937532
 20
283.51096840838142
 11
368.60648366996236
 21
283.51096840838142
  0
LINE
  8
_0-f_
  6
CONTINUOUS
 62
    7
 10
368.78527076864447
 20
283.42235720838141
 11
368.23510803919152
 21
283.42235720838141
  0
LINE
  8
_0-f_
  6
CONTINUOUS
 62
    7
 10
369.14142093446196
 20
284.75152520838139
 11
366.89624148239631
 21
284.75152520838139
  0
LINE
  8
_0-f_
  6
CONTINUOUS
 62
    7
 10
369.11767763005491
 20
284.66291400838139
 11
366.98571879084443
 21
284.66291400838139
  0
LINE
  8
_0-f_
  6
CONTINUOUS
 62
    7
 10
369.09393432564798
 20
284.57430280838139
 11
367.07519609929261
 21
284.57430280838139
  0
LINE
  8
_0-f_
  6
CONTINUOUS
 62
    7
 10
369.07019102124104
 20
284.48569160838144
 11
367.16467340774074
 21
284.48569160838144
  0
LINE
  8
_0-f_
  6
CONTINUOUS
 62
    7
 10
369.00492972247901
 20
284.39708040838138
 11
367.25415071618886
 21
284.39708040838138
  0
LINE
  8
_0-f_
  6
CONTINUOUS
 62
    7
 10
368.91334908591716
 20
284.30846920838144
 11
367.34362802463704
 21
284.30846920838144
  0
LINE
  8
_0-f_
  6
CONTINUOUS
 62
    7
 10
368.82176844935537
 20
284.21985800838144
 11
367.50785226816998
 21
284.21985800838144
  0
LINE
  8
_0-f_
  6
CONTINUOUS
 62
    7
 10
369.1651642388689
 20
284.84013640838145
 11
366.79847596895218
 21
284.84013640838145
  0
LINE
  8
_0-f_
  6
CONTINUOUS
 62
    7
 10
369.20689439399666
 20
287.49847240838147
 11
365.35384730470707
 21
287.49847240838147
  0
LINE
  8
_0-f_
  6
CONTINUOUS
 62
    7
 10
368.99462763162592
 20
287.58708360838148
 11
365.59427088172123
 21
287.58708360838148
  0
LINE
  8
_0-f_
  6
CONTINUOUS
 62
    7
 10
368.67375566084104
 20
287.67569480838154
 11
365.98359583663756
 21
287.67569480838142
  0
LINE
  8
_0-f_
  6
CONTINUOUS
 62
    7
 10
368.18703538376997
 20
287.76430600838148
 11
366.37292079155458
 21
287.76430600838148
  0
LINE
  8
_0-f_
  6
CONTINUOUS
 62
    7
 10
369.41916115636741
 20
287.40986120838147
 11
367.9699447536035
 21
287.40986120838147
  0
LINE
  8
_0-f_
  6
CONTINUOUS
 62
    7
 10
369.63142791873815
 20
287.32125000838141
 11
368.18320563555739
 21
287.32125000838141
  0
LINE
  8
_0-f_
  6
CONTINUOUS
 62
    7
 10
369.80623345785784
 20
287.23263880838147
 11
368.20035821125521
 21
287.23263880838147
  0
LINE
  8
_0-f_
  6
CONTINUOUS
 62
    7
 10
369.78249015345079
 20
287.14402760838152
 11
368.21751078695297
 21
287.14402760838152
  0
LINE
  8
_0-f_
  6
CONTINUOUS
 62
    7
 10
369.75874684904375
 20
287.05541640838146
 11
368.21804264782543
 21
287.05541640838146
  0
LINE
  8
_0-f_
  6
CONTINUOUS
 62
    7
 10
369.73500354463675
 20
286.96680520838152
 11
368.19429934368577
 21
286.96680520838152
  0
LINE
  8
_0-f_
  6
CONTINUOUS
 62
    7
 10
369.71126024022971
 20
286.87819400838146
 11
368.17055603954611
 21
286.87819400838146
  0
LINE
  8
_0-f_
  6
CONTINUOUS
 62
    7
 10
369.68751693582266
 20
286.78958280838145
 11
368.1468127354064
 21
286.78958280838145
  0
LINE
  8
_0-f_
  6
CONTINUOUS
 62
    7
 10
369.66377363141567
 20
286.70097160838145
 11
368.12306943126669
 21
286.70097160838145
  0
LINE
  8
_0-f_
  6
CONTINUOUS
 62
    7
 10
369.64003032700862
 20
286.61236040838139
 11
368.09932612712703
 21
286.61236040838139
  0
LINE
  8
_0-f_
  6
CONTINUOUS
 62
    7
 10
369.61628702260157
 20
286.52374920838145
 11
368.07558282298737
 21
286.52374920838145
  0
LINE
  8
_0-f_
  6
CONTINUOUS
 62
    7
 10
369.59254371819452
 20
286.43513800838144
 11
368.05183951884771
 21
286.43513800838144
  0
LINE
  8
_0-f_
  6
CONTINUOUS
 62
    7
 10
369.56880041378753
 20
286.34652680838144
 11
368.02809621470806
 21
286.34652680838144
  0
LINE
  8
_0-f_
  6
CONTINUOUS
 62
    7
 10
369.54505710938042
 20
286.2579156083815
 11
368.0043529105684
 21
286.2579156083815
  0
LINE
  8
_0-f_
  6
CONTINUOUS
 62
    7
 10
369.52131380497343
 20
286.16930440838144
 11
367.98060960642869
 21
286.16930440838144
  0
LINE
  8
_0-f_
  6
CONTINUOUS
 62
    7
 10
369.49757050056644
 20
286.08069320838143
 11
367.95686630228897
 21
286.08069320838143
  0
LINE
  8
_0-f_
  6
CONTINUOUS
 62
    7
 10
369.4738271961595
 20
285.99208200838143
 11
367.93312299814932
 21
285.99208200838143
  0
LINE
  8
_0-f_
  6
CONTINUOUS
 62
    7
 10
369.45008389175257
 20
285.90347080838148
 11
367.90937969400966
 21
285.90347080838148
  0
LINE
  8
_0-f_
  6
CONTINUOUS
 62
    7
 10
369.42634058734552
 20
285.81485960838143
 11
367.88563638987
 21
285.81485960838143
  0
LINE
  8
_0-f_
  6
CONTINUOUS
 62
    7
 10
369.40259728293859
 20
285.72624840838142
 11
367.86189308573034
 21
285.72624840838148
  0
LINE
  8
_0-f_
  6
CONTINUOUS
 62
    7
 10
369.37885397853165
 20
285.63763720838148
 11
367.83814978159069
 21
285.63763720838148
  0
LINE
  8
_0-f_
  6
CONTINUOUS
 62
    7
 10
369.35511067412466
 20
285.54902600838147
 11
367.81440647745097
 21
285.54902600838147
  0
LINE
  8
_0-f_
  6
CONTINUOUS
 62
    7
 10
369.33136736971767
 20
285.46041480838142
 11
367.79066317331126
 21
285.46041480838142
  0
LINE
  8
_0-f_
  6
CONTINUOUS
 62
    7
 10
366.62574057554741
 20
287.40986120838147
 11
365.1767366284169
 21
287.40986120838147
  0
LINE
  8
_0-f_
  6
CONTINUOUS
 62
    7
 10
366.20730237377774
 20
287.32125000838141
 11
364.99962595212673
 21
287.32125000838141
  0
LINE
  8
_0-f_
  6
CONTINUOUS
 62
    7
 10
365.78886417200806
 20
287.23263880838147
 11
364.82251527583657
 21
287.23263880838141
  0
LINE
  8
_0-f_
  6
CONTINUOUS
 62
    7
 10
365.55983113570403
 20
287.14402760838152
 11
364.64540459954662
 21
287.14402760838152
  0
LINE
  8
_0-f_
  6
CONTINUOUS
 62
    7
 10
365.36015806458795
 20
287.05541640838146
 11
364.49329291012026
 21
287.05541640838146
  0
LINE
  8
_0-f_
  6
CONTINUOUS
 62
    7
 10
365.16048499347215
 20
286.96680520838152
 11
364.40199254975539
 21
286.96680520838152
  0
LINE
  8
_0-f_
  6
CONTINUOUS
 62
    7
 10
364.96081192235619
 20
286.87819400838146
 11
364.31454492046907
 21
286.87819400838146
  0
LINE
  8
_0-f_
  6
CONTINUOUS
 62
    7
 10
364.83367775217243
 20
286.78958280838145
 11
364.21939182902554
 21
286.78958280838145
  0
LINE
  8
_0-f_
  6
CONTINUOUS
 62
    7
 10
364.72128544519444
 20
286.70097160838145
 11
364.12809146866061
 21
286.70097160838145
  0
LINE
  8
_0-f_
  6
CONTINUOUS
 62
    7
 10
364.60889313821639
 20
286.61236040838139
 11
364.03679110829569
 21
286.61236040838139
  0
LINE
  8
_0-f_
  6
CONTINUOUS
 62
    7
 10
364.49650083123845
 20
286.52374920838145
 11
363.94549074793088
 21
286.52374920838145
  0
LINE
  8
_0-f_
  6
CONTINUOUS
 62
    7
 10
364.3841085242604
 20
286.43513800838144
 11
363.85419038756589
 21
286.43513800838144
  0
LINE
  8
_0-f_
  6
CONTINUOUS
 62
    7
 10
364.30429436296401
 20
286.34652680838144
 11
363.80426009541679
 21
286.34652680838144
  0
LINE
  8
_0-f_
  6
CONTINUOUS
 62
    7
 10
364.24689132794407
 20
286.2579156083815
 11
363.76846155126748
 21
286.2579156083815
  0
LINE
  8
_0-f_
  6
CONTINUOUS
 62
    7
 10
366.59706923699991
 20
284.66291400838139
 11
365.05636533440935
 21
284.66291400838139
  0
LINE
  8
_0-f_
  6
CONTINUOUS
 62
    7
 10
366.57332596557887
 20
284.57430280838139
 11
365.03262203550003
 21
284.57430280838139
  0
LINE
  8
_0-f_
  6
CONTINUOUS
 62
    7
 10
366.54958269415783
 20
284.48569160838144
 11
365.0088787365907
 21
284.48569160838144
  0
LINE
  8
_0-f_
  6
CONTINUOUS
 62
    7
 10
366.52583942273679
 20
284.39708040838138
 11
364.98513543768138
 21
284.39708040838138
  0
LINE
  8
_0-f_
  6
CONTINUOUS
 62
    7
 10
366.50209615131587
 20
284.30846920838144
 11
364.96139213877206
 21
284.30846920838144
  0
LINE
  8
_0-f_
  6
CONTINUOUS
 62
    7
 10
366.47835287989483
 20
284.21985800838144
 11
364.93764883986273
 21
284.21985800838144
  0
LINE
  8
_0-f_
  6
CONTINUOUS
 62
    7
 10
366.45460960847379
 20
284.13124680838143
 11
364.91390554095341
 21
284.13124680838143
  0
LINE
  8
_0-f_
  6
CONTINUOUS
 62
    7
 10
366.43086633705235
 20
284.04263560838137
 11
364.89016224204408
 21
284.04263560838137
  0
LINE
  8
_0-f_
  6
CONTINUOUS
 62
    7
 10
367.36075229055348
 20
285.81485960838143
 11
365.3650282202305
 21
285.81485960838143
  0
LINE
  8
_0-f_
  6
CONTINUOUS
 62
    7
 10
367.44962010654524
 20
285.72624840838148
 11
365.34128492132118
 21
285.72624840838148
  0
LINE
  8
_0-f_
  6
CONTINUOUS
 62
    7
 10
367.53848792253706
 20
285.63763720838148
 11
365.31754162241185
 21
285.63763720838148
  0
LINE
  8
_0-f_
  6
CONTINUOUS
 62
    7
 10
367.62735573852888
 20
285.54902600838147
 11
365.29379832350253
 21
285.54902600838147
  0
LINE
  8
_0-f_
  6
CONTINUOUS
 62
    7
 10
367.71622355452064
 20
285.46041480838142
 11
365.2700550245932
 21
285.46041480838142
  0
LINE
  8
_0-f_
  6
CONTINUOUS
 62
    7
 10
369.30762406531073
 20
285.37180360838141
 11
365.24631172568388
 21
285.37180360838141
  0
LINE
  8
_0-f_
  6
CONTINUOUS
 62
    7
 10
369.28388076090374
 20
285.28319240838141
 11
365.22256842677456
 21
285.28319240838141
  0
LINE
  8
_0-f_
  6
CONTINUOUS
 62
    7
 10
369.26013745649681
 20
285.19458120838146
 11
365.19882512786523
 21
285.19458120838146
  0
LINE
  8
_0-f_
  6
CONTINUOUS
 62
    7
 10
369.23639415208982
 20
285.10597000838141
 11
365.17508182895597
 21
285.10597000838141
  0
LINE
  8
_0-f_
  6
CONTINUOUS
 62
    7
 10
369.21265084768288
 20
285.01735880838152
 11
365.15133853004659
 21
285.01735880838135
  0
LINE
  8
_0-f_
  6
CONTINUOUS
 62
    7
 10
369.18890754327589
 20
284.92874760838146
 11
365.12759523113732
 21
284.92874760838146
  0
LINE
  8
_0-f_
  6
CONTINUOUS
 62
    7
 10
366.64455577984199
 20
284.84013640838145
 11
365.10385193222794
 21
284.84013640838145
  0
LINE
  8
_0-f_
  6
CONTINUOUS
 62
    7
 10
366.62081250842095
 20
284.75152520838139
 11
365.08010863331867
 21
284.75152520838139
  0
LINE
  8
_0-f_
  6
CONTINUOUS
 62
    7
 10
367.1830166585699
 20
285.99208200838143
 11
365.44694768953849
 21
285.99208200838149
  0
LINE
  8
_0-f_
  6
CONTINUOUS
 62
    7
 10
367.2718844745616
 20
285.90347080838148
 11
365.39818831693731
 21
285.90347080838148
  0
LINE
  8
_0-f_
  6
CONTINUOUS
 62
    7
 10
367.08725816916547
 20
286.08069320838143
 11
365.53299361435887
 21
286.08069320838143
  0
LINE
  8
_0-f_
  6
CONTINUOUS
 62
    7
 10
366.85561639298999
 20
286.16930440838144
 11
365.77963183430813
 21
286.16930440838144
  0
LINE
  8
_0-f_
  6
CONTINUOUS
 62
    7
 10
364.18948829292412
 20
286.16930440838144
 11
363.73266300711816
 21
286.16930440838144
  0
LINE
  8
_0-f_
  6
CONTINUOUS
 62
    7
 10
364.13208525790424
 20
286.08069320838143
 11
363.69686446296885
 21
286.08069320838143
  0
LINE
  8
_0-f_
  6
CONTINUOUS
 62
    7
 10
364.07468222288435
 20
285.99208200838154
 11
363.66106591881953
 21
285.99208200838154
  0
LINE
  8
_0-f_
  6
CONTINUOUS
 62
    7
 10
364.0172791878644
 20
285.90347080838148
 11
363.62526737467022
 21
285.90347080838148
  0
LINE
  8
_0-f_
  6
CONTINUOUS
 62
    7
 10
363.98549165464578
 20
285.81485960838143
 11
363.5894688305209
 21
285.81485960838143
  0
LINE
  8
_0-f_
  6
CONTINUOUS
 62
    7
 10
363.972276938866
 20
285.72624840838154
 11
363.55367028637158
 21
285.72624840838154
  0
LINE
  8
_0-f_
  6
CONTINUOUS
 62
    7
 10
363.95906222308611
 20
285.63763720838148
 11
363.51787174222227
 21
285.63763720838148
  0
LINE
  8
_0-f_
  6
CONTINUOUS
 62
    7
 10
363.94584750730633
 20
285.54902600838147
 11
363.52518946582308
 21
285.54902600838147
  0
LINE
  8
_0-f_
  6
CONTINUOUS
 62
    7
 10
363.93263279152649
 20
285.46041480838142
 11
363.53463710076278
 21
285.46041480838142
  0
LINE
  8
_0-f_
  6
CONTINUOUS
 62
    7
 10
363.91941807574665
 20
285.37180360838141
 11
363.54408473570243
 21
285.37180360838141
  0
LINE
  8
_0-f_
  6
CONTINUOUS
 62
    7
 10
363.91011477590945
 20
285.28319240838141
 11
363.55353237064213
 21
285.28319240838141
  0
LINE
  8
_0-f_
  6
CONTINUOUS
 62
    7
 10
363.9387820926766
 20
285.19458120838146
 11
363.56298000558184
 21
285.19458120838146
  0
LINE
  8
_0-f_
  6
CONTINUOUS
 62
    7
 10
363.96744940944376
 20
285.10597000838141
 11
363.57242764052148
 21
285.10597000838141
  0
LINE
  8
_0-f_
  6
CONTINUOUS
 62
    7
 10
363.99611672621097
 20
285.01735880838135
 11
363.58187527546119
 21
285.01735880838135
  0
LINE
  8
_0-f_
  6
CONTINUOUS
 62
    7
 10
364.02478404297807
 20
284.92874760838146
 11
363.59132291040083
 21
284.92874760838146
  0
LINE
  8
_0-f_
  6
CONTINUOUS
 62
    7
 10
364.05345135974522
 20
284.84013640838145
 11
363.60077054534054
 21
284.84013640838145
  0
LINE
  8
_0-f_
  6
CONTINUOUS
 62
    7
 10
364.08211867651238
 20
284.75152520838139
 11
363.64570271757782
 21
284.75152520838139
  0
LINE
  8
_0-f_
  6
CONTINUOUS
 62
    7
 10
364.1453677665769
 20
284.66291400838139
 11
363.70323543552337
 21
284.66291400838139
  0
LINE
  8
_0-f_
  6
CONTINUOUS
 62
    7
 10
364.22086269266674
 20
284.57430280838139
 11
363.76076815346886
 21
284.57430280838139
  0
LINE
  8
_0-f_
  6
CONTINUOUS
 62
    7
 10
364.29635761875653
 20
284.48569160838144
 11
363.81830087141435
 21
284.48569160838144
  0
LINE
  8
_0-f_
  6
CONTINUOUS
 62
    7
 10
364.37185254484638
 20
284.39708040838138
 11
363.8758335893599
 21
284.39708040838138
  0
LINE
  8
_0-f_
  6
CONTINUOUS
 62
    7
 10
364.44734747093617
 20
284.30846920838144
 11
363.93336630730539
 21
284.30846920838144
  0
LINE
  8
_0-f_
  6
CONTINUOUS
 62
    7
 10
364.52284239702595
 20
284.21985800838144
 11
363.99089902525088
 21
284.21985800838144
  0
LINE
  8
_0-f_
  6
CONTINUOUS
 62
    7
 10
364.64314379598875
 20
284.13124680838143
 11
364.04843174319643
 21
284.13124680838143
  0
LINE
  8
_0-f_
  6
CONTINUOUS
 62
    7
 10
364.76446327239029
 20
284.04263560838137
 11
364.13262126568043
 21
284.04263560838137
  0
TEXT
  8
_0-f_
 62
    7
 10
355.09047036124105
 20
236.65780419635189
 40
3
 41
1
 50
0
  1
②扉　　ｽﾁｰﾙ　t1.0　ﾎﾟﾘｯｼｭﾎﾜｲﾄ　焼付塗装
  0
TEXT
  8
_0-f_
 62
    7
 10
401.09047036124105
 20
33.907804196351947
 40
2.5
 41
1
 50
0
  1
2020.02.15
  0
ENDSEC
  0
EOF
