  0
SECTION
  2
HEADER
  9
$ACADVER
  1
AC1009
  9
$INSBASE
 10
0
 20
0
 30
0
  9
$EXTMIN
 10
0
 20
0
  9
$EXTMAX
 10
420
 20
297
  9
$LIMMIN
 10
0
 20
0
  9
$LIMMAX
 10
420
 20
297
  9
$LTSCALE
 40
1
  0
ENDSEC
  0
SECTION
  2
TABLES
  0
TABLE
  2
LTYPE
 70
     9
  0
LTYPE
  2
CONTINUOUS
 70
    64
  3
実線
 72
    65
 73
     0
 40
0.0
  0
LTYPE
  2
DASHED1
 70
    64
  3
--  --  --  --  --  --  --  --  
 72
    65
 73
     2
 40
2.5
 49
1.25
 49
-1.25
  0
LTYPE
  2
DASHED2
 70
    64
  3
----    ----    ----    ----    
 72
    65
 73
     2
 40
5.0
 49
2.5
 49
-2.5
  0
LTYPE
  2
DASHED3
 70
    64
  3
------  ------  ------  ------  
 72
    65
 73
     2
 40
5.0
 49
3.75
 49
-1.25
  0
LTYPE
  2
CENTER1
 70
    64
  3
----- - ----- - ----- - ----- - 
 72
    65
 73
     4
 40
10.0
 49
6.25
 49
-1.25
 49
1.25
 49
-1.25
  0
LTYPE
  2
CENTER2
 70
    64
  3
----------  --  ----------  --  
 72
    65
 73
     4
 40
20.0
 49
12.5
 49
-2.5
 49
2.5
 49
-2.5
  0
LTYPE
  2
PHANTOM1
 70
    64
  3
--- - - --- - - --- - - --- - - 
 72
    65
 73
     6
 40
10.0
 49
3.25
 49
-1.25
 49
1.25
 49
-1.25
 49
1.25
 49
-1.25
  0
LTYPE
  2
PHANTOM2
 70
    64
  3
--------  -  -  --------  -  -  
 72
    65
 73
     6
 40
20.0
 49
10.0
 49
-2.5
 49
1.25
 49
-2.5
 49
1.25
 49
-2.5
  0
LTYPE
  2
DOT
 70
    64
  3
-   -   -   -   -   -   -   -   
 72
    65
 73
     2
 40
2.5
 49
0.625
 49
-1.875
  0
LTYPE
  2
DUMMY
 70
    64
  3
ダミー
 72
    65
 73
     0
 40
0.0
  0
LTYPE
  2
RAND1
 70
    64
  3
ランダム線1
 72
    65
 73
     4
 40
10.0
 49
1.0
 49
-2.0
 49
3.0
 49
-4.0
  0
LTYPE
  2
RAND2
 70
    64
  3
ランダム線2
 72
    65
 73
     4
 40
14.0
 49
2.0
 49
-3.0
 49
4.0
 49
-5.0
  0
LTYPE
  2
RAND3
 70
    64
  3
ランダム線3
 72
    65
 73
     4
 40
18.0
 49
3.0
 49
-4.0
 49
5.0
 49
-6.0
  0
LTYPE
  2
RAND4
 70
    64
  3
ランダム線4
 72
    65
 73
     4
 40
22.0
 49
4.0
 49
-5.0
 49
6.0
 49
-7.0
  0
LTYPE
  2
RAND5
 70
    64
  3
ランダム線5
 72
    65
 73
     4
 40
26.0
 49
5.0
 49
-6.0
 49
7.0
 49
-8.0
  0
LTYPE
  2
LONG1
 70
    64
  3
----------  --  ----------  --  
 72
    65
 73
     4
 40
40.0
 49
32.5
 49
-2.5
 49
2.5
 49
-2.5
  0
LTYPE
  2
LONG2
 70
    64
  3
--------  -  -  --------  -  -  
 72
    65
 73
     6
 40
40.0
 49
30.0
 49
-2.5
 49
1.25
 49
-2.5
 49
1.25
 49
-2.5
  0
LTYPE
  2
LONG3
 70
    64
  3
+++++++++++++++..+++++++++++++++
 72
    65
 73
     2
 40
40.0
 49
37.5
 49
-2.5
  0
LTYPE
  2
LONG4
 70
    64
  3
+++++++++++++++..+++++++++++++++
 72
    65
 73
     2
 40
80.0
 49
75.0
 49
-5.0
  0
LTYPE
  2
LONG5
 70
    64
  3
----------  --  ----------  --  
 72
    65
 73
     4
 40
60.0
 49
37.5
 49
-7.5
 49
7.5
 49
-7.5
  0
LTYPE
  2
dashed
 70
   64
  3
-------   -------------   ------
 72
   65
 73
    2
 40
7.5
 49
6
 49
-1.5
  0
LTYPE
  2
dashed_spaced
 70
   64
  3
----        --------        ----
 72
   65
 73
    2
 40
12
 49
6
 49
-6
  0
LTYPE
  2
long_dashed_dotted
 70
   64
  3
------------- --- --------------
 72
   65
 73
    4
 40
15.25
 49
12
 49
-1.5
 49
0.25
 49
-1.5
  0
LTYPE
  2
long_dashed_double-dotted
 70
   64
  3
----------- --- --- ------------
 72
   65
 73
    6
 40
17
 49
12
 49
-1.5
 49
0.25
 49
-1.5
 49
0.25
 49
-1.5
  0
LTYPE
  2
long_dashed_triplicate-dotted
 70
   64
  3
--------- --- --- --- ----------
 72
   65
 73
    8
 40
18.75
 49
12
 49
-1.5
 49
0.25
 49
-1.5
 49
0.25
 49
-1.5
 49
0.25
 49
-1.5
  0
LTYPE
  2
dotted
 70
   64
  3
   -       -       -       -    
 72
   65
 73
    2
 40
1.75
 49
0.25
 49
-1.5
  0
LTYPE
  2
chain
 70
   64
  3
-------------- -- --------------
 72
   65
 73
    4
 40
18.5
 49
12
 49
-1.5
 49
3.5
 49
-1.5
  0
LTYPE
  2
chain_double_dash
 70
   64
  3
------------ -- -- -------------
 72
   65
 73
    6
 40
23.5
 49
12
 49
-1.5
 49
3.5
 49
-1.5
 49
3.5
 49
-1.5
  0
LTYPE
  2
dashed_dotted
 70
   64
  3
-----------     -     ----------
 72
   65
 73
    4
 40
9.25
 49
6
 49
-1.5
 49
0.25
 49
-1.5
  0
LTYPE
  2
double-dashed_dotted
 70
   64
  3
------   -----------   -   -----
 72
   65
 73
    6
 40
16.75
 49
6
 49
-1.5
 49
6
 49
-1.5
 49
0.25
 49
-1.5
  0
LTYPE
  2
dashed_double-dotted
 70
   64
  3
---------    -    -    ---------
 72
   65
 73
    6
 40
11
 49
6
 49
-1.5
 49
0.25
 49
-1.5
 49
0.25
 49
-1.5
  0
LTYPE
  2
double-dashed_double-dotted
 70
   64
  3
-----   ---------   -   -   ----
 72
   65
 73
    8
 40
18.5
 49
6
 49
-1.5
 49
6
 49
-1.5
 49
0.25
 49
-1.5
 49
0.25
 49
-1.5
  0
LTYPE
  2
dashed_triplicate-dotted
 70
   64
  3
-------    -    -    -    ------
 72
   65
 73
    8
 40
12.75
 49
6
 49
-1.5
 49
0.25
 49
-1.5
 49
0.25
 49
-1.5
 49
0.25
 49
-1.5
  0
LTYPE
  2
double-dashed_triplicate-dotted
 70
   64
  3
-----  ---------  -  -  -  -----
 72
   65
 73
   10
 40
20.25
 49
6
 49
-1.5
 49
6
 49
-1.5
 49
0.25
 49
-1.5
 49
0.25
 49
-1.5
 49
0.25
 49
-1.5
  0
LTYPE
  2
undefined
 70
   64
  3
--------------------------------
 72
   65
 73
    0
 40
0
  0
LTYPE
  2
_
 70
   64
  3
                                
 72
   65
 73
    0
 40
0
  0
LTYPE
  2
__18
 70
   64
  3
                                
 72
   65
 73
    0
 40
0
  0
LTYPE
  2
__19
 70
   64
  3
                                
 72
   65
 73
    0
 40
0
  0
LTYPE
  2
__20
 70
   64
  3
                                
 72
   65
 73
    0
 40
0
  0
LTYPE
  2
__21
 70
   64
  3
                                
 72
   65
 73
    0
 40
0
  0
LTYPE
  2
__22
 70
   64
  3
                                
 72
   65
 73
    0
 40
0
  0
LTYPE
  2
__23
 70
   64
  3
                                
 72
   65
 73
    0
 40
0
  0
LTYPE
  2
__24
 70
   64
  3
                                
 72
   65
 73
    0
 40
0
  0
LTYPE
  2
__25
 70
   64
  3
                                
 72
   65
 73
    0
 40
0
  0
LTYPE
  2
__26
 70
   64
  3
                                
 72
   65
 73
    0
 40
0
  0
LTYPE
  2
__27
 70
   64
  3
                                
 72
   65
 73
    0
 40
0
  0
LTYPE
  2
__28
 70
   64
  3
                                
 72
   65
 73
    0
 40
0
  0
LTYPE
  2
__29
 70
   64
  3
                                
 72
   65
 73
    0
 40
0
  0
LTYPE
  2
__30
 70
   64
  3
                                
 72
   65
 73
    0
 40
0
  0
LTYPE
  2
__31
 70
   64
  3
                                
 72
   65
 73
    0
 40
0
  0
LTYPE
  2
__32
 70
   64
  3
                                
 72
   65
 73
    0
 40
0
  0
ENDTAB
  0
TABLE
  2
STYLE
  5
3
100
AcDbSymbolTable
 70
     1
  0
STYLE
  5
10
100
AcDbSymbolTableRecord
100
AcDbTextStyleTableRecord
  2
STANDARD
 70
     0
 40
0.0
 41
1.0
 50
0.0
 71
     0
 42
0.2
  3
txt
  4
bigfont.shx
  0
STYLE
  5
26
100
AcDbSymbolTableRecord
100
AcDbTextStyleTableRecord
  2
TATEGAKI
 70
    68
 40
0.0
 41
1.0
 50
0.0
 71
     0
 42
1.0
  3
txt
  4
bigfont.shx
  0
ENDTAB
  0
TABLE
  2
LAYER
 70
    5
  0
LAYER
  2
_0-0_
 70
   64
 62
    7
  6
CONTINUOUS
  0
LAYER
  2
_0-1_
 70
   64
 62
    7
  6
CONTINUOUS
  0
LAYER
  2
_0-2_
 70
   64
 62
    7
  6
CONTINUOUS
  0
LAYER
  2
_0-f_
 70
   64
 62
    7
  6
CONTINUOUS
  0
LAYER
  2
ADD_LINE
 70
   64
 62
    7
  6
CONTINUOUS
  0
ENDTAB
  0
ENDSEC
  0
SECTION
  2
BLOCKS
  0
ENDSEC
  0
SECTION
  2
ENTITIES
  0
LINE
  8
_0-f_
  6
CONTINUOUS
 62
    7
 10
367.77973956818602
 20
39.255999120606077
 11
367.77973956818602
 21
13.256032250607973
  0
LINE
  8
_0-f_
  6
CONTINUOUS
 62
    7
 10
3.2797395681859314
 20
13.25599912060602
 11
403.27973956818602
 21
13.25599912060602
  0
LINE
  8
_0-f_
  6
CONTINUOUS
 62
    7
 10
403.27973956818602
 20
13.25599912060602
 11
403.27973956818602
 21
290.25599912060596
  0
LINE
  8
_0-f_
  6
CONTINUOUS
 62
    7
 10
403.27973956818602
 20
290.25599912060596
 11
3.2797395681859314
 21
290.25599912060596
  0
LINE
  8
_0-f_
  6
CONTINUOUS
 62
    7
 10
3.2797395681859314
 20
290.25599912060596
 11
3.2797395681859314
 21
13.25599912060602
  0
LINE
  8
_0-f_
  6
CONTINUOUS
 62
    7
 10
332.27973956818602
 20
290.25599912060596
 11
332.27973956818602
 21
13.25599912060602
  0
LINE
  8
_0-f_
  6
CONTINUOUS
 62
    7
 10
332.27973956818602
 20
275.25599912060585
 11
403.27973956818602
 21
275.25599912060585
  0
LINE
  8
_0-f_
  6
CONTINUOUS
 62
    7
 10
332.27973956818602
 20
260.25599912060596
 11
403.27973956818602
 21
260.25599912060596
  0
LINE
  8
_0-f_
  6
CONTINUOUS
 62
    7
 10
332.27973956818602
 20
245.25599912060602
 11
403.27973956818602
 21
245.25599912060602
  0
LINE
  8
_0-f_
  6
CONTINUOUS
 62
    7
 10
332.27973956818602
 20
26.255999120606077
 11
403.27973956818602
 21
26.255999120606077
  0
LINE
  8
_0-f_
  6
CONTINUOUS
 62
    7
 10
332.27973956818602
 20
39.255999120606077
 11
403.27973956818602
 21
39.255999120606077
  0
LINE
  8
_0-f_
  6
CONTINUOUS
 62
    7
 10
332.27973956818602
 20
59.25599912060602
 11
403.27973956818602
 21
59.25599912060602
  0
TEXT
  8
_0-f_
 62
    7
 10
333.27973956818602
 20
272.25599912060585
 40
2
 41
1
 50
0
  1
品　名　：
  0
TEXT
  8
_0-f_
 62
    7
 10
333.27973956818602
 20
257.25599912060596
 40
2
 41
1
 50
0
  1
形　式　：
  0
TEXT
  8
_0-f_
 62
    7
 10
333.27973956818602
 20
242.25599912060602
 40
2
 41
1
 50
0
  1
仕　様　：
  0
LINE
  8
_0-f_
  6
CONTINUOUS
 62
    7
 10
368.20537380418665
 20
282.72478024442518
 11
368.20537380418665
 21
283.1007562444251
  0
LINE
  8
_0-f_
  6
CONTINUOUS
 62
    7
 10
368.20537380418665
 20
283.1007562444251
 11
369.88537380418671
 21
283.1007562444251
  0
LINE
  8
_0-f_
  6
CONTINUOUS
 62
    7
 10
369.88537380418671
 20
283.1007562444251
 11
369.88537380418671
 21
283.41286824442506
  0
LINE
  8
_0-f_
  6
CONTINUOUS
 62
    7
 10
369.88537380418671
 20
283.41286824442506
 11
369.07820550588798
 21
283.41286824442506
  0
LINE
  8
_0-f_
  6
CONTINUOUS
 62
    7
 10
369.07817380418663
 20
283.41274024442504
 11
369.16935780418663
 21
283.78090824442512
  0
LINE
  8
_0-f_
  6
CONTINUOUS
 62
    7
 10
369.16933888101977
 20
283.78083183952407
 11
370.20537380418665
 21
283.78083624442507
  0
LINE
  8
_0-f_
  6
CONTINUOUS
 62
    7
 10
370.20537380418665
 20
283.78083624442507
 11
370.20537380418665
 21
284.18083624442505
  0
LINE
  8
_0-f_
  6
CONTINUOUS
 62
    7
 10
370.20537380418665
 20
284.18083624442505
 11
369.56852087166368
 21
284.18083624442505
  0
LINE
  8
_0-f_
  6
CONTINUOUS
 62
    7
 10
369.56852087166368
 20
284.18083624442505
 11
369.73337380418678
 21
284.46650824442514
  0
LINE
  8
_0-f_
  6
CONTINUOUS
 62
    7
 10
369.73337380418678
 20
284.46650824442514
 11
369.20295780418661
 21
284.77285224442511
  0
LINE
  8
_0-f_
  6
CONTINUOUS
 62
    7
 10
369.20295780418672
 20
284.77285224442511
 11
368.86056917743844
 21
284.18083624442505
  0
LINE
  8
_0-f_
  6
CONTINUOUS
 62
    7
 10
368.86056917743844
 20
284.18083624442505
 11
368.7653818041868
 21
284.18083624442505
  0
LINE
  8
_0-f_
  6
CONTINUOUS
 62
    7
 10
368.7653818041868
 20
284.18083624442505
 11
368.7653818041868
 21
284.77282824442517
  0
LINE
  8
_0-f_
  6
CONTINUOUS
 62
    7
 10
368.7653818041868
 20
284.77282824442517
 11
368.04536580418659
 21
284.77282824442517
  0
LINE
  8
_0-f_
  6
CONTINUOUS
 62
    7
 10
368.04536580418659
 20
284.77282824442517
 11
368.04536580418659
 21
284.18083624442505
  0
LINE
  8
_0-f_
  6
CONTINUOUS
 62
    7
 10
368.04536580418659
 20
284.18083624442505
 11
367.56535780418659
 21
284.18083624442505
  0
LINE
  8
_0-f_
  6
CONTINUOUS
 62
    7
 10
367.56535780418659
 20
284.18083624442505
 11
367.56535780418659
 21
284.77282824442517
  0
LINE
  8
_0-f_
  6
CONTINUOUS
 62
    7
 10
367.56535780418659
 20
284.77282824442517
 11
366.84536580418654
 21
284.77282824442517
  0
LINE
  8
_0-f_
  6
CONTINUOUS
 62
    7
 10
366.84536580418654
 20
284.77282824442517
 11
366.84536580418654
 21
284.18083624442505
  0
LINE
  8
_0-f_
  6
CONTINUOUS
 62
    7
 10
366.84536580418654
 20
284.18083624442505
 11
366.75014610531781
 21
284.18083624442505
  0
LINE
  8
_0-f_
  6
CONTINUOUS
 62
    7
 10
366.75017380418677
 20
284.18078824442506
 11
366.40854980418652
 21
284.77279624442514
  0
LINE
  8
_0-f_
  6
CONTINUOUS
 62
    7
 10
366.40854980418652
 20
284.77279624442514
 11
365.87817380418659
 21
284.46644424442508
  0
LINE
  8
_0-f_
  6
CONTINUOUS
 62
    7
 10
365.87817380418659
 20
284.46644424442508
 11
366.04302921621837
 21
284.18083624442505
  0
LINE
  8
_0-f_
  6
CONTINUOUS
 62
    7
 10
366.04302921621837
 20
284.18083624442505
 11
365.40537380418658
 21
284.18083624442505
  0
LINE
  8
_0-f_
  6
CONTINUOUS
 62
    7
 10
365.40537380418658
 20
284.18083624442505
 11
365.40537380418658
 21
283.78083624442507
  0
LINE
  8
_0-f_
  6
CONTINUOUS
 62
    7
 10
365.40537380418658
 20
283.78083624442507
 11
366.44216580418669
 21
283.78083624442507
  0
LINE
  8
_0-f_
  6
CONTINUOUS
 62
    7
 10
366.44216187453907
 20
283.78083624442507
 11
366.53254180418668
 21
283.41284424442512
  0
LINE
  8
_0-f_
  6
CONTINUOUS
 62
    7
 10
366.53254180418668
 20
283.41286824442506
 11
365.72536580418665
 21
283.41286824442506
  0
LINE
  8
_0-f_
  6
CONTINUOUS
 62
    7
 10
365.72536580418665
 20
283.41286824442506
 11
365.72536580418665
 21
283.1007562444251
  0
LINE
  8
_0-f_
  6
CONTINUOUS
 62
    7
 10
365.72536580418665
 20
283.1007562444251
 11
367.40534980418664
 21
283.1007562444251
  0
LINE
  8
_0-f_
  6
CONTINUOUS
 62
    7
 10
367.40534980418664
 20
283.1007562444251
 11
367.40534980418653
 21
282.72478024442518
  0
LINE
  8
_0-f_
  6
CONTINUOUS
 62
    7
 10
367.40534980418664
 20
282.72478024442518
 11
365.72536580418665
 21
282.72478024442518
  0
LINE
  8
_0-f_
  6
CONTINUOUS
 62
    7
 10
365.72536580418665
 20
282.72478024442518
 11
365.72536580418654
 21
282.40486024442504
  0
LINE
  8
_0-f_
  6
CONTINUOUS
 62
    7
 10
365.72536580418654
 20
282.40486024442504
 11
367.40534980418664
 21
282.40486024442504
  0
LINE
  8
_0-f_
  6
CONTINUOUS
 62
    7
 10
367.40534980418653
 20
282.40486024442504
 11
367.40534980418664
 21
282.02888424442511
  0
LINE
  8
_0-f_
  6
CONTINUOUS
 62
    7
 10
367.40534980418664
 20
282.02888424442511
 11
365.40537380418658
 21
282.02888424442511
  0
LINE
  8
_0-f_
  6
CONTINUOUS
 62
    7
 10
365.40537380418658
 20
282.02888424442511
 11
365.40537380418658
 21
281.62886824442506
  0
LINE
  8
_0-f_
  6
CONTINUOUS
 62
    7
 10
365.40537380418658
 20
281.62886824442506
 11
366.53504580418661
 21
281.62886824442506
  0
LINE
  8
_0-f_
  6
CONTINUOUS
 62
    7
 10
366.53504580418661
 20
281.62886824442506
 11
366.03896580418649
 21
281.13278824442517
  0
LINE
  8
_0-f_
  6
CONTINUOUS
 62
    7
 10
366.76270000234587
 20
281.13278824442506
 11
365.40537380418658
 21
281.13278824442517
  0
LINE
  8
_0-f_
  6
CONTINUOUS
 62
    7
 10
365.40537380418658
 20
281.13278824442517
 11
365.40537380418658
 21
280.77278824442516
  0
LINE
  8
_0-f_
  6
CONTINUOUS
 62
    7
 10
365.40537380418658
 20
280.77278824442516
 11
366.23688833793943
 21
280.77278824442516
  0
ARC
  8
_0-f_
  6
CONTINUOUS
 62
    7
 10
366.23688833793943
 20
281.17278824442513
 40
0.3999999999999995
 50
270
 51
314.98511379092588
  0
LINE
  8
_0-f_
  6
CONTINUOUS
 62
    7
 10
366.51965755455268
 20
280.8898720551818
 11
367.25903784576752
 21
281.62886824442506
  0
LINE
  8
_0-f_
  6
CONTINUOUS
 62
    7
 10
367.25903784576752
 20
281.62886824442506
 11
367.40534980418664
 21
281.62886824442506
  0
LINE
  8
_0-f_
  6
CONTINUOUS
 62
    7
 10
367.40534980418664
 20
281.62886824442506
 11
367.40534980418653
 21
280.77278824442516
  0
LINE
  8
_0-f_
  6
CONTINUOUS
 62
    7
 10
367.40534980418653
 20
280.77278824442516
 11
368.20537380418665
 21
280.77278824442516
  0
LINE
  8
_0-f_
  6
CONTINUOUS
 62
    7
 10
368.20537380418665
 20
280.77278824442516
 11
368.20537380418665
 21
281.62886824442506
  0
LINE
  8
_0-f_
  6
CONTINUOUS
 62
    7
 10
368.20537380418665
 20
281.62886824442506
 11
368.35248584144023
 21
281.62886824442506
  0
LINE
  8
_0-f_
  6
CONTINUOUS
 62
    7
 10
368.35248584144023
 20
281.62886824442506
 11
369.09099861145768
 21
280.89001141068837
  0
ARC
  8
_0-f_
  6
CONTINUOUS
 62
    7
 10
369.37390718732951
 20
281.17278824442513
 40
0.3999999999999968
 50
224.98665642058054
 51
270
  0
LINE
  8
_0-f_
  6
CONTINUOUS
 62
    7
 10
369.37390718732951
 20
280.77278824442516
 11
370.20537380418665
 21
280.77278824442516
  0
LINE
  8
_0-f_
  6
CONTINUOUS
 62
    7
 10
370.20537380418654
 20
280.77278824442516
 11
370.20537380418665
 21
281.13278824442517
  0
LINE
  8
_0-f_
  6
CONTINUOUS
 62
    7
 10
370.20537380418665
 20
281.13278824442517
 11
368.84833483169376
 21
281.13278824442506
  0
LINE
  8
_0-f_
  6
CONTINUOUS
 62
    7
 10
369.57263781580133
 20
281.13278824442517
 11
369.07648579257199
 21
281.62886824442506
  0
LINE
  8
_0-f_
  6
CONTINUOUS
 62
    7
 10
369.07648579257199
 20
281.62886824442506
 11
370.20537380418665
 21
281.62886824442506
  0
LINE
  8
_0-f_
  6
CONTINUOUS
 62
    7
 10
370.20537380418665
 20
281.62886824442506
 11
370.20537380418665
 21
282.02888424442511
  0
LINE
  8
_0-f_
  6
CONTINUOUS
 62
    7
 10
370.20537380418665
 20
282.02888424442511
 11
368.20537380418665
 21
282.02888424442511
  0
LINE
  8
_0-f_
  6
CONTINUOUS
 62
    7
 10
368.20537380418665
 20
282.02888424442511
 11
368.20537380418665
 21
282.40486024442504
  0
LINE
  8
_0-f_
  6
CONTINUOUS
 62
    7
 10
368.20537380418665
 20
282.40486024442504
 11
369.88537380418671
 21
282.40486024442504
  0
LINE
  8
_0-f_
  6
CONTINUOUS
 62
    7
 10
369.88537380418671
 20
282.40486024442504
 11
369.88537380418671
 21
282.72478024442518
  0
LINE
  8
_0-f_
  6
CONTINUOUS
 62
    7
 10
369.88537380418671
 20
282.72478024442518
 11
368.20537380418665
 21
282.72478024442518
  0
LINE
  8
_0-f_
  6
CONTINUOUS
 62
    7
 10
367.24936580418677
 20
283.41284424442512
 11
367.16376006275397
 21
283.78082331242132
  0
LINE
  8
_0-f_
  6
CONTINUOUS
 62
    7
 10
367.16376006275397
 20
283.78082331242132
 11
368.44777448336293
 21
283.78082877165474
  0
LINE
  8
_0-f_
  6
CONTINUOUS
 62
    7
 10
368.4477818041866
 20
283.78086024442513
 11
368.36215780418678
 21
283.41275624442511
  0
LINE
  8
_0-f_
  6
CONTINUOUS
 62
    7
 10
368.36218385630247
 20
283.41286824442506
 11
367.2493602208861
 21
283.41286824442506
  0
LINE
  8
_0-f_
  6
CONTINUOUS
 62
    7
 10
368.20537380418642
 20
282.73278824442508
 11
367.40534980418641
 21
282.73278824442508
  0
LINE
  8
_0-f_
  6
CONTINUOUS
 62
    7
 10
368.20537380418642
 20
282.81278824442512
 11
367.40534980418641
 21
282.81278824442512
  0
LINE
  8
_0-f_
  6
CONTINUOUS
 62
    7
 10
368.20537380418642
 20
282.89278824442505
 11
367.40534980418641
 21
282.89278824442505
  0
LINE
  8
_0-f_
  6
CONTINUOUS
 62
    7
 10
368.20537380418642
 20
282.97278824442509
 11
367.40534980418641
 21
282.97278824442509
  0
LINE
  8
_0-f_
  6
CONTINUOUS
 62
    7
 10
368.20537380418642
 20
283.05278824442513
 11
367.40534980418641
 21
283.05278824442513
  0
LINE
  8
_0-f_
  6
CONTINUOUS
 62
    7
 10
369.88537380418683
 20
283.13278824442506
 11
365.72536580418654
 21
283.13278824442506
  0
LINE
  8
_0-f_
  6
CONTINUOUS
 62
    7
 10
369.88537380418683
 20
283.2127882444251
 11
365.72536580418654
 21
283.2127882444251
  0
LINE
  8
_0-f_
  6
CONTINUOUS
 62
    7
 10
369.88537380418683
 20
283.29278824442514
 11
365.72536580418654
 21
283.29278824442514
  0
LINE
  8
_0-f_
  6
CONTINUOUS
 62
    7
 10
369.88537380418683
 20
283.37278824442518
 11
365.72536580418654
 21
283.37278824442518
  0
LINE
  8
_0-f_
  6
CONTINUOUS
 62
    7
 10
369.08809247401115
 20
283.45278824442511
 11
368.37146957468639
 21
283.45278824442511
  0
LINE
  8
_0-f_
  6
CONTINUOUS
 62
    7
 10
367.24007333069284
 20
283.45278824442511
 11
366.52273143898873
 21
283.45278824442511
  0
LINE
  8
_0-f_
  6
CONTINUOUS
 62
    7
 10
369.10790603738434
 20
283.53278824442515
 11
368.39007822876232
 21
283.53278824442515
  0
LINE
  8
_0-f_
  6
CONTINUOUS
 62
    7
 10
367.22146232830102
 20
283.53278824442515
 11
366.50308320106018
 21
283.53278824442515
  0
LINE
  8
_0-f_
  6
CONTINUOUS
 62
    7
 10
369.12771960075764
 20
283.61278824442508
 11
368.40868688283825
 21
283.61278824442508
  0
LINE
  8
_0-f_
  6
CONTINUOUS
 62
    7
 10
367.20285132590919
 20
283.61278824442508
 11
366.48343496313163
 21
283.61278824442508
  0
LINE
  8
_0-f_
  6
CONTINUOUS
 62
    7
 10
369.14753316413083
 20
283.69278824442512
 11
368.4272955369143
 21
283.69278824442512
  0
LINE
  8
_0-f_
  6
CONTINUOUS
 62
    7
 10
367.18424032351737
 20
283.69278824442512
 11
366.46378672520297
 21
283.69278824442512
  0
LINE
  8
_0-f_
  6
CONTINUOUS
 62
    7
 10
369.16734672750414
 20
283.77278824442516
 11
368.44590419099035
 21
283.77278824442516
  0
LINE
  8
_0-f_
  6
CONTINUOUS
 62
    7
 10
367.16562932112544
 20
283.77278824442516
 11
366.44413848727442
 21
283.77278824442516
  0
LINE
  8
_0-f_
  6
CONTINUOUS
 62
    7
 10
370.20537380418676
 20
283.85278824442508
 11
365.40537380418647
 21
283.85278824442508
  0
LINE
  8
_0-f_
  6
CONTINUOUS
 62
    7
 10
370.20537380418676
 20
283.93278824442513
 11
365.40537380418647
 21
283.93278824442513
  0
LINE
  8
_0-f_
  6
CONTINUOUS
 62
    7
 10
370.20537380418676
 20
284.01278824442505
 11
365.40537380418647
 21
284.01278824442505
  0
LINE
  8
_0-f_
  6
CONTINUOUS
 62
    7
 10
370.20537380418676
 20
284.09278824442509
 11
365.40537380418647
 21
284.09278824442509
  0
LINE
  8
_0-f_
  6
CONTINUOUS
 62
    7
 10
370.20537380418676
 20
284.17278824442513
 11
365.40537380418647
 21
284.17278824442513
  0
LINE
  8
_0-f_
  6
CONTINUOUS
 62
    7
 10
369.61004226053234
 20
284.25278824442506
 11
368.9021821515334
 21
284.25278824442506
  0
LINE
  8
_0-f_
  6
CONTINUOUS
 62
    7
 10
368.76538180418669
 20
284.25278824442506
 11
368.04536580418636
 21
284.25278824442506
  0
LINE
  8
_0-f_
  6
CONTINUOUS
 62
    7
 10
367.56535780418648
 20
284.25278824442506
 11
366.84536580418666
 21
284.25278824442506
  0
LINE
  8
_0-f_
  6
CONTINUOUS
 62
    7
 10
366.70862550078556
 20
284.25278824442506
 11
366.00149789844562
 21
284.25278824442506
  0
LINE
  8
_0-f_
  6
CONTINUOUS
 62
    7
 10
369.65620791415546
 20
284.3327882444251
 11
368.94844963440522
 21
284.3327882444251
  0
LINE
  8
_0-f_
  6
CONTINUOUS
 62
    7
 10
368.76538180418669
 20
284.3327882444251
 11
368.04536580418636
 21
284.3327882444251
  0
LINE
  8
_0-f_
  6
CONTINUOUS
 62
    7
 10
367.56535780418648
 20
284.3327882444251
 11
366.84536580418666
 21
284.3327882444251
  0
LINE
  8
_0-f_
  6
CONTINUOUS
 62
    7
 10
366.66246071922848
 20
284.3327882444251
 11
365.95532120534693
 21
284.3327882444251
  0
LINE
  8
_0-f_
  6
CONTINUOUS
 62
    7
 10
369.70237356777869
 20
284.41278824442514
 11
368.99471711727705
 21
284.41278824442514
  0
LINE
  8
_0-f_
  6
CONTINUOUS
 62
    7
 10
368.76538180418669
 20
284.41278824442514
 11
368.04536580418636
 21
284.41278824442514
  0
LINE
  8
_0-f_
  6
CONTINUOUS
 62
    7
 10
367.56535780418648
 20
284.41278824442514
 11
366.84536580418666
 21
284.41278824442514
  0
LINE
  8
_0-f_
  6
CONTINUOUS
 62
    7
 10
366.6162959376714
 20
284.41278824442514
 11
365.90914451224813
 21
284.41278824442514
  0
LINE
  8
_0-f_
  6
CONTINUOUS
 62
    7
 10
369.68787158289257
 20
284.49278824442518
 11
369.04098460014899
 21
284.49278824442518
  0
LINE
  8
_0-f_
  6
CONTINUOUS
 62
    7
 10
368.76538180418669
 20
284.49278824442518
 11
368.04536580418636
 21
284.49278824442518
  0
LINE
  8
_0-f_
  6
CONTINUOUS
 62
    7
 10
367.56535780418648
 20
284.49278824442518
 11
366.84536580418666
 21
284.49278824442518
  0
LINE
  8
_0-f_
  6
CONTINUOUS
 62
    7
 10
366.57013115611443
 20
284.49278824442518
 11
365.92378220675624
 21
284.49278824442518
  0
LINE
  8
_0-f_
  6
CONTINUOUS
 62
    7
 10
369.5493564495784
 20
284.57278824442511
 11
369.08725208302081
 21
284.57278824442511
  0
LINE
  8
_0-f_
  6
CONTINUOUS
 62
    7
 10
368.76538180418669
 20
284.57278824442511
 11
368.04536580418636
 21
284.57278824442511
  0
LINE
  8
_0-f_
  6
CONTINUOUS
 62
    7
 10
367.56535780418648
 20
284.57278824442511
 11
366.84536580418666
 21
284.57278824442511
  0
LINE
  8
_0-f_
  6
CONTINUOUS
 62
    7
 10
366.52396637455735
 20
284.57278824442511
 11
366.06228327741991
 21
284.57278824442511
  0
LINE
  8
_0-f_
  6
CONTINUOUS
 62
    7
 10
369.41084131626423
 20
284.65278824442515
 11
369.13351956589264
 21
284.65278824442515
  0
LINE
  8
_0-f_
  6
CONTINUOUS
 62
    7
 10
368.76538180418669
 20
284.65278824442515
 11
368.04536580418636
 21
284.65278824442515
  0
LINE
  8
_0-f_
  6
CONTINUOUS
 62
    7
 10
367.56535780418648
 20
284.65278824442515
 11
366.84536580418666
 21
284.65278824442515
  0
LINE
  8
_0-f_
  6
CONTINUOUS
 62
    7
 10
366.47780159300038
 20
284.65278824442515
 11
366.2007843480838
 21
284.65278824442515
  0
LINE
  8
_0-f_
  6
CONTINUOUS
 62
    7
 10
369.27232618294994
 20
284.73278824442508
 11
369.17978704876447
 21
284.73278824442508
  0
LINE
  8
_0-f_
  6
CONTINUOUS
 62
    7
 10
368.76538180418669
 20
284.73278824442508
 11
368.04536580418636
 21
284.73278824442508
  0
LINE
  8
_0-f_
  6
CONTINUOUS
 62
    7
 10
367.56535780418648
 20
284.73278824442508
 11
366.84536580418666
 21
284.73278824442508
  0
LINE
  8
_0-f_
  6
CONTINUOUS
 62
    7
 10
366.4316368114433
 20
284.73278824442508
 11
366.33928541874758
 21
284.73278824442508
  0
LINE
  8
_0-f_
  6
CONTINUOUS
 62
    7
 10
369.88537380418671
 20
282.65278824442515
 11
365.72536580418631
 21
282.65278824442515
  0
LINE
  8
_0-f_
  6
CONTINUOUS
 62
    7
 10
369.88537380418671
 20
282.57278824442511
 11
365.72536580418631
 21
282.57278824442511
  0
LINE
  8
_0-f_
  6
CONTINUOUS
 62
    7
 10
369.88537380418671
 20
282.49278824442507
 11
365.72536580418631
 21
282.49278824442507
  0
LINE
  8
_0-f_
  6
CONTINUOUS
 62
    7
 10
369.88537380418671
 20
282.41278824442503
 11
365.72536580418631
 21
282.41278824442503
  0
LINE
  8
_0-f_
  6
CONTINUOUS
 62
    7
 10
368.20537380418642
 20
282.3327882444251
 11
367.40534980418653
 21
282.3327882444251
  0
LINE
  8
_0-f_
  6
CONTINUOUS
 62
    7
 10
368.20537380418642
 20
282.25278824442506
 11
367.40534980418653
 21
282.25278824442506
  0
LINE
  8
_0-f_
  6
CONTINUOUS
 62
    7
 10
368.20537380418642
 20
282.17278824442502
 11
367.40534980418653
 21
282.17278824442502
  0
LINE
  8
_0-f_
  6
CONTINUOUS
 62
    7
 10
368.20537380418642
 20
282.09278824442509
 11
367.40534980418653
 21
282.09278824442509
  0
LINE
  8
_0-f_
  6
CONTINUOUS
 62
    7
 10
370.20537380418654
 20
282.01278824442505
 11
365.40537380418681
 21
282.01278824442505
  0
LINE
  8
_0-f_
  6
CONTINUOUS
 62
    7
 10
370.20537380418654
 20
281.93278824442513
 11
365.40537380418681
 21
281.93278824442513
  0
LINE
  8
_0-f_
  6
CONTINUOUS
 62
    7
 10
370.20537380418654
 20
281.85278824442508
 11
365.40537380418681
 21
281.85278824442508
  0
LINE
  8
_0-f_
  6
CONTINUOUS
 62
    7
 10
370.20537380418654
 20
281.77278824442504
 11
365.40537380418681
 21
281.77278824442504
  0
LINE
  8
_0-f_
  6
CONTINUOUS
 62
    7
 10
370.20537380418654
 20
281.69278824442512
 11
365.40537380418681
 21
281.69278824442512
  0
LINE
  8
_0-f_
  6
CONTINUOUS
 62
    7
 10
369.0925681271421
 20
281.61278824442508
 11
368.36855835346097
 21
281.61278824442508
  0
LINE
  8
_0-f_
  6
CONTINUOUS
 62
    7
 10
368.20537380418654
 20
281.61278824442508
 11
367.40534980418653
 21
281.61278824442508
  0
LINE
  8
_0-f_
  6
CONTINUOUS
 62
    7
 10
367.24294948799837
 20
281.61278824442508
 11
366.51896580418662
 21
281.61278824442508
  0
LINE
  8
_0-f_
  6
CONTINUOUS
 62
    7
 10
369.17257974191858
 20
281.53278824442515
 11
368.44852109983304
 21
281.53278824442515
  0
LINE
  8
_0-f_
  6
CONTINUOUS
 62
    7
 10
368.20537380418654
 20
281.53278824442515
 11
367.40534980418653
 21
281.53278824442515
  0
LINE
  8
_0-f_
  6
CONTINUOUS
 62
    7
 10
367.16290790705631
 20
281.53278824442515
 11
366.43896580418658
 21
281.53278824442515
  0
LINE
  8
_0-f_
  6
CONTINUOUS
 62
    7
 10
369.25259135669518
 20
281.45278824442511
 11
368.52848384620523
 21
281.45278824442511
  0
LINE
  8
_0-f_
  6
CONTINUOUS
 62
    7
 10
368.20537380418654
 20
281.45278824442511
 11
367.40534980418653
 21
281.45278824442511
  0
LINE
  8
_0-f_
  6
CONTINUOUS
 62
    7
 10
367.08286632611424
 20
281.45278824442511
 11
366.35896580418654
 21
281.45278824442511
  0
LINE
  8
_0-f_
  6
CONTINUOUS
 62
    7
 10
369.33260297147177
 20
281.37278824442507
 11
368.60844659257731
 21
281.37278824442507
  0
LINE
  8
_0-f_
  6
CONTINUOUS
 62
    7
 10
368.20537380418654
 20
281.37278824442507
 11
367.40534980418653
 21
281.37278824442507
  0
LINE
  8
_0-f_
  6
CONTINUOUS
 62
    7
 10
367.00282474517218
 20
281.37278824442507
 11
366.2789658041865
 21
281.37278824442507
  0
LINE
  8
_0-f_
  6
CONTINUOUS
 62
    7
 10
369.41261458624825
 20
281.29278824442503
 11
368.6884093389495
 21
281.29278824442503
  0
LINE
  8
_0-f_
  6
CONTINUOUS
 62
    7
 10
368.20537380418654
 20
281.29278824442503
 11
367.40534980418653
 21
281.29278824442503
  0
LINE
  8
_0-f_
  6
CONTINUOUS
 62
    7
 10
366.92278316423011
 20
281.29278824442503
 11
366.19896580418657
 21
281.29278824442503
  0
LINE
  8
_0-f_
  6
CONTINUOUS
 62
    7
 10
369.49262620102485
 20
281.2127882444251
 11
368.76837208532157
 21
281.2127882444251
  0
LINE
  8
_0-f_
  6
CONTINUOUS
 62
    7
 10
368.20537380418654
 20
281.2127882444251
 11
367.40534980418653
 21
281.2127882444251
  0
LINE
  8
_0-f_
  6
CONTINUOUS
 62
    7
 10
366.84274158328805
 20
281.2127882444251
 11
366.11896580418653
 21
281.2127882444251
  0
LINE
  8
_0-f_
  6
CONTINUOUS
 62
    7
 10
370.20537380418665
 20
281.05278824442502
 11
368.92829757806584
 21
281.05278824442502
  0
LINE
  8
_0-f_
  6
CONTINUOUS
 62
    7
 10
368.20537380418654
 20
281.05278824442502
 11
367.40534980418653
 21
281.05278824442502
  0
LINE
  8
_0-f_
  6
CONTINUOUS
 62
    7
 10
366.68265842140391
 20
281.05278824442502
 11
365.40537380418658
 21
281.05278824442502
  0
LINE
  8
_0-f_
  6
CONTINUOUS
 62
    7
 10
370.20537380418665
 20
280.97278824442509
 11
369.00826032443791
 21
280.97278824442509
  0
LINE
  8
_0-f_
  6
CONTINUOUS
 62
    7
 10
368.20537380418654
 20
280.97278824442509
 11
367.40534980418653
 21
280.97278824442509
  0
LINE
  8
_0-f_
  6
CONTINUOUS
 62
    7
 10
366.60261684046185
 20
280.97278824442509
 11
365.40537380418658
 21
280.97278824442509
  0
LINE
  8
_0-f_
  6
CONTINUOUS
 62
    7
 10
370.20537380418665
 20
280.89278824442505
 11
369.0882230708101
 21
280.89278824442505
  0
LINE
  8
_0-f_
  6
CONTINUOUS
 62
    7
 10
368.20537380418654
 20
280.89278824442505
 11
367.40534980418653
 21
280.89278824442505
  0
LINE
  8
_0-f_
  6
CONTINUOUS
 62
    7
 10
366.52257525951978
 20
280.89278824442505
 11
365.40537380418658
 21
280.89278824442505
  0
LINE
  8
_0-f_
  6
CONTINUOUS
 62
    7
 10
370.20537380418665
 20
280.81278824442512
 11
369.20101033260045
 21
280.81278824442512
  0
LINE
  8
_0-f_
  6
CONTINUOUS
 62
    7
 10
368.20537380418654
 20
280.81278824442512
 11
367.40534980418653
 21
280.81278824442512
  0
LINE
  8
_0-f_
  6
CONTINUOUS
 62
    7
 10
366.40979899464679
 20
280.81278824442512
 11
365.40537380418658
 21
280.81278824442512
  0
LINE
  8
_0-f_
  6
CONTINUOUS
 62
    7
 10
368.20537380418665
 20
281.13278824442506
 11
367.40534980418653
 21
281.13278824442506
  0
LINE
  8
_0-f_
  6
CONTINUOUS
 62
    7
 10
372.55730285950773
 20
283.65290824442508
 11
372.55730285950773
 21
284.09294824442514
  0
LINE
  8
_0-f_
  6
CONTINUOUS
 62
    7
 10
372.55730285950773
 20
284.09294824442514
 11
371.88931085950782
 21
284.09294824442514
  0
LINE
  8
_0-f_
  6
CONTINUOUS
 62
    7
 10
371.88931085950782
 20
284.09294824442514
 11
371.88931085950782
 21
284.77282824442517
  0
LINE
  8
_0-f_
  6
CONTINUOUS
 62
    7
 10
371.88931085950782
 20
284.77282824442517
 11
371.36929485950776
 21
284.77282824442517
  0
LINE
  8
_0-f_
  6
CONTINUOUS
 62
    7
 10
371.36929485950776
 20
284.77282824442517
 11
371.36929485950776
 21
284.09294824442514
  0
LINE
  8
_0-f_
  6
CONTINUOUS
 62
    7
 10
371.36929485950776
 20
284.09294824442514
 11
370.69331885950777
 21
284.09294824442514
  0
LINE
  8
_0-f_
  6
CONTINUOUS
 62
    7
 10
370.69331885950777
 20
284.09294824442514
 11
370.69331885950777
 21
283.65290824442508
  0
LINE
  8
_0-f_
  6
CONTINUOUS
 62
    7
 10
370.69331885950777
 20
283.65290824442508
 11
371.37265243511075
 21
283.65290824442508
  0
LINE
  8
_0-f_
  6
CONTINUOUS
 62
    7
 10
371.37265243511075
 20
283.65290824442508
 11
370.67158732488059
 21
281.96579624442512
  0
LINE
  8
_0-f_
  6
CONTINUOUS
 62
    7
 10
370.67158732488059
 20
281.96579624442512
 11
370.61331085950775
 21
281.96579624442512
  0
LINE
  8
_0-f_
  6
CONTINUOUS
 62
    7
 10
370.61331085950775
 20
281.96579624442512
 11
370.61331085950775
 21
281.48590824442516
  0
LINE
  8
_0-f_
  6
CONTINUOUS
 62
    7
 10
370.61331085950775
 20
281.48590824442516
 11
370.81150494174216
 21
281.48590824442516
  0
ARC
  8
_0-f_
  6
CONTINUOUS
 62
    7
 10
370.81150494174216
 20
281.68590824442509
 40
0.2
 50
270
 51
338.12209204226002
  0
LINE
  8
_0-f_
  6
CONTINUOUS
 62
    7
 10
370.99710094196899
 20
281.61138224426537
 11
371.36929485950776
 21
282.53827624442505
  0
LINE
  8
_0-f_
  6
CONTINUOUS
 62
    7
 10
371.36929485950776
 20
282.53827624442505
 11
371.36929485950776
 21
280.77278824442516
  0
LINE
  8
_0-f_
  6
CONTINUOUS
 62
    7
 10
371.36929485950776
 20
280.77278824442516
 11
371.88931085950782
 21
280.77278824442516
  0
LINE
  8
_0-f_
  6
CONTINUOUS
 62
    7
 10
371.88931085950782
 20
280.77278824442516
 11
371.88931085950782
 21
282.54358824442505
  0
LINE
  8
_0-f_
  6
CONTINUOUS
 62
    7
 10
371.88931085950782
 20
282.54358824442505
 11
372.16730682693316
 21
281.8146415753302
  0
ARC
  8
_0-f_
  6
CONTINUOUS
 62
    7
 10
372.35417860617264
 20
281.88590824442514
 40
0.200000000000003
 50
200.87518418962418
 51
270
  0
LINE
  8
_0-f_
  6
CONTINUOUS
 62
    7
 10
372.35417860617264
 20
281.68590824442509
 11
372.63731085950775
 21
281.68590824442509
  0
LINE
  8
_0-f_
  6
CONTINUOUS
 62
    7
 10
372.63731085950775
 20
281.68590824442509
 11
372.63731085950775
 21
282.16579624442517
  0
LINE
  8
_0-f_
  6
CONTINUOUS
 62
    7
 10
372.63731085950775
 20
282.16579624442517
 11
372.49305900913868
 21
282.16579624442517
  0
LINE
  8
_0-f_
  6
CONTINUOUS
 62
    7
 10
372.49305900913868
 20
282.16579624442517
 11
371.88603226393633
 21
283.65290824442508
  0
LINE
  8
_0-f_
  6
CONTINUOUS
 62
    7
 10
371.88603226393633
 20
283.65290824442508
 11
372.55730285950773
 21
283.65290824442508
  0
LINE
  8
_0-f_
  6
CONTINUOUS
 62
    7
 10
374.39331885950781
 20
282.98102824442509
 11
374.39331885950781
 21
283.65290824442508
  0
LINE
  8
_0-f_
  6
CONTINUOUS
 62
    7
 10
374.39331885950781
 20
283.65290824442508
 11
375.41331085950782
 21
283.65290824442508
  0
LINE
  8
_0-f_
  6
CONTINUOUS
 62
    7
 10
375.41331085950782
 20
283.65290824442508
 11
375.41331085950782
 21
284.09294824442514
  0
LINE
  8
_0-f_
  6
CONTINUOUS
 62
    7
 10
375.41331085950782
 20
284.09294824442514
 11
374.39331885950781
 21
284.09294824442514
  0
LINE
  8
_0-f_
  6
CONTINUOUS
 62
    7
 10
374.39331885950781
 20
284.09294824442514
 11
374.39331885950781
 21
284.77282824442517
  0
LINE
  8
_0-f_
  6
CONTINUOUS
 62
    7
 10
374.39331885950781
 20
284.77282824442517
 11
373.87331885950783
 21
284.77282824442517
  0
LINE
  8
_0-f_
  6
CONTINUOUS
 62
    7
 10
373.87331885950783
 20
284.77282824442517
 11
373.87331885950783
 21
284.09294824442514
  0
LINE
  8
_0-f_
  6
CONTINUOUS
 62
    7
 10
373.87331885950783
 20
284.09294824442514
 11
373.4093028595077
 21
284.09294824442514
  0
LINE
  8
_0-f_
  6
CONTINUOUS
 62
    7
 10
373.4093028595077
 20
284.09294824442514
 11
373.4093028595077
 21
284.77282824442517
  0
LINE
  8
_0-f_
  6
CONTINUOUS
 62
    7
 10
373.4093028595077
 20
284.77282824442517
 11
372.9093028595077
 21
284.77282824442517
  0
LINE
  8
_0-f_
  6
CONTINUOUS
 62
    7
 10
372.9093028595077
 20
284.77282824442517
 11
372.9093028595077
 21
283.65290824442508
  0
LINE
  8
_0-f_
  6
CONTINUOUS
 62
    7
 10
372.9093028595077
 20
283.65290824442508
 11
373.87331885950783
 21
283.65290824442508
  0
LINE
  8
_0-f_
  6
CONTINUOUS
 62
    7
 10
373.87331885950783
 20
283.65290824442508
 11
373.87331885950783
 21
282.98102824442509
  0
LINE
  8
_0-f_
  6
CONTINUOUS
 62
    7
 10
373.87331885950783
 20
282.98102824442509
 11
372.9093028595077
 21
282.98102824442509
  0
LINE
  8
_0-f_
  6
CONTINUOUS
 62
    7
 10
372.9093028595077
 20
282.98102824442509
 11
372.9093028595077
 21
282.54098824442514
  0
LINE
  8
_0-f_
  6
CONTINUOUS
 62
    7
 10
372.9093028595077
 20
282.54098824442514
 11
373.58208448298939
 21
282.54098824442514
  0
LINE
  8
_0-f_
  6
CONTINUOUS
 62
    7
 10
373.58208448298939
 20
282.54098824442514
 11
373.0488151951609
 21
281.24706332319141
  0
ARC
  8
_0-f_
  6
CONTINUOUS
 62
    7
 10
372.93786821873442
 20
281.29278824442514
 40
0.1199999999999984
 50
270
 51
337.60181985621841
  0
LINE
  8
_0-f_
  6
CONTINUOUS
 62
    7
 10
372.93786821873442
 20
281.17278824442513
 11
372.87732685950783
 21
281.17278824442513
  0
LINE
  8
_0-f_
  6
CONTINUOUS
 62
    7
 10
372.87732685950783
 20
281.17278824442513
 11
372.87732685950783
 21
280.77278824442516
  0
LINE
  8
_0-f_
  6
CONTINUOUS
 62
    7
 10
372.87732685950783
 20
280.77278824442516
 11
373.18499664295467
 21
280.77278824442516
  0
ARC
  8
_0-f_
  6
CONTINUOUS
 62
    7
 10
373.18499664295467
 20
281.01278824442505
 40
0.2399999999999966
 50
270
 51
337.13773188217931
  0
LINE
  8
_0-f_
  6
CONTINUOUS
 62
    7
 10
373.40614259375133
 20
280.91954411084947
 11
373.87331885950783
 21
282.0275402444251
  0
LINE
  8
_0-f_
  6
CONTINUOUS
 62
    7
 10
373.87331885950783
 20
282.0275402444251
 11
373.87331885950783
 21
280.77278824442516
  0
LINE
  8
_0-f_
  6
CONTINUOUS
 62
    7
 10
373.87331885950783
 20
280.77278824442516
 11
374.39331885950781
 21
280.77278824442516
  0
LINE
  8
_0-f_
  6
CONTINUOUS
 62
    7
 10
374.39331885950781
 20
280.77278824442516
 11
374.39331885950781
 21
282.02760424442516
  0
LINE
  8
_0-f_
  6
CONTINUOUS
 62
    7
 10
374.39331885950781
 20
282.02760424442516
 11
374.86922175941271
 21
280.91817486403664
  0
ARC
  8
_0-f_
  6
CONTINUOUS
 62
    7
 10
375.08978537438924
 20
281.01278824442505
 40
0.2399999999999991
 50
203.21748710460054
 51
270
  0
LINE
  8
_0-f_
  6
CONTINUOUS
 62
    7
 10
375.08978537438924
 20
280.77278824442516
 11
375.41331085950782
 21
280.77278824442516
  0
LINE
  8
_0-f_
  6
CONTINUOUS
 62
    7
 10
375.41331085950782
 20
280.77278824442516
 11
375.41331085950782
 21
281.17278824442513
  0
LINE
  8
_0-f_
  6
CONTINUOUS
 62
    7
 10
375.41331085950782
 20
281.17278824442513
 11
375.33665264605287
 21
281.17278824442513
  0
ARC
  8
_0-f_
  6
CONTINUOUS
 62
    7
 10
375.33665264605287
 20
281.29278824442514
 40
0.1200000000000003
 50
202.69813627100072
 51
270
  0
LINE
  8
_0-f_
  6
CONTINUOUS
 62
    7
 10
375.22594656903692
 20
281.24648312039193
 11
374.6844928210075
 21
282.54098824442514
  0
LINE
  8
_0-f_
  6
CONTINUOUS
 62
    7
 10
374.6844928210075
 20
282.54098824442514
 11
375.41331085950782
 21
282.54098824442514
  0
LINE
  8
_0-f_
  6
CONTINUOUS
 62
    7
 10
375.41331085950782
 20
282.54098824442514
 11
375.41331085950782
 21
282.98102824442509
  0
LINE
  8
_0-f_
  6
CONTINUOUS
 62
    7
 10
375.41331085950782
 20
282.98102824442509
 11
374.39331885950781
 21
282.98102824442509
  0
LINE
  8
_0-f_
  6
CONTINUOUS
 62
    7
 10
375.4133108595077
 20
282.73278824442508
 11
372.90930285950736
 21
282.73278824442508
  0
LINE
  8
_0-f_
  6
CONTINUOUS
 62
    7
 10
372.26161759227438
 20
282.73278824442508
 11
370.99030435790843
 21
282.73278824442508
  0
LINE
  8
_0-f_
  6
CONTINUOUS
 62
    7
 10
375.4133108595077
 20
282.81278824442512
 11
372.90930285950736
 21
282.81278824442512
  0
LINE
  8
_0-f_
  6
CONTINUOUS
 62
    7
 10
372.22896225789719
 20
282.81278824442512
 11
371.02354768071001
 21
282.81278824442512
  0
LINE
  8
_0-f_
  6
CONTINUOUS
 62
    7
 10
375.4133108595077
 20
282.89278824442505
 11
372.90930285950736
 21
282.89278824442505
  0
LINE
  8
_0-f_
  6
CONTINUOUS
 62
    7
 10
372.19630692352013
 20
282.89278824442505
 11
371.05679100351159
 21
282.89278824442505
  0
LINE
  8
_0-f_
  6
CONTINUOUS
 62
    7
 10
375.4133108595077
 20
282.97278824442509
 11
372.90930285950736
 21
282.97278824442509
  0
LINE
  8
_0-f_
  6
CONTINUOUS
 62
    7
 10
372.16365158914306
 20
282.97278824442509
 11
371.09003432631317
 21
282.97278824442509
  0
LINE
  8
_0-f_
  6
CONTINUOUS
 62
    7
 10
374.39331885950781
 20
283.05278824442513
 11
373.87331885950761
 21
283.05278824442513
  0
LINE
  8
_0-f_
  6
CONTINUOUS
 62
    7
 10
372.13099625476599
 20
283.05278824442513
 11
371.12327764911475
 21
283.05278824442513
  0
LINE
  8
_0-f_
  6
CONTINUOUS
 62
    7
 10
374.39331885950781
 20
283.13278824442506
 11
373.87331885950761
 21
283.13278824442506
  0
LINE
  8
_0-f_
  6
CONTINUOUS
 62
    7
 10
372.09834092038881
 20
283.13278824442506
 11
371.15652097191634
 21
283.13278824442506
  0
LINE
  8
_0-f_
  6
CONTINUOUS
 62
    7
 10
374.39331885950781
 20
283.2127882444251
 11
373.87331885950761
 21
283.2127882444251
  0
LINE
  8
_0-f_
  6
CONTINUOUS
 62
    7
 10
372.06568558601185
 20
283.2127882444251
 11
371.18976429471792
 21
283.2127882444251
  0
LINE
  8
_0-f_
  6
CONTINUOUS
 62
    7
 10
374.39331885950781
 20
283.29278824442514
 11
373.87331885950761
 21
283.29278824442514
  0
LINE
  8
_0-f_
  6
CONTINUOUS
 62
    7
 10
372.03303025163467
 20
283.29278824442514
 11
371.2230076175195
 21
283.29278824442514
  0
LINE
  8
_0-f_
  6
CONTINUOUS
 62
    7
 10
374.39331885950781
 20
283.37278824442518
 11
373.87331885950761
 21
283.37278824442518
  0
LINE
  8
_0-f_
  6
CONTINUOUS
 62
    7
 10
372.0003749172576
 20
283.37278824442518
 11
371.25625094032108
 21
283.37278824442518
  0
LINE
  8
_0-f_
  6
CONTINUOUS
 62
    7
 10
374.39331885950781
 20
283.45278824442511
 11
373.87331885950761
 21
283.45278824442511
  0
LINE
  8
_0-f_
  6
CONTINUOUS
 62
    7
 10
371.96771958288053
 20
283.45278824442511
 11
371.28949426312266
 21
283.45278824442511
  0
LINE
  8
_0-f_
  6
CONTINUOUS
 62
    7
 10
374.39331885950781
 20
283.53278824442515
 11
373.87331885950761
 21
283.53278824442515
  0
LINE
  8
_0-f_
  6
CONTINUOUS
 62
    7
 10
371.93506424850347
 20
283.53278824442515
 11
371.32273758592424
 21
283.53278824442515
  0
LINE
  8
_0-f_
  6
CONTINUOUS
 62
    7
 10
374.39331885950781
 20
283.61278824442508
 11
373.87331885950761
 21
283.61278824442508
  0
LINE
  8
_0-f_
  6
CONTINUOUS
 62
    7
 10
371.9024089141264
 20
283.61278824442508
 11
371.35598090872571
 21
283.61278824442508
  0
LINE
  8
_0-f_
  6
CONTINUOUS
 62
    7
 10
375.41331085950793
 20
283.69278824442512
 11
372.9093028595077
 21
283.69278824442512
  0
LINE
  8
_0-f_
  6
CONTINUOUS
 62
    7
 10
372.55730285950739
 20
283.69278824442512
 11
370.69331885950788
 21
283.69278824442512
  0
LINE
  8
_0-f_
  6
CONTINUOUS
 62
    7
 10
375.41331085950793
 20
283.77278824442516
 11
372.9093028595077
 21
283.77278824442516
  0
LINE
  8
_0-f_
  6
CONTINUOUS
 62
    7
 10
372.55730285950739
 20
283.77278824442516
 11
370.69331885950788
 21
283.77278824442516
  0
LINE
  8
_0-f_
  6
CONTINUOUS
 62
    7
 10
375.41331085950793
 20
283.85278824442508
 11
372.9093028595077
 21
283.85278824442508
  0
LINE
  8
_0-f_
  6
CONTINUOUS
 62
    7
 10
372.55730285950739
 20
283.85278824442508
 11
370.69331885950788
 21
283.85278824442508
  0
LINE
  8
_0-f_
  6
CONTINUOUS
 62
    7
 10
375.41331085950793
 20
283.93278824442513
 11
372.9093028595077
 21
283.93278824442513
  0
LINE
  8
_0-f_
  6
CONTINUOUS
 62
    7
 10
372.55730285950739
 20
283.93278824442513
 11
370.69331885950788
 21
283.93278824442513
  0
LINE
  8
_0-f_
  6
CONTINUOUS
 62
    7
 10
375.41331085950793
 20
284.01278824442505
 11
372.9093028595077
 21
284.01278824442505
  0
LINE
  8
_0-f_
  6
CONTINUOUS
 62
    7
 10
372.55730285950739
 20
284.01278824442505
 11
370.69331885950788
 21
284.01278824442505
  0
LINE
  8
_0-f_
  6
CONTINUOUS
 62
    7
 10
375.41331085950793
 20
284.09278824442509
 11
372.9093028595077
 21
284.09278824442509
  0
LINE
  8
_0-f_
  6
CONTINUOUS
 62
    7
 10
372.55730285950739
 20
284.09278824442509
 11
370.69331885950788
 21
284.09278824442509
  0
LINE
  8
_0-f_
  6
CONTINUOUS
 62
    7
 10
374.39331885950747
 20
284.17278824442513
 11
373.87331885950761
 21
284.17278824442513
  0
LINE
  8
_0-f_
  6
CONTINUOUS
 62
    7
 10
373.40930285950759
 20
284.17278824442513
 11
372.9093028595077
 21
284.17278824442513
  0
LINE
  8
_0-f_
  6
CONTINUOUS
 62
    7
 10
371.88931085950793
 20
284.17278824442513
 11
371.36929485950776
 21
284.17278824442513
  0
LINE
  8
_0-f_
  6
CONTINUOUS
 62
    7
 10
374.39331885950747
 20
284.25278824442506
 11
373.87331885950761
 21
284.25278824442506
  0
LINE
  8
_0-f_
  6
CONTINUOUS
 62
    7
 10
373.40930285950759
 20
284.25278824442506
 11
372.9093028595077
 21
284.25278824442506
  0
LINE
  8
_0-f_
  6
CONTINUOUS
 62
    7
 10
371.88931085950793
 20
284.25278824442506
 11
371.36929485950776
 21
284.25278824442506
  0
LINE
  8
_0-f_
  6
CONTINUOUS
 62
    7
 10
374.39331885950747
 20
284.3327882444251
 11
373.87331885950761
 21
284.3327882444251
  0
LINE
  8
_0-f_
  6
CONTINUOUS
 62
    7
 10
373.40930285950759
 20
284.3327882444251
 11
372.9093028595077
 21
284.3327882444251
  0
LINE
  8
_0-f_
  6
CONTINUOUS
 62
    7
 10
371.88931085950793
 20
284.3327882444251
 11
371.36929485950776
 21
284.3327882444251
  0
LINE
  8
_0-f_
  6
CONTINUOUS
 62
    7
 10
374.39331885950747
 20
284.41278824442514
 11
373.87331885950761
 21
284.41278824442514
  0
LINE
  8
_0-f_
  6
CONTINUOUS
 62
    7
 10
373.40930285950759
 20
284.41278824442514
 11
372.9093028595077
 21
284.41278824442514
  0
LINE
  8
_0-f_
  6
CONTINUOUS
 62
    7
 10
371.88931085950793
 20
284.41278824442514
 11
371.36929485950776
 21
284.41278824442514
  0
LINE
  8
_0-f_
  6
CONTINUOUS
 62
    7
 10
374.39331885950747
 20
284.49278824442518
 11
373.87331885950761
 21
284.49278824442518
  0
LINE
  8
_0-f_
  6
CONTINUOUS
 62
    7
 10
373.40930285950759
 20
284.49278824442518
 11
372.9093028595077
 21
284.49278824442518
  0
LINE
  8
_0-f_
  6
CONTINUOUS
 62
    7
 10
371.88931085950793
 20
284.49278824442518
 11
371.36929485950776
 21
284.49278824442518
  0
LINE
  8
_0-f_
  6
CONTINUOUS
 62
    7
 10
374.39331885950747
 20
284.57278824442511
 11
373.87331885950761
 21
284.57278824442511
  0
LINE
  8
_0-f_
  6
CONTINUOUS
 62
    7
 10
373.40930285950759
 20
284.57278824442511
 11
372.9093028595077
 21
284.57278824442511
  0
LINE
  8
_0-f_
  6
CONTINUOUS
 62
    7
 10
371.88931085950793
 20
284.57278824442511
 11
371.36929485950776
 21
284.57278824442511
  0
LINE
  8
_0-f_
  6
CONTINUOUS
 62
    7
 10
374.39331885950747
 20
284.65278824442515
 11
373.87331885950761
 21
284.65278824442515
  0
LINE
  8
_0-f_
  6
CONTINUOUS
 62
    7
 10
373.40930285950759
 20
284.65278824442515
 11
372.9093028595077
 21
284.65278824442515
  0
LINE
  8
_0-f_
  6
CONTINUOUS
 62
    7
 10
371.88931085950793
 20
284.65278824442515
 11
371.36929485950776
 21
284.65278824442515
  0
LINE
  8
_0-f_
  6
CONTINUOUS
 62
    7
 10
374.39331885950747
 20
284.73278824442508
 11
373.87331885950761
 21
284.73278824442508
  0
LINE
  8
_0-f_
  6
CONTINUOUS
 62
    7
 10
373.40930285950759
 20
284.73278824442508
 11
372.9093028595077
 21
284.73278824442508
  0
LINE
  8
_0-f_
  6
CONTINUOUS
 62
    7
 10
371.88931085950793
 20
284.73278824442508
 11
371.36929485950776
 21
284.73278824442508
  0
LINE
  8
_0-f_
  6
CONTINUOUS
 62
    7
 10
375.4133108595077
 20
282.65278824442515
 11
372.90930285950736
 21
282.65278824442515
  0
LINE
  8
_0-f_
  6
CONTINUOUS
 62
    7
 10
372.29427292665144
 20
282.65278824442515
 11
370.95706103510685
 21
282.65278824442515
  0
LINE
  8
_0-f_
  6
CONTINUOUS
 62
    7
 10
375.4133108595077
 20
282.57278824442511
 11
372.90930285950736
 21
282.57278824442511
  0
LINE
  8
_0-f_
  6
CONTINUOUS
 62
    7
 10
372.32692826102851
 20
282.57278824442511
 11
370.92381771230527
 21
282.57278824442511
  0
LINE
  8
_0-f_
  6
CONTINUOUS
 62
    7
 10
374.70465347558553
 20
282.49278824442507
 11
373.56221966761137
 21
282.49278824442507
  0
LINE
  8
_0-f_
  6
CONTINUOUS
 62
    7
 10
372.35958359540558
 20
282.49278824442507
 11
371.90868428659627
 21
282.49278824442507
  0
LINE
  8
_0-f_
  6
CONTINUOUS
 62
    7
 10
371.88931085950782
 20
282.49278824442507
 11
371.36929485950776
 21
282.49278824442507
  0
LINE
  8
_0-f_
  6
CONTINUOUS
 62
    7
 10
371.35102917117871
 20
282.49278824442507
 11
370.89057438950368
 21
282.49278824442507
  0
LINE
  8
_0-f_
  6
CONTINUOUS
 62
    7
 10
374.73811514293476
 20
282.41278824442503
 11
373.52924901968112
 21
282.41278824442503
  0
LINE
  8
_0-f_
  6
CONTINUOUS
 62
    7
 10
372.39223892978276
 20
282.41278824442503
 11
371.93919362059415
 21
282.41278824442503
  0
LINE
  8
_0-f_
  6
CONTINUOUS
 62
    7
 10
371.88931085950782
 20
282.41278824442503
 11
371.36929485950776
 21
282.41278824442503
  0
LINE
  8
_0-f_
  6
CONTINUOUS
 62
    7
 10
371.31890520296014
 20
282.41278824442503
 11
370.8573310667021
 21
282.41278824442503
  0
LINE
  8
_0-f_
  6
CONTINUOUS
 62
    7
 10
374.7715768102841
 20
282.3327882444251
 11
373.49627837175075
 21
282.3327882444251
  0
LINE
  8
_0-f_
  6
CONTINUOUS
 62
    7
 10
372.42489426415983
 20
282.3327882444251
 11
371.96970295459204
 21
282.3327882444251
  0
LINE
  8
_0-f_
  6
CONTINUOUS
 62
    7
 10
371.88931085950782
 20
282.3327882444251
 11
371.36929485950776
 21
282.3327882444251
  0
LINE
  8
_0-f_
  6
CONTINUOUS
 62
    7
 10
371.28678123474157
 20
282.3327882444251
 11
370.82408774390052
 21
282.3327882444251
  0
LINE
  8
_0-f_
  6
CONTINUOUS
 62
    7
 10
374.80503847763333
 20
282.25278824442506
 11
373.46330772382038
 21
282.25278824442506
  0
LINE
  8
_0-f_
  6
CONTINUOUS
 62
    7
 10
372.4575495985369
 20
282.25278824442506
 11
372.00021228858981
 21
282.25278824442506
  0
LINE
  8
_0-f_
  6
CONTINUOUS
 62
    7
 10
371.88931085950782
 20
282.25278824442506
 11
371.36929485950776
 21
282.25278824442506
  0
LINE
  8
_0-f_
  6
CONTINUOUS
 62
    7
 10
371.254657266523
 20
282.25278824442506
 11
370.79084442109894
 21
282.25278824442506
  0
LINE
  8
_0-f_
  6
CONTINUOUS
 62
    7
 10
374.83850014498267
 20
282.17278824442513
 11
373.43033707589012
 21
282.17278824442502
  0
LINE
  8
_0-f_
  6
CONTINUOUS
 62
    7
 10
372.49020493291397
 20
282.17278824442502
 11
372.03072162258769
 21
282.17278824442502
  0
LINE
  8
_0-f_
  6
CONTINUOUS
 62
    7
 10
371.88931085950782
 20
282.17278824442502
 11
371.36929485950776
 21
282.17278824442502
  0
LINE
  8
_0-f_
  6
CONTINUOUS
 62
    7
 10
371.22253329830443
 20
282.17278824442513
 11
370.75760109829736
 21
282.17278824442502
  0
LINE
  8
_0-f_
  6
CONTINUOUS
 62
    7
 10
374.8719618123319
 20
282.09278824442509
 11
373.39736642795975
 21
282.09278824442509
  0
LINE
  8
_0-f_
  6
CONTINUOUS
 62
    7
 10
372.63731085950775
 20
282.09278824442509
 11
372.06123095658546
 21
282.09278824442509
  0
LINE
  8
_0-f_
  6
CONTINUOUS
 62
    7
 10
371.88931085950782
 20
282.09278824442509
 11
371.36929485950776
 21
282.09278824442509
  0
LINE
  8
_0-f_
  6
CONTINUOUS
 62
    7
 10
371.19040933008586
 20
282.09278824442509
 11
370.72435777549578
 21
282.09278824442509
  0
LINE
  8
_0-f_
  6
CONTINUOUS
 62
    7
 10
374.90542347968125
 20
282.01278824442505
 11
374.39967435855039
 21
282.01278824442505
  0
LINE
  8
_0-f_
  6
CONTINUOUS
 62
    7
 10
374.3933188595077
 20
282.01278824442505
 11
373.87331885950795
 21
282.01278824442505
  0
LINE
  8
_0-f_
  6
CONTINUOUS
 62
    7
 10
373.86709881589621
 20
282.01278824442505
 11
373.36439578002938
 21
282.01278824442505
  0
LINE
  8
_0-f_
  6
CONTINUOUS
 62
    7
 10
372.63731085950775
 20
282.01278824442505
 11
372.09174029058335
 21
282.01278824442505
  0
LINE
  8
_0-f_
  6
CONTINUOUS
 62
    7
 10
371.88931085950782
 20
282.01278824442505
 11
371.36929485950776
 21
282.01278824442505
  0
LINE
  8
_0-f_
  6
CONTINUOUS
 62
    7
 10
371.15828536186729
 20
282.01278824442505
 11
370.69111445269419
 21
282.01278824442505
  0
LINE
  8
_0-f_
  6
CONTINUOUS
 62
    7
 10
374.93888514703048
 20
281.93278824442513
 11
374.43399130802499
 21
281.93278824442513
  0
LINE
  8
_0-f_
  6
CONTINUOUS
 62
    7
 10
374.3933188595077
 20
281.93278824442513
 11
373.87331885950795
 21
281.93278824442513
  0
LINE
  8
_0-f_
  6
CONTINUOUS
 62
    7
 10
373.83336755986744
 20
281.93278824442513
 11
373.33142513209901
 21
281.93278824442513
  0
LINE
  8
_0-f_
  6
CONTINUOUS
 62
    7
 10
372.63731085950775
 20
281.93278824442513
 11
372.12224962458123
 21
281.93278824442513
  0
LINE
  8
_0-f_
  6
CONTINUOUS
 62
    7
 10
371.88931085950782
 20
281.93278824442513
 11
371.36929485950776
 21
281.93278824442513
  0
LINE
  8
_0-f_
  6
CONTINUOUS
 62
    7
 10
371.12616139364872
 20
281.93278824442513
 11
370.61331085950786
 21
281.93278824442513
  0
LINE
  8
_0-f_
  6
CONTINUOUS
 62
    7
 10
374.97234681437982
 20
281.85278824442508
 11
374.46830825749959
 21
281.85278824442508
  0
LINE
  8
_0-f_
  6
CONTINUOUS
 62
    7
 10
374.3933188595077
 20
281.85278824442508
 11
373.87331885950795
 21
281.85278824442508
  0
LINE
  8
_0-f_
  6
CONTINUOUS
 62
    7
 10
373.79963630383867
 20
281.85278824442508
 11
373.29845448416864
 21
281.85278824442508
  0
LINE
  8
_0-f_
  6
CONTINUOUS
 62
    7
 10
372.63731085950775
 20
281.85278824442508
 11
372.15275895857911
 21
281.85278824442508
  0
LINE
  8
_0-f_
  6
CONTINUOUS
 62
    7
 10
371.88931085950782
 20
281.85278824442508
 11
371.36929485950776
 21
281.85278824442508
  0
LINE
  8
_0-f_
  6
CONTINUOUS
 62
    7
 10
371.09403742543026
 20
281.85278824442508
 11
370.61331085950786
 21
281.85278824442508
  0
LINE
  8
_0-f_
  6
CONTINUOUS
 62
    7
 10
375.00580848172905
 20
281.77278824442504
 11
374.50262520697419
 21
281.77278824442504
  0
LINE
  8
_0-f_
  6
CONTINUOUS
 62
    7
 10
374.3933188595077
 20
281.77278824442504
 11
373.87331885950795
 21
281.77278824442504
  0
LINE
  8
_0-f_
  6
CONTINUOUS
 62
    7
 10
373.76590504780989
 20
281.77278824442504
 11
373.26548383623839
 21
281.77278824442504
  0
LINE
  8
_0-f_
  6
CONTINUOUS
 62
    7
 10
372.63731085950775
 20
281.77278824442504
 11
372.18999011612703
 21
281.77278824442504
  0
LINE
  8
_0-f_
  6
CONTINUOUS
 62
    7
 10
371.88931085950782
 20
281.77278824442504
 11
371.36929485950776
 21
281.77278824442504
  0
LINE
  8
_0-f_
  6
CONTINUOUS
 62
    7
 10
371.06191345721169
 20
281.77278824442504
 11
370.61331085950786
 21
281.77278824442504
  0
LINE
  8
_0-f_
  6
CONTINUOUS
 62
    7
 10
375.03927014907839
 20
281.69278824442512
 11
374.53694215644867
 21
281.69278824442512
  0
LINE
  8
_0-f_
  6
CONTINUOUS
 62
    7
 10
374.3933188595077
 20
281.69278824442512
 11
373.87331885950795
 21
281.69278824442512
  0
LINE
  8
_0-f_
  6
CONTINUOUS
 62
    7
 10
373.73217379178112
 20
281.69278824442512
 11
373.23251318830802
 21
281.69278824442512
  0
LINE
  8
_0-f_
  6
CONTINUOUS
 62
    7
 10
372.63731085950775
 20
281.69278824442512
 11
372.30225261237518
 21
281.69278824442512
  0
LINE
  8
_0-f_
  6
CONTINUOUS
 62
    7
 10
371.88931085950782
 20
281.69278824442512
 11
371.36929485950776
 21
281.69278824442512
  0
LINE
  8
_0-f_
  6
CONTINUOUS
 62
    7
 10
371.02978948899312
 20
281.69278824442512
 11
370.61331085950786
 21
281.69278824442512
  0
LINE
  8
_0-f_
  6
CONTINUOUS
 62
    7
 10
375.07273181642762
 20
281.61278824442508
 11
374.57125910592328
 21
281.61278824442508
  0
LINE
  8
_0-f_
  6
CONTINUOUS
 62
    7
 10
374.3933188595077
 20
281.61278824442508
 11
373.87331885950795
 21
281.61278824442508
  0
LINE
  8
_0-f_
  6
CONTINUOUS
 62
    7
 10
373.69844253575235
 20
281.61278824442508
 11
373.19954254037776
 21
281.61278824442508
  0
LINE
  8
_0-f_
  6
CONTINUOUS
 62
    7
 10
371.88931085950782
 20
281.61278824442508
 11
371.36929485950776
 21
281.61278824442508
  0
LINE
  8
_0-f_
  6
CONTINUOUS
 62
    7
 10
370.99766552077455
 20
281.61278824442508
 11
370.61331085950786
 21
281.61278824442508
  0
LINE
  8
_0-f_
  6
CONTINUOUS
 62
    7
 10
375.10619348377696
 20
281.53278824442515
 11
374.60557605539788
 21
281.53278824442515
  0
LINE
  8
_0-f_
  6
CONTINUOUS
 62
    7
 10
374.3933188595077
 20
281.53278824442515
 11
373.87331885950795
 21
281.53278824442515
  0
LINE
  8
_0-f_
  6
CONTINUOUS
 62
    7
 10
373.66471127972358
 20
281.53278824442515
 11
373.16657189244739
 21
281.53278824442515
  0
LINE
  8
_0-f_
  6
CONTINUOUS
 62
    7
 10
371.88931085950782
 20
281.53278824442515
 11
371.36929485950776
 21
281.53278824442515
  0
LINE
  8
_0-f_
  6
CONTINUOUS
 62
    7
 10
370.93922828535989
 20
281.53278824442515
 11
370.61331085950786
 21
281.53278824442515
  0
LINE
  8
_0-f_
  6
CONTINUOUS
 62
    7
 10
375.13965515112619
 20
281.45278824442511
 11
374.63989300487248
 21
281.45278824442511
  0
LINE
  8
_0-f_
  6
CONTINUOUS
 62
    7
 10
374.3933188595077
 20
281.45278824442511
 11
373.87331885950795
 21
281.45278824442511
  0
LINE
  8
_0-f_
  6
CONTINUOUS
 62
    7
 10
373.6309800236948
 20
281.45278824442511
 11
373.13360124451702
 21
281.45278824442511
  0
LINE
  8
_0-f_
  6
CONTINUOUS
 62
    7
 10
371.88931085950782
 20
281.45278824442511
 11
371.36929485950776
 21
281.45278824442511
  0
LINE
  8
_0-f_
  6
CONTINUOUS
 62
    7
 10
375.17311681847553
 20
281.37278824442507
 11
374.67420995434708
 21
281.37278824442507
  0
LINE
  8
_0-f_
  6
CONTINUOUS
 62
    7
 10
374.3933188595077
 20
281.37278824442507
 11
373.87331885950795
 21
281.37278824442507
  0
LINE
  8
_0-f_
  6
CONTINUOUS
 62
    7
 10
373.59724876766614
 20
281.37278824442507
 11
373.10063059658677
 21
281.37278824442507
  0
LINE
  8
_0-f_
  6
CONTINUOUS
 62
    7
 10
371.88931085950782
 20
281.37278824442507
 11
371.36929485950776
 21
281.37278824442507
  0
LINE
  8
_0-f_
  6
CONTINUOUS
 62
    7
 10
375.20657848582488
 20
281.29278824442503
 11
374.70852690382156
 21
281.29278824442503
  0
LINE
  8
_0-f_
  6
CONTINUOUS
 62
    7
 10
374.3933188595077
 20
281.29278824442503
 11
373.87331885950795
 21
281.29278824442503
  0
LINE
  8
_0-f_
  6
CONTINUOUS
 62
    7
 10
373.56351751163737
 20
281.29278824442503
 11
373.0676599486564
 21
281.29278824442503
  0
LINE
  8
_0-f_
  6
CONTINUOUS
 62
    7
 10
371.88931085950782
 20
281.29278824442503
 11
371.36929485950776
 21
281.29278824442503
  0
LINE
  8
_0-f_
  6
CONTINUOUS
 62
    7
 10
375.2474380436683
 20
281.2127882444251
 11
374.74284385329616
 21
281.2127882444251
  0
LINE
  8
_0-f_
  6
CONTINUOUS
 62
    7
 10
374.3933188595077
 20
281.2127882444251
 11
373.87331885950795
 21
281.2127882444251
  0
LINE
  8
_0-f_
  6
CONTINUOUS
 62
    7
 10
373.5297862556086
 20
281.2127882444251
 11
373.02686540428721
 21
281.2127882444251
  0
LINE
  8
_0-f_
  6
CONTINUOUS
 62
    7
 10
371.88931085950782
 20
281.2127882444251
 11
371.36929485950776
 21
281.2127882444251
  0
LINE
  8
_0-f_
  6
CONTINUOUS
 62
    7
 10
375.41331085950725
 20
281.13278824442506
 11
374.77716080277077
 21
281.13278824442506
  0
LINE
  8
_0-f_
  6
CONTINUOUS
 62
    7
 10
374.3933188595077
 20
281.13278824442506
 11
373.87331885950795
 21
281.13278824442506
  0
LINE
  8
_0-f_
  6
CONTINUOUS
 62
    7
 10
373.49605499957983
 20
281.13278824442506
 11
372.87732685950817
 21
281.13278824442506
  0
LINE
  8
_0-f_
  6
CONTINUOUS
 62
    7
 10
371.88931085950782
 20
281.13278824442506
 11
371.36929485950776
 21
281.13278824442506
  0
LINE
  8
_0-f_
  6
CONTINUOUS
 62
    7
 10
375.41331085950725
 20
281.05278824442502
 11
374.81147775224537
 21
281.05278824442502
  0
LINE
  8
_0-f_
  6
CONTINUOUS
 62
    7
 10
374.3933188595077
 20
281.05278824442502
 11
373.87331885950795
 21
281.05278824442502
  0
LINE
  8
_0-f_
  6
CONTINUOUS
 62
    7
 10
373.46232374355105
 20
281.05278824442502
 11
372.87732685950817
 21
281.05278824442502
  0
LINE
  8
_0-f_
  6
CONTINUOUS
 62
    7
 10
371.88931085950782
 20
281.05278824442502
 11
371.36929485950776
 21
281.05278824442502
  0
LINE
  8
_0-f_
  6
CONTINUOUS
 62
    7
 10
375.41331085950725
 20
280.97278824442509
 11
374.84579470171997
 21
280.97278824442509
  0
LINE
  8
_0-f_
  6
CONTINUOUS
 62
    7
 10
374.3933188595077
 20
280.97278824442509
 11
373.87331885950795
 21
280.97278824442509
  0
LINE
  8
_0-f_
  6
CONTINUOUS
 62
    7
 10
373.42859248752228
 20
280.97278824442509
 11
372.87732685950817
 21
280.97278824442509
  0
LINE
  8
_0-f_
  6
CONTINUOUS
 62
    7
 10
371.88931085950782
 20
280.97278824442509
 11
371.36929485950776
 21
280.97278824442509
  0
LINE
  8
_0-f_
  6
CONTINUOUS
 62
    7
 10
375.41331085950725
 20
280.89278824442505
 11
374.88256059733288
 21
280.89278824442505
  0
LINE
  8
_0-f_
  6
CONTINUOUS
 62
    7
 10
374.3933188595077
 20
280.89278824442505
 11
373.87331885950795
 21
280.89278824442505
  0
LINE
  8
_0-f_
  6
CONTINUOUS
 62
    7
 10
373.39207118011626
 20
280.89278824442505
 11
372.87732685950817
 21
280.89278824442505
  0
LINE
  8
_0-f_
  6
CONTINUOUS
 62
    7
 10
371.88931085950782
 20
280.89278824442505
 11
371.36929485950776
 21
280.89278824442505
  0
LINE
  8
_0-f_
  6
CONTINUOUS
 62
    7
 10
375.41331085950725
 20
280.81278824442512
 11
374.95821392305942
 21
280.81278824442512
  0
LINE
  8
_0-f_
  6
CONTINUOUS
 62
    7
 10
374.3933188595077
 20
280.81278824442512
 11
373.87331885950795
 21
280.81278824442512
  0
LINE
  8
_0-f_
  6
CONTINUOUS
 62
    7
 10
373.31654094076538
 20
280.81278824442512
 11
372.87732685950817
 21
280.81278824442512
  0
LINE
  8
_0-f_
  6
CONTINUOUS
 62
    7
 10
371.88931085950782
 20
280.81278824442512
 11
371.36929485950776
 21
280.81278824442512
  0
ARC
  8
_0-f_
  6
CONTINUOUS
 62
    7
 10
370.61819856060748
 20
282.04579624442505
 40
0.08
 50
270
 51
337.43508599410586
  0
ARC
  8
_0-f_
  6
CONTINUOUS
 62
    7
 10
372.54681183909389
 20
282.24579624442509
 40
0.08
 50
202.2048740517549
 51
270
  0
LINE
  8
_0-f_
  6
CONTINUOUS
 62
    7
 10
371.36929485950776
 20
283.64490024442506
 11
371.36929485950776
 21
283.65290824442508
  0
LINE
  8
_0-f_
  6
CONTINUOUS
 62
    7
 10
371.88931085950782
 20
283.64490024442506
 11
371.88931085950782
 21
283.65290824442508
  0
LINE
  8
_0-f_
  6
CONTINUOUS
 62
    7
 10
378.58788910305606
 20
282.54098824442514
 11
378.58788910305606
 21
282.98102824442509
  0
LINE
  8
_0-f_
  6
CONTINUOUS
 62
    7
 10
378.58788910305606
 20
282.98102824442509
 11
376.18788910305619
 21
282.98102824442509
  0
LINE
  8
_0-f_
  6
CONTINUOUS
 62
    7
 10
376.18788910305619
 20
282.98102824442509
 11
376.18788910305619
 21
282.54098824442514
  0
LINE
  8
_0-f_
  6
CONTINUOUS
 62
    7
 10
376.18788910305619
 20
282.54098824442514
 11
376.94789710305616
 21
282.54098824442514
  0
LINE
  8
_0-f_
  6
CONTINUOUS
 62
    7
 10
376.94789710305616
 20
282.54098824442514
 11
376.94789710305616
 21
281.21286824442512
  0
LINE
  8
_0-f_
  6
CONTINUOUS
 62
    7
 10
376.94789710305616
 20
281.21286824442512
 11
376.18788910305619
 21
281.21286824442512
  0
LINE
  8
_0-f_
  6
CONTINUOUS
 62
    7
 10
376.18788910305619
 20
281.21286824442512
 11
376.18788910305619
 21
280.77278824442516
  0
LINE
  8
_0-f_
  6
CONTINUOUS
 62
    7
 10
376.18788910305619
 20
280.77278824442516
 11
377.6750971030562
 21
280.77278824442516
  0
ARC
  8
_0-f_
  6
CONTINUOUS
 62
    7
 10
377.6750971030562
 20
281.57278824442511
 40
0.8000000000000078
 50
270
 51
285.45094822953388
  0
LINE
  8
_0-f_
  6
CONTINUOUS
 62
    7
 10
377.88822774294221
 20
280.8017011349869
 11
378.58788910305606
 21
281.00366824442511
  0
LINE
  8
_0-f_
  6
CONTINUOUS
 62
    7
 10
378.58788910305606
 20
281.00366824442511
 11
378.58788910305606
 21
281.44374824442508
  0
LINE
  8
_0-f_
  6
CONTINUOUS
 62
    7
 10
378.58788910305606
 20
281.44374824442508
 11
377.78791310305627
 21
281.21286824442512
  0
LINE
  8
_0-f_
  6
CONTINUOUS
 62
    7
 10
377.78791310305627
 20
281.21286824442512
 11
377.68788910305608
 21
281.21286824442512
  0
LINE
  8
_0-f_
  6
CONTINUOUS
 62
    7
 10
377.68788910305608
 20
281.21286824442512
 11
377.68788910305608
 21
282.54098824442514
  0
LINE
  8
_0-f_
  6
CONTINUOUS
 62
    7
 10
377.68788910305608
 20
282.54098824442514
 11
378.58788910305606
 21
282.54098824442514
  0
LINE
  8
_0-f_
  6
CONTINUOUS
 62
    7
 10
379.6618558366178
 20
284.09294824442514
 11
379.50541770419596
 21
284.77282824442517
  0
LINE
  8
_0-f_
  6
CONTINUOUS
 62
    7
 10
379.50541770419596
 20
284.77282824442517
 11
378.66669944438894
 21
284.77282824442517
  0
LINE
  8
_0-f_
  6
CONTINUOUS
 62
    7
 10
378.66669944438894
 20
284.77282824442517
 11
378.82475883315993
 21
284.09294824442514
  0
LINE
  8
_0-f_
  6
CONTINUOUS
 62
    7
 10
378.82475883315993
 20
284.09294824442514
 11
376.18788910305619
 21
284.09294824442514
  0
LINE
  8
_0-f_
  6
CONTINUOUS
 62
    7
 10
376.18788910305619
 20
284.09294824442514
 11
376.18788910305619
 21
283.65290824442508
  0
LINE
  8
_0-f_
  6
CONTINUOUS
 62
    7
 10
376.18788910305619
 20
283.65290824442508
 11
378.92705990604753
 21
283.65290824442508
  0
LINE
  8
_0-f_
  6
CONTINUOUS
 62
    7
 10
378.92705990604753
 20
283.65290824442508
 11
379.51031188291159
 21
281.14409584730362
  0
ARC
  8
_0-f_
  6
CONTINUOUS
 62
    7
 10
379.97784366023581
 20
281.25278824442506
 40
0.4800000000000017
 50
193.0877165037698
 51
270
  0
LINE
  8
_0-f_
  6
CONTINUOUS
 62
    7
 10
379.97784366023581
 20
280.77278824442516
 11
380.98788910305615
 21
280.77278824442516
  0
LINE
  8
_0-f_
  6
CONTINUOUS
 62
    7
 10
380.98788910305615
 20
280.77278824442516
 11
380.98788910305615
 21
281.21286824442512
  0
LINE
  8
_0-f_
  6
CONTINUOUS
 62
    7
 10
380.98788910305615
 20
281.21286824442512
 11
380.32455268962968
 21
281.21286824442512
  0
ARC
  8
_0-f_
  6
CONTINUOUS
 62
    7
 10
380.38791310305618
 20
281.29278824442514
 40
0.0799919999999997
 50
267.56884201629123
 51
272.43115798371281
  0
LINE
  8
_0-f_
  6
CONTINUOUS
 62
    7
 10
380.32455268962968
 20
281.21286824442512
 11
379.76310758073572
 21
283.65290824442508
  0
ARC
  8
_0-f_
  6
CONTINUOUS
 62
    7
 10
380.38791310305618
 20
281.29278824442514
 40
0.0799919999999997
 50
187.79901102615551
 51
198.1170401314526
  0
LINE
  8
_0-f_
  6
CONTINUOUS
 62
    7
 10
379.76310758073572
 20
283.65290824442508
 11
380.98788910305615
 21
283.65290824442508
  0
LINE
  8
_0-f_
  6
CONTINUOUS
 62
    7
 10
380.98788910305615
 20
283.65290824442508
 11
380.98788910305615
 21
284.09294824442514
  0
LINE
  8
_0-f_
  6
CONTINUOUS
 62
    7
 10
380.98788910305615
 20
284.09294824442514
 11
379.6618558366178
 21
284.09294824442514
  0
LINE
  8
_0-f_
  6
CONTINUOUS
 62
    7
 10
380.66789710305619
 20
284.77282824442517
 11
380.14789710305621
 21
284.77282824442517
  0
LINE
  8
_0-f_
  6
CONTINUOUS
 62
    7
 10
380.14789710305621
 20
284.77282824442517
 11
380.14789710305621
 21
284.41677224442509
  0
LINE
  8
_0-f_
  6
CONTINUOUS
 62
    7
 10
380.14789710305621
 20
284.41677224442509
 11
380.66789710305619
 21
284.41677224442509
  0
LINE
  8
_0-f_
  6
CONTINUOUS
 62
    7
 10
380.66789710305619
 20
284.41677224442509
 11
380.66789710305619
 21
284.77286824442507
  0
LINE
  8
_0-f_
  6
CONTINUOUS
 62
    7
 10
379.97482414013456
 20
282.73278824442508
 11
379.14097060322359
 21
282.73278824442508
  0
LINE
  8
_0-f_
  6
CONTINUOUS
 62
    7
 10
378.58788910305583
 20
282.73278824442508
 11
376.18788910305631
 21
282.73278824442508
  0
LINE
  8
_0-f_
  6
CONTINUOUS
 62
    7
 10
379.95641640554351
 20
282.81278824442512
 11
379.12237209892629
 21
282.81278824442512
  0
LINE
  8
_0-f_
  6
CONTINUOUS
 62
    7
 10
378.58788910305583
 20
282.81278824442512
 11
376.18788910305631
 21
282.81278824442512
  0
LINE
  8
_0-f_
  6
CONTINUOUS
 62
    7
 10
379.93800867095246
 20
282.89278824442505
 11
379.10377359462888
 21
282.89278824442505
  0
LINE
  8
_0-f_
  6
CONTINUOUS
 62
    7
 10
378.58788910305583
 20
282.89278824442505
 11
376.18788910305631
 21
282.89278824442505
  0
LINE
  8
_0-f_
  6
CONTINUOUS
 62
    7
 10
379.91960093636141
 20
282.97278824442509
 11
379.08517509033157
 21
282.97278824442509
  0
LINE
  8
_0-f_
  6
CONTINUOUS
 62
    7
 10
378.58788910305583
 20
282.97278824442509
 11
376.18788910305631
 21
282.97278824442509
  0
LINE
  8
_0-f_
  6
CONTINUOUS
 62
    7
 10
379.90119320177035
 20
283.05278824442513
 11
379.06657658603416
 21
283.05278824442513
  0
LINE
  8
_0-f_
  6
CONTINUOUS
 62
    7
 10
379.8827854671793
 20
283.13278824442506
 11
379.04797808173686
 21
283.13278824442506
  0
LINE
  8
_0-f_
  6
CONTINUOUS
 62
    7
 10
379.86437773258825
 20
283.2127882444251
 11
379.02937957743944
 21
283.2127882444251
  0
LINE
  8
_0-f_
  6
CONTINUOUS
 62
    7
 10
379.84596999799732
 20
283.29278824442514
 11
379.01078107314214
 21
283.29278824442514
  0
LINE
  8
_0-f_
  6
CONTINUOUS
 62
    7
 10
379.82756226340626
 20
283.37278824442518
 11
378.99218256884484
 21
283.37278824442518
  0
LINE
  8
_0-f_
  6
CONTINUOUS
 62
    7
 10
379.80915452881521
 20
283.45278824442511
 11
378.97358406454742
 21
283.45278824442511
  0
LINE
  8
_0-f_
  6
CONTINUOUS
 62
    7
 10
379.79074679422416
 20
283.53278824442515
 11
378.95498556025001
 21
283.53278824442515
  0
LINE
  8
_0-f_
  6
CONTINUOUS
 62
    7
 10
379.77233905963311
 20
283.61278824442508
 11
378.93638705595271
 21
283.61278824442508
  0
LINE
  8
_0-f_
  6
CONTINUOUS
 62
    7
 10
380.98788910305626
 20
283.69278824442512
 11
376.18788910305597
 21
283.69278824442512
  0
LINE
  8
_0-f_
  6
CONTINUOUS
 62
    7
 10
380.98788910305626
 20
283.77278824442516
 11
376.18788910305597
 21
283.77278824442516
  0
LINE
  8
_0-f_
  6
CONTINUOUS
 62
    7
 10
380.98788910305626
 20
283.85278824442508
 11
376.18788910305597
 21
283.85278824442508
  0
LINE
  8
_0-f_
  6
CONTINUOUS
 62
    7
 10
380.98788910305626
 20
283.93278824442513
 11
376.18788910305597
 21
283.93278824442513
  0
LINE
  8
_0-f_
  6
CONTINUOUS
 62
    7
 10
380.98788910305626
 20
284.01278824442505
 11
376.18788910305597
 21
284.01278824442505
  0
LINE
  8
_0-f_
  6
CONTINUOUS
 62
    7
 10
380.98788910305626
 20
284.09278824442509
 11
376.18788910305597
 21
284.09278824442509
  0
LINE
  8
_0-f_
  6
CONTINUOUS
 62
    7
 10
379.64348491749575
 20
284.17278824442513
 11
378.80619752587137
 21
284.17278824442513
  0
LINE
  8
_0-f_
  6
CONTINUOUS
 62
    7
 10
379.6250771829047
 20
284.25278824442506
 11
378.78759902157395
 21
284.25278824442506
  0
LINE
  8
_0-f_
  6
CONTINUOUS
 62
    7
 10
379.60666944831365
 20
284.3327882444251
 11
378.76900051727665
 21
284.3327882444251
  0
LINE
  8
_0-f_
  6
CONTINUOUS
 62
    7
 10
379.5882617137226
 20
284.41278824442514
 11
378.75040201297935
 21
284.41278824442514
  0
LINE
  8
_0-f_
  6
CONTINUOUS
 62
    7
 10
380.66789710305619
 20
284.49278824442518
 11
380.14789710305541
 21
284.49278824442518
  0
LINE
  8
_0-f_
  6
CONTINUOUS
 62
    7
 10
379.56985397913155
 20
284.49278824442518
 11
378.73180350868193
 21
284.49278824442518
  0
LINE
  8
_0-f_
  6
CONTINUOUS
 62
    7
 10
380.66789710305619
 20
284.57278824442511
 11
380.14789710305541
 21
284.57278824442511
  0
LINE
  8
_0-f_
  6
CONTINUOUS
 62
    7
 10
379.55144624454061
 20
284.57278824442511
 11
378.71320500438463
 21
284.57278824442511
  0
LINE
  8
_0-f_
  6
CONTINUOUS
 62
    7
 10
380.66789710305619
 20
284.65278824442515
 11
380.14789710305541
 21
284.65278824442515
  0
LINE
  8
_0-f_
  6
CONTINUOUS
 62
    7
 10
379.53303850994956
 20
284.65278824442515
 11
378.69460650008722
 21
284.65278824442515
  0
LINE
  8
_0-f_
  6
CONTINUOUS
 62
    7
 10
380.66789710305619
 20
284.73278824442508
 11
380.14789710305541
 21
284.73278824442508
  0
LINE
  8
_0-f_
  6
CONTINUOUS
 62
    7
 10
379.51463077535851
 20
284.73278824442508
 11
378.6760079957898
 21
284.73278824442508
  0
LINE
  8
_0-f_
  6
CONTINUOUS
 62
    7
 10
379.99323187472561
 20
282.65278824442515
 11
379.15956910752101
 21
282.65278824442515
  0
LINE
  8
_0-f_
  6
CONTINUOUS
 62
    7
 10
378.58788910305583
 20
282.65278824442515
 11
376.18788910305631
 21
282.65278824442515
  0
LINE
  8
_0-f_
  6
CONTINUOUS
 62
    7
 10
380.01163960931666
 20
282.57278824442511
 11
379.17816761181831
 21
282.57278824442511
  0
LINE
  8
_0-f_
  6
CONTINUOUS
 62
    7
 10
378.58788910305583
 20
282.57278824442511
 11
376.18788910305631
 21
282.57278824442511
  0
LINE
  8
_0-f_
  6
CONTINUOUS
 62
    7
 10
380.0300473439076
 20
282.49278824442507
 11
379.19676611611561
 21
282.49278824442507
  0
LINE
  8
_0-f_
  6
CONTINUOUS
 62
    7
 10
377.68788910305597
 20
282.49278824442507
 11
376.94789710305628
 21
282.49278824442507
  0
LINE
  8
_0-f_
  6
CONTINUOUS
 62
    7
 10
380.04845507849865
 20
282.41278824442503
 11
379.21536462041303
 21
282.41278824442503
  0
LINE
  8
_0-f_
  6
CONTINUOUS
 62
    7
 10
377.68788910305597
 20
282.41278824442503
 11
376.94789710305628
 21
282.41278824442503
  0
LINE
  8
_0-f_
  6
CONTINUOUS
 62
    7
 10
380.0668628130897
 20
282.3327882444251
 11
379.23396312471044
 21
282.3327882444251
  0
LINE
  8
_0-f_
  6
CONTINUOUS
 62
    7
 10
377.68788910305597
 20
282.3327882444251
 11
376.94789710305628
 21
282.3327882444251
  0
LINE
  8
_0-f_
  6
CONTINUOUS
 62
    7
 10
380.08527054768075
 20
282.25278824442506
 11
379.25256162900774
 21
282.25278824442506
  0
LINE
  8
_0-f_
  6
CONTINUOUS
 62
    7
 10
377.68788910305597
 20
282.25278824442506
 11
376.94789710305628
 21
282.25278824442506
  0
LINE
  8
_0-f_
  6
CONTINUOUS
 62
    7
 10
380.1036782822718
 20
282.17278824442502
 11
379.27116013330516
 21
282.17278824442502
  0
LINE
  8
_0-f_
  6
CONTINUOUS
 62
    7
 10
377.68788910305597
 20
282.17278824442502
 11
376.94789710305628
 21
282.17278824442502
  0
LINE
  8
_0-f_
  6
CONTINUOUS
 62
    7
 10
380.12208601686285
 20
282.09278824442509
 11
379.28975863760246
 21
282.09278824442509
  0
LINE
  8
_0-f_
  6
CONTINUOUS
 62
    7
 10
377.68788910305597
 20
282.09278824442509
 11
376.94789710305628
 21
282.09278824442509
  0
LINE
  8
_0-f_
  6
CONTINUOUS
 62
    7
 10
380.14049375145379
 20
282.01278824442505
 11
379.30835714189976
 21
282.01278824442505
  0
LINE
  8
_0-f_
  6
CONTINUOUS
 62
    7
 10
377.68788910305597
 20
282.01278824442505
 11
376.94789710305628
 21
282.01278824442505
  0
LINE
  8
_0-f_
  6
CONTINUOUS
 62
    7
 10
380.15890148604484
 20
281.93278824442513
 11
379.32695564619718
 21
281.93278824442513
  0
LINE
  8
_0-f_
  6
CONTINUOUS
 62
    7
 10
377.68788910305597
 20
281.93278824442513
 11
376.94789710305628
 21
281.93278824442513
  0
LINE
  8
_0-f_
  6
CONTINUOUS
 62
    7
 10
380.17730922063589
 20
281.85278824442508
 11
379.34555415049448
 21
281.85278824442508
  0
LINE
  8
_0-f_
  6
CONTINUOUS
 62
    7
 10
377.68788910305597
 20
281.85278824442508
 11
376.94789710305628
 21
281.85278824442508
  0
LINE
  8
_0-f_
  6
CONTINUOUS
 62
    7
 10
380.19571695522694
 20
281.77278824442504
 11
379.36415265479189
 21
281.77278824442504
  0
LINE
  8
_0-f_
  6
CONTINUOUS
 62
    7
 10
377.68788910305597
 20
281.77278824442504
 11
376.94789710305628
 21
281.77278824442504
  0
LINE
  8
_0-f_
  6
CONTINUOUS
 62
    7
 10
380.21412468981799
 20
281.69278824442512
 11
379.3827511590892
 21
281.69278824442512
  0
LINE
  8
_0-f_
  6
CONTINUOUS
 62
    7
 10
377.68788910305597
 20
281.69278824442512
 11
376.94789710305628
 21
281.69278824442512
  0
LINE
  8
_0-f_
  6
CONTINUOUS
 62
    7
 10
380.23253242440893
 20
281.61278824442508
 11
379.40134966338661
 21
281.61278824442508
  0
LINE
  8
_0-f_
  6
CONTINUOUS
 62
    7
 10
377.68788910305597
 20
281.61278824442508
 11
376.94789710305628
 21
281.61278824442508
  0
LINE
  8
_0-f_
  6
CONTINUOUS
 62
    7
 10
380.25094015899998
 20
281.53278824442515
 11
379.41994816768391
 21
281.53278824442515
  0
LINE
  8
_0-f_
  6
CONTINUOUS
 62
    7
 10
377.68788910305597
 20
281.53278824442515
 11
376.94789710305628
 21
281.53278824442515
  0
LINE
  8
_0-f_
  6
CONTINUOUS
 62
    7
 10
380.26934789359103
 20
281.45278824442511
 11
379.43854667198121
 21
281.45278824442511
  0
LINE
  8
_0-f_
  6
CONTINUOUS
 62
    7
 10
377.68788910305597
 20
281.45278824442511
 11
376.94789710305628
 21
281.45278824442511
  0
LINE
  8
_0-f_
  6
CONTINUOUS
 62
    7
 10
380.28775562818208
 20
281.37278824442507
 11
379.45714517627863
 21
281.37278824442507
  0
LINE
  8
_0-f_
  6
CONTINUOUS
 62
    7
 10
378.5878891030564
 20
281.37278824442507
 11
378.34201983347936
 21
281.37278824442507
  0
LINE
  8
_0-f_
  6
CONTINUOUS
 62
    7
 10
377.68788910305597
 20
281.37278824442507
 11
376.94789710305628
 21
281.37278824442507
  0
LINE
  8
_0-f_
  6
CONTINUOUS
 62
    7
 10
380.30616336277313
 20
281.29278824442503
 11
379.47574368057604
 21
281.29278824442503
  0
LINE
  8
_0-f_
  6
CONTINUOUS
 62
    7
 10
378.5878891030564
 20
281.29278824442503
 11
378.06482787228748
 21
281.29278824442503
  0
LINE
  8
_0-f_
  6
CONTINUOUS
 62
    7
 10
377.68788910305597
 20
281.29278824442503
 11
376.94789710305628
 21
281.29278824442503
  0
LINE
  8
_0-f_
  6
CONTINUOUS
 62
    7
 10
380.98788910305615
 20
281.2127882444251
 11
379.49434218487335
 21
281.2127882444251
  0
LINE
  8
_0-f_
  6
CONTINUOUS
 62
    7
 10
378.5878891030564
 20
281.2127882444251
 11
376.18788910305619
 21
281.2127882444251
  0
LINE
  8
_0-f_
  6
CONTINUOUS
 62
    7
 10
380.98788910305615
 20
281.13278824442506
 11
379.51389687574482
 21
281.13278824442506
  0
LINE
  8
_0-f_
  6
CONTINUOUS
 62
    7
 10
378.5878891030564
 20
281.13278824442506
 11
376.18788910305619
 21
281.13278824442506
  0
LINE
  8
_0-f_
  6
CONTINUOUS
 62
    7
 10
380.98788910305615
 20
281.05278824442502
 11
379.54283533377708
 21
281.05278824442502
  0
LINE
  8
_0-f_
  6
CONTINUOUS
 62
    7
 10
378.5878891030564
 20
281.05278824442502
 11
376.18788910305619
 21
281.05278824442502
  0
LINE
  8
_0-f_
  6
CONTINUOUS
 62
    7
 10
380.98788910305615
 20
280.97278824442509
 11
379.58979127321737
 21
280.97278824442509
  0
LINE
  8
_0-f_
  6
CONTINUOUS
 62
    7
 10
378.48091355213359
 20
280.97278824442509
 11
376.18788910305619
 21
280.97278824442509
  0
LINE
  8
_0-f_
  6
CONTINUOUS
 62
    7
 10
380.98788910305615
 20
280.89278824442505
 11
379.66078803633974
 21
280.89278824442505
  0
LINE
  8
_0-f_
  6
CONTINUOUS
 62
    7
 10
378.2037748191745
 20
280.89278824442505
 11
376.18788910305619
 21
280.89278824442505
  0
LINE
  8
_0-f_
  6
CONTINUOUS
 62
    7
 10
380.98788910305615
 20
280.81278824442512
 11
379.78686571653537
 21
280.81278824442512
  0
LINE
  8
_0-f_
  6
CONTINUOUS
 62
    7
 10
377.92663608621541
 20
280.81278824442512
 11
376.18788910305619
 21
280.81278824442512
  0
ARC
  8
_0-f_
  6
CONTINUOUS
 62
    7
 10
377.6750971030562
 20
281.57278824442511
 40
0.8000000000000001
 50
270
 51
286.10199
  0
ARC
  8
_0-f_
  6
CONTINUOUS
 62
    7
 10
380.38791310305618
 20
281.29278824442514
 40
0.0799919999999997
 50
192.96201000000002
 51
270
  0
LINE
  8
_0-f_
  6
CONTINUOUS
 62
    7
 10
384.23116174023988
 20
284.33322824442513
 11
386.49436974023985
 21
283.77283624442504
  0
LINE
  8
_0-f_
  6
CONTINUOUS
 62
    7
 10
386.49436974023985
 20
283.77282824442506
 11
386.49436974023985
 21
284.21286824442512
  0
LINE
  8
_0-f_
  6
CONTINUOUS
 62
    7
 10
386.49436974023985
 20
284.21286824442512
 11
384.36717774023981
 21
284.74143624442507
  0
ARC
  8
_0-f_
  6
CONTINUOUS
 62
    7
 10
384.09434574023982
 20
283.57282824442512
 40
1.1999999999999964
 50
76.734271344360408
 51
103.26596249111499
  0
LINE
  8
_0-f_
  6
CONTINUOUS
 62
    7
 10
383.82154574023974
 20
284.74144424442505
 11
381.69434574023984
 21
284.21288424442508
  0
LINE
  8
_0-f_
  6
CONTINUOUS
 62
    7
 10
381.69434574023984
 20
284.21288424442508
 11
381.69434574023984
 21
283.77282824442506
  0
LINE
  8
_0-f_
  6
CONTINUOUS
 62
    7
 10
381.69434574023984
 20
283.77282824442506
 11
383.95836174023981
 21
284.33322024442504
  0
ARC
  8
_0-f_
  6
CONTINUOUS
 62
    7
 10
384.09434574023993
 20
283.74899624442509
 40
0.5999999999999982
 50
75.757176751039125
 51
105.44466990909265
  0
LINE
  8
_0-f_
  6
CONTINUOUS
 62
    7
 10
385.7999537402398
 20
283.60486024442508
 11
382.38875374023968
 21
283.60486024442508
  0
LINE
  8
_0-f_
  6
CONTINUOUS
 62
    7
 10
382.38875374023968
 20
283.60486024442508
 11
382.38875374023968
 21
283.16482024442513
  0
LINE
  8
_0-f_
  6
CONTINUOUS
 62
    7
 10
382.38875374023968
 20
283.16482024442513
 11
385.7999537402398
 21
283.16482024442513
  0
LINE
  8
_0-f_
  6
CONTINUOUS
 62
    7
 10
385.7999537402398
 20
283.16482024442513
 11
385.7999537402398
 21
283.60486024442508
  0
LINE
  8
_0-f_
  6
CONTINUOUS
 62
    7
 10
386.49436974023985
 20
282.68474024442509
 11
381.69434574023973
 21
282.68474024442509
  0
LINE
  8
_0-f_
  6
CONTINUOUS
 62
    7
 10
381.69434574023973
 20
282.68474024442509
 11
381.69434574023984
 21
282.24490024442508
  0
LINE
  8
_0-f_
  6
CONTINUOUS
 62
    7
 10
381.69434574023984
 20
282.24490024442508
 11
382.94476174023993
 21
282.24490024442508
  0
LINE
  8
_0-f_
  6
CONTINUOUS
 62
    7
 10
382.94402762647502
 20
282.24490024442508
 11
382.17596174023976
 21
280.91430824442506
  0
LINE
  8
_0-f_
  6
CONTINUOUS
 62
    7
 10
382.17596174023976
 20
280.91430824442506
 11
382.17596174023976
 21
280.77278824442516
  0
LINE
  8
_0-f_
  6
CONTINUOUS
 62
    7
 10
382.17596174023976
 20
280.77278824442516
 11
386.01275374023982
 21
280.77278824442516
  0
LINE
  8
_0-f_
  6
CONTINUOUS
 62
    7
 10
386.01275374023982
 20
280.77278824442516
 11
386.01275374023982
 21
280.91422824442515
  0
LINE
  8
_0-f_
  6
CONTINUOUS
 62
    7
 10
386.01275374023982
 20
280.91422824442515
 11
385.24466014910996
 21
282.24490024442508
  0
LINE
  8
_0-f_
  6
CONTINUOUS
 62
    7
 10
385.24466014910996
 20
282.24490024442508
 11
386.49436974023985
 21
282.24490024442508
  0
LINE
  8
_0-f_
  6
CONTINUOUS
 62
    7
 10
386.49436974023985
 20
282.24490024442508
 11
386.49436974023985
 21
282.68474024442509
  0
LINE
  8
_0-f_
  6
CONTINUOUS
 62
    7
 10
383.45204483401386
 20
282.24490024442508
 11
384.73676974023982
 21
282.24490024442508
  0
LINE
  8
_0-f_
  6
CONTINUOUS
 62
    7
 10
384.7367466611858
 20
282.24490024442508
 11
385.2799537402397
 21
281.30342824442511
  0
LINE
  8
_0-f_
  6
CONTINUOUS
 62
    7
 10
385.2799537402397
 20
281.30350824442513
 11
385.2799537402397
 21
281.24486824442505
  0
LINE
  8
_0-f_
  6
CONTINUOUS
 62
    7
 10
385.2799537402397
 20
281.24486824442505
 11
382.90877774023983
 21
281.24486824442505
  0
LINE
  8
_0-f_
  6
CONTINUOUS
 62
    7
 10
382.90877774023983
 20
281.24486824442505
 11
382.90877774023983
 21
281.30350824442513
  0
LINE
  8
_0-f_
  6
CONTINUOUS
 62
    7
 10
382.90877774023983
 20
281.30342824442511
 11
383.45204483401386
 21
282.24490024442508
  0
LINE
  8
_0-f_
  6
CONTINUOUS
 62
    7
 10
385.79995374023991
 20
283.2127882444251
 11
382.38875374023968
 21
283.2127882444251
  0
LINE
  8
_0-f_
  6
CONTINUOUS
 62
    7
 10
385.79995374023991
 20
283.29278824442514
 11
382.38875374023968
 21
283.29278824442514
  0
LINE
  8
_0-f_
  6
CONTINUOUS
 62
    7
 10
385.79995374023991
 20
283.37278824442518
 11
382.38875374023968
 21
283.37278824442518
  0
LINE
  8
_0-f_
  6
CONTINUOUS
 62
    7
 10
385.79995374023991
 20
283.45278824442511
 11
382.38875374023968
 21
283.45278824442511
  0
LINE
  8
_0-f_
  6
CONTINUOUS
 62
    7
 10
385.79995374023991
 20
283.53278824442515
 11
382.38875374023968
 21
283.53278824442515
  0
LINE
  8
_0-f_
  6
CONTINUOUS
 62
    7
 10
386.49436974023951
 20
283.85278824442508
 11
386.17147432771429
 21
283.85278824442508
  0
LINE
  8
_0-f_
  6
CONTINUOUS
 62
    7
 10
382.017388751846
 20
283.85278824442508
 11
381.69434574023984
 21
283.85278824442508
  0
LINE
  8
_0-f_
  6
CONTINUOUS
 62
    7
 10
386.49436974023951
 20
283.93278824442513
 11
385.84838506162902
 21
283.93278824442513
  0
LINE
  8
_0-f_
  6
CONTINUOUS
 62
    7
 10
382.34059336575916
 20
283.93278824442513
 11
381.69434574023984
 21
283.93278824442513
  0
LINE
  8
_0-f_
  6
CONTINUOUS
 62
    7
 10
386.49436974023951
 20
284.01278824442505
 11
385.52529579554397
 21
284.01278824442505
  0
LINE
  8
_0-f_
  6
CONTINUOUS
 62
    7
 10
382.66379797967232
 20
284.01278824442505
 11
381.69434574023984
 21
284.01278824442505
  0
LINE
  8
_0-f_
  6
CONTINUOUS
 62
    7
 10
386.49436974023951
 20
284.09278824442509
 11
385.20220652945869
 21
284.09278824442509
  0
LINE
  8
_0-f_
  6
CONTINUOUS
 62
    7
 10
382.98700259358549
 20
284.09278824442509
 11
381.69434574023984
 21
284.09278824442509
  0
LINE
  8
_0-f_
  6
CONTINUOUS
 62
    7
 10
386.49436974023951
 20
284.17278824442513
 11
384.87911726337353
 21
284.17278824442513
  0
LINE
  8
_0-f_
  6
CONTINUOUS
 62
    7
 10
383.31020720749854
 20
284.17278824442513
 11
381.69434574023984
 21
284.17278824442513
  0
LINE
  8
_0-f_
  6
CONTINUOUS
 62
    7
 10
386.33371395964008
 20
284.25278824442506
 11
384.55602799728837
 21
284.25278824442506
  0
LINE
  8
_0-f_
  6
CONTINUOUS
 62
    7
 10
383.6334118214117
 20
284.25278824442506
 11
381.85494016433546
 21
284.25278824442506
  0
LINE
  8
_0-f_
  6
CONTINUOUS
 62
    7
 10
386.01175848749648
 20
284.3327882444251
 11
384.22894938469739
 21
284.3327882444251
  0
LINE
  8
_0-f_
  6
CONTINUOUS
 62
    7
 10
383.95629398864702
 20
284.3327882444251
 11
382.17690172026101
 21
284.3327882444251
  0
LINE
  8
_0-f_
  6
CONTINUOUS
 62
    7
 10
385.68980301535288
 20
284.41278824442514
 11
382.49886327618657
 21
284.41278824442514
  0
LINE
  8
_0-f_
  6
CONTINUOUS
 62
    7
 10
385.36784754320928
 20
284.49278824442518
 11
382.82082483211201
 21
284.49278824442518
  0
LINE
  8
_0-f_
  6
CONTINUOUS
 62
    7
 10
385.04589207106568
 20
284.57278824442511
 11
383.14278638803768
 21
284.57278824442511
  0
LINE
  8
_0-f_
  6
CONTINUOUS
 62
    7
 10
384.72393659892208
 20
284.65278824442515
 11
383.46474794396312
 21
284.65278824442515
  0
LINE
  8
_0-f_
  6
CONTINUOUS
 62
    7
 10
384.40198112677848
 20
284.73278824442508
 11
383.78670949988867
 21
284.73278824442508
  0
LINE
  8
_0-f_
  6
CONTINUOUS
 62
    7
 10
386.49436974024007
 20
282.65278824442515
 11
381.69434574023984
 21
282.65278824442515
  0
LINE
  8
_0-f_
  6
CONTINUOUS
 62
    7
 10
386.49436974024007
 20
282.57278824442511
 11
381.69434574023984
 21
282.57278824442511
  0
LINE
  8
_0-f_
  6
CONTINUOUS
 62
    7
 10
386.49436974024007
 20
282.49278824442507
 11
381.69434574023984
 21
282.49278824442507
  0
LINE
  8
_0-f_
  6
CONTINUOUS
 62
    7
 10
386.49436974024007
 20
282.41278824442503
 11
381.69434574023984
 21
282.41278824442503
  0
LINE
  8
_0-f_
  6
CONTINUOUS
 62
    7
 10
386.49436974024007
 20
282.3327882444251
 11
381.69434574023984
 21
282.3327882444251
  0
LINE
  8
_0-f_
  6
CONTINUOUS
 62
    7
 10
386.49436974024007
 20
282.25278824442506
 11
381.69434574023984
 21
282.25278824442506
  0
LINE
  8
_0-f_
  6
CONTINUOUS
 62
    7
 10
385.28628480570723
 20
282.17278824442513
 11
384.77835357980331
 21
282.17278824442513
  0
LINE
  8
_0-f_
  6
CONTINUOUS
 62
    7
 10
383.41043331857196
 20
282.17278824442502
 11
382.90240196873145
 21
282.17278824442502
  0
LINE
  8
_0-f_
  6
CONTINUOUS
 62
    7
 10
385.33246259203651
 20
282.09278824442509
 11
384.82451168787696
 21
282.09278824442509
  0
LINE
  8
_0-f_
  6
CONTINUOUS
 62
    7
 10
383.36427011084839
 20
282.09278824442509
 11
382.85622307174521
 21
282.09278824442509
  0
LINE
  8
_0-f_
  6
CONTINUOUS
 62
    7
 10
385.37864037836579
 20
282.01278824442505
 11
384.87066979595062
 21
282.01278824442505
  0
LINE
  8
_0-f_
  6
CONTINUOUS
 62
    7
 10
383.31810690312483
 20
282.01278824442505
 11
382.81004417475884
 21
282.01278824442505
  0
LINE
  8
_0-f_
  6
CONTINUOUS
 62
    7
 10
385.42481816469518
 20
281.93278824442513
 11
384.91682790402427
 21
281.93278824442513
  0
LINE
  8
_0-f_
  6
CONTINUOUS
 62
    7
 10
383.27194369540126
 20
281.93278824442513
 11
382.76386527777248
 21
281.93278824442513
  0
LINE
  8
_0-f_
  6
CONTINUOUS
 62
    7
 10
385.47099595102446
 20
281.85278824442508
 11
384.96298601209793
 21
281.85278824442508
  0
LINE
  8
_0-f_
  6
CONTINUOUS
 62
    7
 10
383.2257804876777
 20
281.85278824442508
 11
382.71768638078623
 21
281.85278824442508
  0
LINE
  8
_0-f_
  6
CONTINUOUS
 62
    7
 10
385.51717373735374
 20
281.77278824442504
 11
385.00914412017158
 21
281.77278824442504
  0
LINE
  8
_0-f_
  6
CONTINUOUS
 62
    7
 10
383.17961727995413
 20
281.77278824442504
 11
382.67150748379987
 21
281.77278824442504
  0
LINE
  8
_0-f_
  6
CONTINUOUS
 62
    7
 10
385.56335152368302
 20
281.69278824442512
 11
385.05530222824524
 21
281.69278824442512
  0
LINE
  8
_0-f_
  6
CONTINUOUS
 62
    7
 10
383.13345407223056
 20
281.69278824442512
 11
382.62532858681351
 21
281.69278824442512
  0
LINE
  8
_0-f_
  6
CONTINUOUS
 62
    7
 10
385.60952931001231
 20
281.61278824442508
 11
385.10146033631889
 21
281.61278824442508
  0
LINE
  8
_0-f_
  6
CONTINUOUS
 62
    7
 10
383.087290864507
 20
281.61278824442508
 11
382.57914968982726
 21
281.61278824442508
  0
LINE
  8
_0-f_
  6
CONTINUOUS
 62
    7
 10
385.65570709634159
 20
281.53278824442515
 11
385.14761844439255
 21
281.53278824442515
  0
LINE
  8
_0-f_
  6
CONTINUOUS
 62
    7
 10
383.04112765678343
 20
281.53278824442515
 11
382.5329707928409
 21
281.53278824442515
  0
LINE
  8
_0-f_
  6
CONTINUOUS
 62
    7
 10
385.70188488267098
 20
281.45278824442511
 11
385.1937765524662
 21
281.45278824442511
  0
LINE
  8
_0-f_
  6
CONTINUOUS
 62
    7
 10
382.99496444905986
 20
281.45278824442511
 11
382.48679189585465
 21
281.45278824442511
  0
LINE
  8
_0-f_
  6
CONTINUOUS
 62
    7
 10
385.74806266900026
 20
281.37278824442507
 11
385.23993466053975
 21
281.37278824442507
  0
LINE
  8
_0-f_
  6
CONTINUOUS
 62
    7
 10
382.9488012413363
 20
281.37278824442507
 11
382.44061299886829
 21
281.37278824442507
  0
LINE
  8
_0-f_
  6
CONTINUOUS
 62
    7
 10
385.79424045532954
 20
281.29278824442503
 11
385.27995374023982
 21
281.29278824442503
  0
LINE
  8
_0-f_
  6
CONTINUOUS
 62
    7
 10
382.90877774023551
 20
281.29278824442503
 11
382.39443410188204
 21
281.29278824442503
  0
LINE
  8
_0-f_
  6
CONTINUOUS
 62
    7
 10
385.84041824165882
 20
281.2127882444251
 11
382.34825520489568
 21
281.2127882444251
  0
LINE
  8
_0-f_
  6
CONTINUOUS
 62
    7
 10
385.88659602798811
 20
281.13278824442506
 11
382.30207630790932
 21
281.13278824442506
  0
LINE
  8
_0-f_
  6
CONTINUOUS
 62
    7
 10
385.9327738143175
 20
281.05278824442502
 11
382.25589741092307
 21
281.05278824442502
  0
LINE
  8
_0-f_
  6
CONTINUOUS
 62
    7
 10
385.97895160064678
 20
280.97278824442509
 11
382.20971851393671
 21
280.97278824442509
  0
LINE
  8
_0-f_
  6
CONTINUOUS
 62
    7
 10
386.01275374023834
 20
280.89278824442505
 11
382.17596174024101
 21
280.89278824442505
  0
LINE
  8
_0-f_
  6
CONTINUOUS
 62
    7
 10
386.01275374023834
 20
280.81278824442512
 11
382.17596174024101
 21
280.81278824442512
  0
ARC
  8
_0-f_
  6
CONTINUOUS
 62
    7
 10
384.09434574023993
 20
283.57282824442512
 40
1.2000000000000004
 50
76.866900000000015
 51
103.133
  0
ARC
  8
_0-f_
  6
CONTINUOUS
 62
    7
 10
384.09434574023993
 20
283.74899624442509
 40
0.6000000000000002
 50
76.866900000000015
 51
103.133
  0
LINE
  8
_0-f_
  6
CONTINUOUS
 62
    7
 10
389.64894765295884
 20
284.77282824442517
 11
386.88893965295887
 21
284.77282824442517
  0
LINE
  8
_0-f_
  6
CONTINUOUS
 62
    7
 10
386.88893965295887
 20
284.77282824442517
 11
386.88893965295887
 21
284.3327882444251
  0
LINE
  8
_0-f_
  6
CONTINUOUS
 62
    7
 10
386.88893965295875
 20
284.3327882444251
 11
389.64894765295884
 21
284.3327882444251
  0
LINE
  8
_0-f_
  6
CONTINUOUS
 62
    7
 10
389.64894765295884
 20
284.3327882444251
 11
389.64894765295884
 21
284.77282824442517
  0
LINE
  8
_0-f_
  6
CONTINUOUS
 62
    7
 10
389.64894765295884
 20
283.65290824442508
 11
386.88893965295887
 21
283.65290824442508
  0
LINE
  8
_0-f_
  6
CONTINUOUS
 62
    7
 10
386.88893965295887
 20
283.65290824442508
 11
386.88893965295887
 21
283.21286824442512
  0
LINE
  8
_0-f_
  6
CONTINUOUS
 62
    7
 10
386.88893965295887
 20
283.21286824442512
 11
388.00495565295893
 21
283.21286824442512
  0
LINE
  8
_0-f_
  6
CONTINUOUS
 62
    7
 10
388.00495565295893
 20
283.21286824442512
 11
388.00495565295893
 21
280.77278824442516
  0
LINE
  8
_0-f_
  6
CONTINUOUS
 62
    7
 10
388.00495565295893
 20
280.77278824442516
 11
388.53294765295874
 21
280.77278824442516
  0
LINE
  8
_0-f_
  6
CONTINUOUS
 62
    7
 10
388.53294765295874
 20
280.77278824442516
 11
388.53294765295874
 21
283.21286824442512
  0
LINE
  8
_0-f_
  6
CONTINUOUS
 62
    7
 10
388.53294765295874
 20
283.21286824442512
 11
389.64894765295884
 21
283.21286824442512
  0
LINE
  8
_0-f_
  6
CONTINUOUS
 62
    7
 10
389.64894765295884
 20
283.21286824442512
 11
389.64894765295884
 21
283.65290824442508
  0
LINE
  8
_0-f_
  6
CONTINUOUS
 62
    7
 10
387.10493965295888
 20
282.73278824442508
 11
387.10493965295888
 21
281.41286824442506
  0
ARC
  8
_0-f_
  6
CONTINUOUS
 62
    7
 10
386.94494765295889
 20
281.41286824442506
 40
0.1600000000000022
 50
270
 51
0.5729601837918403
  0
LINE
  8
_0-f_
  6
CONTINUOUS
 62
    7
 10
386.94494765295889
 20
281.25286824442509
 11
386.88893965295887
 21
281.25286824442509
  0
LINE
  8
_0-f_
  6
CONTINUOUS
 62
    7
 10
386.88893965295887
 20
281.25286824442509
 11
386.88893965295887
 21
280.77278824442516
  0
LINE
  8
_0-f_
  6
CONTINUOUS
 62
    7
 10
386.88893965295887
 20
280.77278824442516
 11
387.1849476529589
 21
280.77278824442516
  0
ARC
  8
_0-f_
  6
CONTINUOUS
 62
    7
 10
387.1849476529589
 20
281.17278824442513
 40
0.4
 50
270
 51
0
  0
LINE
  8
_0-f_
  6
CONTINUOUS
 62
    7
 10
387.58494765295887
 20
281.17278824442513
 11
387.58494765295887
 21
282.73278824442508
  0
LINE
  8
_0-f_
  6
CONTINUOUS
 62
    7
 10
387.58494765295887
 20
282.73278824442508
 11
387.10493965295876
 21
282.73278824442508
  0
LINE
  8
_0-f_
  6
CONTINUOUS
 62
    7
 10
388.95295565295891
 20
282.73278824442508
 11
388.95295565295891
 21
281.16921057144287
  0
ARC
  8
_0-f_
  6
CONTINUOUS
 62
    7
 10
389.35293965295892
 20
281.17278824442513
 40
0.4
 50
180.51247073885855
 51
270
  0
LINE
  8
_0-f_
  6
CONTINUOUS
 62
    7
 10
389.35293965295892
 20
280.77278824442516
 11
389.64894765295884
 21
280.77278824442516
  0
LINE
  8
_0-f_
  6
CONTINUOUS
 62
    7
 10
389.64894765295884
 20
280.77278824442516
 11
389.64894765295884
 21
281.25286824442509
  0
LINE
  8
_0-f_
  6
CONTINUOUS
 62
    7
 10
389.64894765295884
 20
281.25286824442509
 11
389.59293965295882
 21
281.25286824442509
  0
ARC
  8
_0-f_
  6
CONTINUOUS
 62
    7
 10
389.59293965295882
 20
281.41286824442506
 40
0.1600000000000022
 50
179.42703981620815
 51
270
  0
LINE
  8
_0-f_
  6
CONTINUOUS
 62
    7
 10
389.43294765295894
 20
281.41286824442506
 11
389.43294765295894
 21
282.73278824442508
  0
LINE
  8
_0-f_
  6
CONTINUOUS
 62
    7
 10
389.43294765295894
 20
282.73278824442508
 11
388.95295565295891
 21
282.73278824442508
  0
LINE
  8
_0-f_
  6
CONTINUOUS
 62
    7
 10
391.068955652959
 20
283.41286824442506
 11
391.68894765295892
 21
283.41286824442506
  0
LINE
  8
_0-f_
  6
CONTINUOUS
 62
    7
 10
391.68894765295892
 20
283.41286824442506
 11
391.68894765295892
 21
283.85290824442512
  0
LINE
  8
_0-f_
  6
CONTINUOUS
 62
    7
 10
391.68894765295892
 20
283.85290824442512
 11
391.068955652959
 21
283.85290824442512
  0
LINE
  8
_0-f_
  6
CONTINUOUS
 62
    7
 10
391.068955652959
 20
283.85290824442512
 11
391.068955652959
 21
284.77282824442517
  0
LINE
  8
_0-f_
  6
CONTINUOUS
 62
    7
 10
391.068955652959
 20
284.77282824442517
 11
390.62895565295884
 21
284.77282824442517
  0
LINE
  8
_0-f_
  6
CONTINUOUS
 62
    7
 10
390.62895565295884
 20
284.77282824442517
 11
390.62895565295884
 21
283.85290824442512
  0
LINE
  8
_0-f_
  6
CONTINUOUS
 62
    7
 10
390.62895565295884
 20
283.85290824442512
 11
390.04894765295893
 21
283.85290824442512
  0
LINE
  8
_0-f_
  6
CONTINUOUS
 62
    7
 10
390.04894765295893
 20
283.85290824442512
 11
390.04894765295893
 21
283.41286824442506
  0
LINE
  8
_0-f_
  6
CONTINUOUS
 62
    7
 10
390.04894765295893
 20
283.41286824442506
 11
390.62895565295895
 21
283.41286824442506
  0
LINE
  8
_0-f_
  6
CONTINUOUS
 62
    7
 10
390.62895565295895
 20
283.41286824442506
 11
390.62895565295884
 21
281.25286824442509
  0
LINE
  8
_0-f_
  6
CONTINUOUS
 62
    7
 10
390.62895565295884
 20
281.25286824442509
 11
390.04894765295893
 21
281.25286824442509
  0
LINE
  8
_0-f_
  6
CONTINUOUS
 62
    7
 10
390.04894765295893
 20
281.25286824442509
 11
390.04894765295893
 21
280.77278824442516
  0
LINE
  8
_0-f_
  6
CONTINUOUS
 62
    7
 10
390.04894765295893
 20
280.77278824442516
 11
391.68894765295892
 21
280.77278824442516
  0
LINE
  8
_0-f_
  6
CONTINUOUS
 62
    7
 10
391.68894765295892
 20
280.77278824442516
 11
391.68894765295892
 21
281.25286824442509
  0
LINE
  8
_0-f_
  6
CONTINUOUS
 62
    7
 10
391.68894765295892
 20
281.25286824442509
 11
391.068955652959
 21
281.25286824442509
  0
LINE
  8
_0-f_
  6
CONTINUOUS
 62
    7
 10
391.068955652959
 20
281.25286824442509
 11
391.068955652959
 21
283.41286824442506
  0
LINE
  8
_0-f_
  6
CONTINUOUS
 62
    7
 10
391.068955652959
 20
282.73278824442508
 11
390.62895565295872
 21
282.73278824442508
  0
LINE
  8
_0-f_
  6
CONTINUOUS
 62
    7
 10
388.53294765295874
 20
282.73278824442508
 11
388.00495565295893
 21
282.73278824442508
  0
LINE
  8
_0-f_
  6
CONTINUOUS
 62
    7
 10
391.068955652959
 20
282.81278824442512
 11
390.62895565295872
 21
282.81278824442512
  0
LINE
  8
_0-f_
  6
CONTINUOUS
 62
    7
 10
388.53294765295874
 20
282.81278824442512
 11
388.00495565295893
 21
282.81278824442512
  0
LINE
  8
_0-f_
  6
CONTINUOUS
 62
    7
 10
391.068955652959
 20
282.89278824442505
 11
390.62895565295872
 21
282.89278824442505
  0
LINE
  8
_0-f_
  6
CONTINUOUS
 62
    7
 10
388.53294765295874
 20
282.89278824442505
 11
388.00495565295893
 21
282.89278824442505
  0
LINE
  8
_0-f_
  6
CONTINUOUS
 62
    7
 10
391.068955652959
 20
282.97278824442509
 11
390.62895565295872
 21
282.97278824442509
  0
LINE
  8
_0-f_
  6
CONTINUOUS
 62
    7
 10
388.53294765295874
 20
282.97278824442509
 11
388.00495565295893
 21
282.97278824442509
  0
LINE
  8
_0-f_
  6
CONTINUOUS
 62
    7
 10
391.068955652959
 20
283.05278824442513
 11
390.62895565295872
 21
283.05278824442513
  0
LINE
  8
_0-f_
  6
CONTINUOUS
 62
    7
 10
388.53294765295874
 20
283.05278824442513
 11
388.00495565295893
 21
283.05278824442513
  0
LINE
  8
_0-f_
  6
CONTINUOUS
 62
    7
 10
391.068955652959
 20
283.13278824442506
 11
390.62895565295872
 21
283.13278824442506
  0
LINE
  8
_0-f_
  6
CONTINUOUS
 62
    7
 10
388.53294765295874
 20
283.13278824442506
 11
388.00495565295893
 21
283.13278824442506
  0
LINE
  8
_0-f_
  6
CONTINUOUS
 62
    7
 10
391.068955652959
 20
283.2127882444251
 11
390.62895565295872
 21
283.2127882444251
  0
LINE
  8
_0-f_
  6
CONTINUOUS
 62
    7
 10
388.53294765295874
 20
283.2127882444251
 11
388.00495565295893
 21
283.2127882444251
  0
LINE
  8
_0-f_
  6
CONTINUOUS
 62
    7
 10
391.068955652959
 20
283.29278824442514
 11
390.62895565295872
 21
283.29278824442514
  0
LINE
  8
_0-f_
  6
CONTINUOUS
 62
    7
 10
389.64894765295884
 20
283.29278824442514
 11
386.88893965295875
 21
283.29278824442514
  0
LINE
  8
_0-f_
  6
CONTINUOUS
 62
    7
 10
391.068955652959
 20
283.37278824442518
 11
390.62895565295872
 21
283.37278824442518
  0
LINE
  8
_0-f_
  6
CONTINUOUS
 62
    7
 10
389.64894765295884
 20
283.37278824442518
 11
386.88893965295875
 21
283.37278824442518
  0
LINE
  8
_0-f_
  6
CONTINUOUS
 62
    7
 10
391.68894765295903
 20
283.45278824442511
 11
390.04894765295882
 21
283.45278824442511
  0
LINE
  8
_0-f_
  6
CONTINUOUS
 62
    7
 10
389.64894765295884
 20
283.45278824442511
 11
386.88893965295875
 21
283.45278824442511
  0
LINE
  8
_0-f_
  6
CONTINUOUS
 62
    7
 10
391.68894765295903
 20
283.53278824442515
 11
390.04894765295882
 21
283.53278824442515
  0
LINE
  8
_0-f_
  6
CONTINUOUS
 62
    7
 10
389.64894765295884
 20
283.53278824442515
 11
386.88893965295875
 21
283.53278824442515
  0
LINE
  8
_0-f_
  6
CONTINUOUS
 62
    7
 10
391.68894765295903
 20
283.61278824442508
 11
390.04894765295882
 21
283.61278824442508
  0
LINE
  8
_0-f_
  6
CONTINUOUS
 62
    7
 10
389.64894765295884
 20
283.61278824442508
 11
386.88893965295875
 21
283.61278824442508
  0
LINE
  8
_0-f_
  6
CONTINUOUS
 62
    7
 10
391.68894765295903
 20
283.69278824442512
 11
390.04894765295882
 21
283.69278824442512
  0
LINE
  8
_0-f_
  6
CONTINUOUS
 62
    7
 10
391.68894765295903
 20
283.77278824442516
 11
390.04894765295882
 21
283.77278824442516
  0
LINE
  8
_0-f_
  6
CONTINUOUS
 62
    7
 10
391.68894765295903
 20
283.85278824442508
 11
390.04894765295882
 21
283.85278824442508
  0
LINE
  8
_0-f_
  6
CONTINUOUS
 62
    7
 10
391.068955652959
 20
283.93278824442513
 11
390.62895565295895
 21
283.93278824442513
  0
LINE
  8
_0-f_
  6
CONTINUOUS
 62
    7
 10
391.068955652959
 20
284.01278824442505
 11
390.62895565295895
 21
284.01278824442505
  0
LINE
  8
_0-f_
  6
CONTINUOUS
 62
    7
 10
391.068955652959
 20
284.09278824442509
 11
390.62895565295895
 21
284.09278824442509
  0
LINE
  8
_0-f_
  6
CONTINUOUS
 62
    7
 10
391.068955652959
 20
284.17278824442513
 11
390.62895565295895
 21
284.17278824442513
  0
LINE
  8
_0-f_
  6
CONTINUOUS
 62
    7
 10
391.068955652959
 20
284.25278824442506
 11
390.62895565295895
 21
284.25278824442506
  0
LINE
  8
_0-f_
  6
CONTINUOUS
 62
    7
 10
391.068955652959
 20
284.3327882444251
 11
390.62895565295895
 21
284.3327882444251
  0
LINE
  8
_0-f_
  6
CONTINUOUS
 62
    7
 10
391.068955652959
 20
284.41278824442514
 11
390.62895565295895
 21
284.41278824442514
  0
LINE
  8
_0-f_
  6
CONTINUOUS
 62
    7
 10
389.64894765295884
 20
284.41278824442514
 11
386.88893965295875
 21
284.41278824442514
  0
LINE
  8
_0-f_
  6
CONTINUOUS
 62
    7
 10
391.068955652959
 20
284.49278824442518
 11
390.62895565295895
 21
284.49278824442518
  0
LINE
  8
_0-f_
  6
CONTINUOUS
 62
    7
 10
389.64894765295884
 20
284.49278824442518
 11
386.88893965295875
 21
284.49278824442518
  0
LINE
  8
_0-f_
  6
CONTINUOUS
 62
    7
 10
391.068955652959
 20
284.57278824442511
 11
390.62895565295895
 21
284.57278824442511
  0
LINE
  8
_0-f_
  6
CONTINUOUS
 62
    7
 10
389.64894765295884
 20
284.57278824442511
 11
386.88893965295875
 21
284.57278824442511
  0
LINE
  8
_0-f_
  6
CONTINUOUS
 62
    7
 10
391.068955652959
 20
284.65278824442515
 11
390.62895565295895
 21
284.65278824442515
  0
LINE
  8
_0-f_
  6
CONTINUOUS
 62
    7
 10
389.64894765295884
 20
284.65278824442515
 11
386.88893965295875
 21
284.65278824442515
  0
LINE
  8
_0-f_
  6
CONTINUOUS
 62
    7
 10
391.068955652959
 20
284.73278824442508
 11
390.62895565295895
 21
284.73278824442508
  0
LINE
  8
_0-f_
  6
CONTINUOUS
 62
    7
 10
389.64894765295884
 20
284.73278824442508
 11
386.88893965295875
 21
284.73278824442508
  0
LINE
  8
_0-f_
  6
CONTINUOUS
 62
    7
 10
391.068955652959
 20
282.65278824442515
 11
390.62895565295872
 21
282.65278824442515
  0
LINE
  8
_0-f_
  6
CONTINUOUS
 62
    7
 10
389.43294765295872
 20
282.65278824442515
 11
388.95295565295891
 21
282.65278824442515
  0
LINE
  8
_0-f_
  6
CONTINUOUS
 62
    7
 10
388.53294765295874
 20
282.65278824442515
 11
388.00495565295893
 21
282.65278824442515
  0
LINE
  8
_0-f_
  6
CONTINUOUS
 62
    7
 10
387.58494765295887
 20
282.65278824442515
 11
387.10493965295876
 21
282.65278824442515
  0
LINE
  8
_0-f_
  6
CONTINUOUS
 62
    7
 10
391.068955652959
 20
282.57278824442511
 11
390.62895565295872
 21
282.57278824442511
  0
LINE
  8
_0-f_
  6
CONTINUOUS
 62
    7
 10
389.43294765295872
 20
282.57278824442511
 11
388.95295565295891
 21
282.57278824442511
  0
LINE
  8
_0-f_
  6
CONTINUOUS
 62
    7
 10
388.53294765295874
 20
282.57278824442511
 11
388.00495565295893
 21
282.57278824442511
  0
LINE
  8
_0-f_
  6
CONTINUOUS
 62
    7
 10
387.58494765295887
 20
282.57278824442511
 11
387.10493965295876
 21
282.57278824442511
  0
LINE
  8
_0-f_
  6
CONTINUOUS
 62
    7
 10
391.068955652959
 20
282.49278824442507
 11
390.62895565295872
 21
282.49278824442507
  0
LINE
  8
_0-f_
  6
CONTINUOUS
 62
    7
 10
389.43294765295872
 20
282.49278824442507
 11
388.95295565295891
 21
282.49278824442507
  0
LINE
  8
_0-f_
  6
CONTINUOUS
 62
    7
 10
388.53294765295874
 20
282.49278824442507
 11
388.00495565295893
 21
282.49278824442507
  0
LINE
  8
_0-f_
  6
CONTINUOUS
 62
    7
 10
387.58494765295887
 20
282.49278824442507
 11
387.10493965295876
 21
282.49278824442507
  0
LINE
  8
_0-f_
  6
CONTINUOUS
 62
    7
 10
391.068955652959
 20
282.41278824442503
 11
390.62895565295872
 21
282.41278824442503
  0
LINE
  8
_0-f_
  6
CONTINUOUS
 62
    7
 10
389.43294765295872
 20
282.41278824442503
 11
388.95295565295891
 21
282.41278824442503
  0
LINE
  8
_0-f_
  6
CONTINUOUS
 62
    7
 10
388.53294765295874
 20
282.41278824442503
 11
388.00495565295893
 21
282.41278824442503
  0
LINE
  8
_0-f_
  6
CONTINUOUS
 62
    7
 10
387.58494765295887
 20
282.41278824442503
 11
387.10493965295876
 21
282.41278824442503
  0
LINE
  8
_0-f_
  6
CONTINUOUS
 62
    7
 10
391.068955652959
 20
282.3327882444251
 11
390.62895565295872
 21
282.3327882444251
  0
LINE
  8
_0-f_
  6
CONTINUOUS
 62
    7
 10
389.43294765295872
 20
282.3327882444251
 11
388.95295565295891
 21
282.3327882444251
  0
LINE
  8
_0-f_
  6
CONTINUOUS
 62
    7
 10
388.53294765295874
 20
282.3327882444251
 11
388.00495565295893
 21
282.3327882444251
  0
LINE
  8
_0-f_
  6
CONTINUOUS
 62
    7
 10
387.58494765295887
 20
282.3327882444251
 11
387.10493965295876
 21
282.3327882444251
  0
LINE
  8
_0-f_
  6
CONTINUOUS
 62
    7
 10
391.068955652959
 20
282.25278824442506
 11
390.62895565295872
 21
282.25278824442506
  0
LINE
  8
_0-f_
  6
CONTINUOUS
 62
    7
 10
389.43294765295872
 20
282.25278824442506
 11
388.95295565295891
 21
282.25278824442506
  0
LINE
  8
_0-f_
  6
CONTINUOUS
 62
    7
 10
388.53294765295874
 20
282.25278824442506
 11
388.00495565295893
 21
282.25278824442506
  0
LINE
  8
_0-f_
  6
CONTINUOUS
 62
    7
 10
387.58494765295887
 20
282.25278824442506
 11
387.10493965295876
 21
282.25278824442506
  0
LINE
  8
_0-f_
  6
CONTINUOUS
 62
    7
 10
391.068955652959
 20
282.17278824442502
 11
390.62895565295872
 21
282.17278824442502
  0
LINE
  8
_0-f_
  6
CONTINUOUS
 62
    7
 10
389.43294765295872
 20
282.17278824442502
 11
388.95295565295891
 21
282.17278824442502
  0
LINE
  8
_0-f_
  6
CONTINUOUS
 62
    7
 10
388.53294765295874
 20
282.17278824442502
 11
388.00495565295893
 21
282.17278824442502
  0
LINE
  8
_0-f_
  6
CONTINUOUS
 62
    7
 10
387.58494765295887
 20
282.17278824442502
 11
387.10493965295876
 21
282.17278824442502
  0
LINE
  8
_0-f_
  6
CONTINUOUS
 62
    7
 10
391.068955652959
 20
282.09278824442509
 11
390.62895565295872
 21
282.09278824442509
  0
LINE
  8
_0-f_
  6
CONTINUOUS
 62
    7
 10
389.43294765295872
 20
282.09278824442509
 11
388.95295565295891
 21
282.09278824442509
  0
LINE
  8
_0-f_
  6
CONTINUOUS
 62
    7
 10
388.53294765295874
 20
282.09278824442509
 11
388.00495565295893
 21
282.09278824442509
  0
LINE
  8
_0-f_
  6
CONTINUOUS
 62
    7
 10
387.58494765295887
 20
282.09278824442509
 11
387.10493965295876
 21
282.09278824442509
  0
LINE
  8
_0-f_
  6
CONTINUOUS
 62
    7
 10
391.068955652959
 20
282.01278824442505
 11
390.62895565295872
 21
282.01278824442505
  0
LINE
  8
_0-f_
  6
CONTINUOUS
 62
    7
 10
389.43294765295872
 20
282.01278824442505
 11
388.95295565295891
 21
282.01278824442505
  0
LINE
  8
_0-f_
  6
CONTINUOUS
 62
    7
 10
388.53294765295874
 20
282.01278824442505
 11
388.00495565295893
 21
282.01278824442505
  0
LINE
  8
_0-f_
  6
CONTINUOUS
 62
    7
 10
387.58494765295887
 20
282.01278824442505
 11
387.10493965295876
 21
282.01278824442505
  0
LINE
  8
_0-f_
  6
CONTINUOUS
 62
    7
 10
391.068955652959
 20
281.93278824442513
 11
390.62895565295872
 21
281.93278824442513
  0
LINE
  8
_0-f_
  6
CONTINUOUS
 62
    7
 10
389.43294765295872
 20
281.93278824442513
 11
388.95295565295891
 21
281.93278824442513
  0
LINE
  8
_0-f_
  6
CONTINUOUS
 62
    7
 10
388.53294765295874
 20
281.93278824442513
 11
388.00495565295893
 21
281.93278824442513
  0
LINE
  8
_0-f_
  6
CONTINUOUS
 62
    7
 10
387.58494765295887
 20
281.93278824442513
 11
387.10493965295876
 21
281.93278824442513
  0
LINE
  8
_0-f_
  6
CONTINUOUS
 62
    7
 10
391.068955652959
 20
281.85278824442508
 11
390.62895565295872
 21
281.85278824442508
  0
LINE
  8
_0-f_
  6
CONTINUOUS
 62
    7
 10
389.43294765295872
 20
281.85278824442508
 11
388.95295565295891
 21
281.85278824442508
  0
LINE
  8
_0-f_
  6
CONTINUOUS
 62
    7
 10
388.53294765295874
 20
281.85278824442508
 11
388.00495565295893
 21
281.85278824442508
  0
LINE
  8
_0-f_
  6
CONTINUOUS
 62
    7
 10
387.58494765295887
 20
281.85278824442508
 11
387.10493965295876
 21
281.85278824442508
  0
LINE
  8
_0-f_
  6
CONTINUOUS
 62
    7
 10
391.068955652959
 20
281.77278824442504
 11
390.62895565295872
 21
281.77278824442504
  0
LINE
  8
_0-f_
  6
CONTINUOUS
 62
    7
 10
389.43294765295872
 20
281.77278824442504
 11
388.95295565295891
 21
281.77278824442504
  0
LINE
  8
_0-f_
  6
CONTINUOUS
 62
    7
 10
388.53294765295874
 20
281.77278824442504
 11
388.00495565295893
 21
281.77278824442504
  0
LINE
  8
_0-f_
  6
CONTINUOUS
 62
    7
 10
387.58494765295887
 20
281.77278824442504
 11
387.10493965295876
 21
281.77278824442504
  0
LINE
  8
_0-f_
  6
CONTINUOUS
 62
    7
 10
391.068955652959
 20
281.69278824442512
 11
390.62895565295872
 21
281.69278824442512
  0
LINE
  8
_0-f_
  6
CONTINUOUS
 62
    7
 10
389.43294765295872
 20
281.69278824442512
 11
388.95295565295891
 21
281.69278824442512
  0
LINE
  8
_0-f_
  6
CONTINUOUS
 62
    7
 10
388.53294765295874
 20
281.69278824442512
 11
388.00495565295893
 21
281.69278824442512
  0
LINE
  8
_0-f_
  6
CONTINUOUS
 62
    7
 10
387.58494765295887
 20
281.69278824442512
 11
387.10493965295876
 21
281.69278824442512
  0
LINE
  8
_0-f_
  6
CONTINUOUS
 62
    7
 10
391.068955652959
 20
281.61278824442508
 11
390.62895565295872
 21
281.61278824442508
  0
LINE
  8
_0-f_
  6
CONTINUOUS
 62
    7
 10
389.43294765295872
 20
281.61278824442508
 11
388.95295565295891
 21
281.61278824442508
  0
LINE
  8
_0-f_
  6
CONTINUOUS
 62
    7
 10
388.53294765295874
 20
281.61278824442508
 11
388.00495565295893
 21
281.61278824442508
  0
LINE
  8
_0-f_
  6
CONTINUOUS
 62
    7
 10
387.58494765295887
 20
281.61278824442508
 11
387.10493965295876
 21
281.61278824442508
  0
LINE
  8
_0-f_
  6
CONTINUOUS
 62
    7
 10
391.068955652959
 20
281.53278824442515
 11
390.62895565295872
 21
281.53278824442515
  0
LINE
  8
_0-f_
  6
CONTINUOUS
 62
    7
 10
389.43294765295872
 20
281.53278824442515
 11
388.95295565295891
 21
281.53278824442515
  0
LINE
  8
_0-f_
  6
CONTINUOUS
 62
    7
 10
388.53294765295874
 20
281.53278824442515
 11
388.00495565295893
 21
281.53278824442515
  0
LINE
  8
_0-f_
  6
CONTINUOUS
 62
    7
 10
387.58494765295887
 20
281.53278824442515
 11
387.10493965295876
 21
281.53278824442515
  0
LINE
  8
_0-f_
  6
CONTINUOUS
 62
    7
 10
391.068955652959
 20
281.45278824442511
 11
390.62895565295872
 21
281.45278824442511
  0
LINE
  8
_0-f_
  6
CONTINUOUS
 62
    7
 10
389.43294765295872
 20
281.45278824442511
 11
388.95295565295891
 21
281.45278824442511
  0
LINE
  8
_0-f_
  6
CONTINUOUS
 62
    7
 10
388.53294765295874
 20
281.45278824442511
 11
388.00495565295893
 21
281.45278824442511
  0
LINE
  8
_0-f_
  6
CONTINUOUS
 62
    7
 10
387.58494765295887
 20
281.45278824442511
 11
387.10493965295876
 21
281.45278824442511
  0
LINE
  8
_0-f_
  6
CONTINUOUS
 62
    7
 10
391.068955652959
 20
281.37278824442507
 11
390.62895565295872
 21
281.37278824442507
  0
LINE
  8
_0-f_
  6
CONTINUOUS
 62
    7
 10
389.43848508999378
 20
281.37278824442507
 11
388.95295565295891
 21
281.37278824442507
  0
LINE
  8
_0-f_
  6
CONTINUOUS
 62
    7
 10
388.53294765295874
 20
281.37278824442507
 11
388.00495565295893
 21
281.37278824442507
  0
LINE
  8
_0-f_
  6
CONTINUOUS
 62
    7
 10
387.58494765295887
 20
281.37278824442507
 11
387.09936445482691
 21
281.37278824442507
  0
LINE
  8
_0-f_
  6
CONTINUOUS
 62
    7
 10
391.068955652959
 20
281.29278824442503
 11
390.62895565295872
 21
281.29278824442503
  0
LINE
  8
_0-f_
  6
CONTINUOUS
 62
    7
 10
389.48794874779941
 20
281.29278824442503
 11
388.95295565295891
 21
281.29278824442503
  0
LINE
  8
_0-f_
  6
CONTINUOUS
 62
    7
 10
388.53294765295874
 20
281.29278824442503
 11
388.00495565295893
 21
281.29278824442503
  0
LINE
  8
_0-f_
  6
CONTINUOUS
 62
    7
 10
387.58494765295887
 20
281.29278824442503
 11
387.04995532708966
 21
281.29278824442503
  0
LINE
  8
_0-f_
  6
CONTINUOUS
 62
    7
 10
391.6889476529588
 20
281.2127882444251
 11
390.04894765295904
 21
281.2127882444251
  0
LINE
  8
_0-f_
  6
CONTINUOUS
 62
    7
 10
389.64894765295861
 20
281.2127882444251
 11
388.95295565295891
 21
281.2127882444251
  0
LINE
  8
_0-f_
  6
CONTINUOUS
 62
    7
 10
388.53294765295874
 20
281.2127882444251
 11
388.00495565295893
 21
281.2127882444251
  0
LINE
  8
_0-f_
  6
CONTINUOUS
 62
    7
 10
387.58494765295887
 20
281.2127882444251
 11
386.88893965295887
 21
281.2127882444251
  0
LINE
  8
_0-f_
  6
CONTINUOUS
 62
    7
 10
391.6889476529588
 20
281.13278824442506
 11
390.04894765295904
 21
281.13278824442506
  0
LINE
  8
_0-f_
  6
CONTINUOUS
 62
    7
 10
389.64894765295861
 20
281.13278824442506
 11
388.95615054487888
 21
281.13278824442506
  0
LINE
  8
_0-f_
  6
CONTINUOUS
 62
    7
 10
388.53294765295874
 20
281.13278824442506
 11
388.00495565295893
 21
281.13278824442506
  0
LINE
  8
_0-f_
  6
CONTINUOUS
 62
    7
 10
387.58179946811282
 20
281.13278824442506
 11
386.88893965295887
 21
281.13278824442506
  0
LINE
  8
_0-f_
  6
CONTINUOUS
 62
    7
 10
391.6889476529588
 20
281.05278824442502
 11
390.04894765295904
 21
281.05278824442502
  0
LINE
  8
_0-f_
  6
CONTINUOUS
 62
    7
 10
389.64894765295861
 20
281.05278824442502
 11
388.97189014670101
 21
281.05278824442502
  0
LINE
  8
_0-f_
  6
CONTINUOUS
 62
    7
 10
388.53294765295874
 20
281.05278824442502
 11
388.00495565295893
 21
281.05278824442502
  0
LINE
  8
_0-f_
  6
CONTINUOUS
 62
    7
 10
387.56623625084518
 20
281.05278824442502
 11
386.88893965295887
 21
281.05278824442502
  0
LINE
  8
_0-f_
  6
CONTINUOUS
 62
    7
 10
391.6889476529588
 20
280.97278824442509
 11
390.04894765295904
 21
280.97278824442509
  0
LINE
  8
_0-f_
  6
CONTINUOUS
 62
    7
 10
389.64894765295861
 20
280.97278824442509
 11
389.00769343450276
 21
280.97278824442509
  0
LINE
  8
_0-f_
  6
CONTINUOUS
 62
    7
 10
388.53294765295874
 20
280.97278824442509
 11
388.00495565295893
 21
280.97278824442509
  0
LINE
  8
_0-f_
  6
CONTINUOUS
 62
    7
 10
387.53007217831254
 20
280.97278824442509
 11
386.88893965295887
 21
280.97278824442509
  0
LINE
  8
_0-f_
  6
CONTINUOUS
 62
    7
 10
391.6889476529588
 20
280.89278824442505
 11
390.04894765295904
 21
280.89278824442505
  0
LINE
  8
_0-f_
  6
CONTINUOUS
 62
    7
 10
389.64894765295861
 20
280.89278824442505
 11
389.06797633853324
 21
280.89278824442505
  0
LINE
  8
_0-f_
  6
CONTINUOUS
 62
    7
 10
388.53294765295874
 20
280.89278824442505
 11
388.00495565295893
 21
280.89278824442505
  0
LINE
  8
_0-f_
  6
CONTINUOUS
 62
    7
 10
387.47021807723428
 20
280.89278824442505
 11
386.88893965295887
 21
280.89278824442505
  0
LINE
  8
_0-f_
  6
CONTINUOUS
 62
    7
 10
391.6889476529588
 20
280.81278824442512
 11
390.04894765295904
 21
280.81278824442512
  0
LINE
  8
_0-f_
  6
CONTINUOUS
 62
    7
 10
389.64894765295861
 20
280.81278824442512
 11
389.17946241069086
 21
280.81278824442512
  0
LINE
  8
_0-f_
  6
CONTINUOUS
 62
    7
 10
388.53294765295874
 20
280.81278824442512
 11
388.00495565295893
 21
280.81278824442512
  0
LINE
  8
_0-f_
  6
CONTINUOUS
 62
    7
 10
387.35785830966614
 20
280.81278824442512
 11
386.88893965295887
 21
280.81278824442512
  0
ARC
  8
_0-f_
  6
CONTINUOUS
 62
    7
 10
386.94494765295889
 20
281.41286824442506
 40
0.16
 50
270
 51
0
  0
ARC
  8
_0-f_
  6
CONTINUOUS
 62
    7
 10
389.35293965295892
 20
281.17278824442513
 40
0.4
 50
180
 51
270
  0
ARC
  8
_0-f_
  6
CONTINUOUS
 62
    7
 10
389.59293965295882
 20
281.41286824442506
 40
0.16
 50
180
 51
270
  0
LINE
  8
_0-f_
  6
CONTINUOUS
 62
    7
 10
364.21229727839403
 20
284.77282824442517
 11
360.05228927839386
 21
284.77282824442517
  0
LINE
  8
_0-f_
  6
CONTINUOUS
 62
    7
 10
360.05228927839386
 20
284.77282824442517
 11
360.05228927839386
 21
284.29274824442513
  0
LINE
  8
_0-f_
  6
CONTINUOUS
 62
    7
 10
360.05228927839386
 20
284.29274824442513
 11
361.73227327839385
 21
284.29274824442513
  0
LINE
  8
_0-f_
  6
CONTINUOUS
 62
    7
 10
361.73227327839385
 20
284.29274824442513
 11
361.73227327839385
 21
281.25286824442509
  0
LINE
  8
_0-f_
  6
CONTINUOUS
 62
    7
 10
361.73227327839385
 20
281.25286824442509
 11
359.73229727839379
 21
281.25286824442509
  0
LINE
  8
_0-f_
  6
CONTINUOUS
 62
    7
 10
359.73229727839379
 20
281.25286824442509
 11
359.73229727839379
 21
280.77278824442516
  0
LINE
  8
_0-f_
  6
CONTINUOUS
 62
    7
 10
359.73229727839379
 20
280.77278824442516
 11
364.53227327839392
 21
280.77278824442516
  0
LINE
  8
_0-f_
  6
CONTINUOUS
 62
    7
 10
364.53227327839392
 20
280.77278824442516
 11
364.53227327839392
 21
281.25286824442509
  0
LINE
  8
_0-f_
  6
CONTINUOUS
 62
    7
 10
364.53227327839392
 20
281.25286824442509
 11
362.5322732783938
 21
281.25286824442509
  0
LINE
  8
_0-f_
  6
CONTINUOUS
 62
    7
 10
362.5322732783938
 20
281.25286824442509
 11
362.5322732783938
 21
284.29274824442513
  0
LINE
  8
_0-f_
  6
CONTINUOUS
 62
    7
 10
362.5322732783938
 20
284.29274824442513
 11
364.21229727839403
 21
284.29274824442513
  0
LINE
  8
_0-f_
  6
CONTINUOUS
 62
    7
 10
364.21229727839403
 20
284.29274824442513
 11
364.21229727839403
 21
284.77282824442517
  0
LINE
  8
_0-f_
  6
CONTINUOUS
 62
    7
 10
362.5322732783938
 20
282.73278824442508
 11
361.73227327839385
 21
282.73278824442508
  0
LINE
  8
_0-f_
  6
CONTINUOUS
 62
    7
 10
362.5322732783938
 20
282.81278824442512
 11
361.73227327839385
 21
282.81278824442512
  0
LINE
  8
_0-f_
  6
CONTINUOUS
 62
    7
 10
362.5322732783938
 20
282.89278824442505
 11
361.73227327839385
 21
282.89278824442505
  0
LINE
  8
_0-f_
  6
CONTINUOUS
 62
    7
 10
362.5322732783938
 20
282.97278824442509
 11
361.73227327839385
 21
282.97278824442509
  0
LINE
  8
_0-f_
  6
CONTINUOUS
 62
    7
 10
362.5322732783938
 20
283.05278824442513
 11
361.73227327839385
 21
283.05278824442513
  0
LINE
  8
_0-f_
  6
CONTINUOUS
 62
    7
 10
362.5322732783938
 20
283.13278824442506
 11
361.73227327839385
 21
283.13278824442506
  0
LINE
  8
_0-f_
  6
CONTINUOUS
 62
    7
 10
362.5322732783938
 20
283.2127882444251
 11
361.73227327839385
 21
283.2127882444251
  0
LINE
  8
_0-f_
  6
CONTINUOUS
 62
    7
 10
362.5322732783938
 20
283.29278824442514
 11
361.73227327839385
 21
283.29278824442514
  0
LINE
  8
_0-f_
  6
CONTINUOUS
 62
    7
 10
362.5322732783938
 20
283.37278824442518
 11
361.73227327839385
 21
283.37278824442518
  0
LINE
  8
_0-f_
  6
CONTINUOUS
 62
    7
 10
362.5322732783938
 20
283.45278824442511
 11
361.73227327839385
 21
283.45278824442511
  0
LINE
  8
_0-f_
  6
CONTINUOUS
 62
    7
 10
362.5322732783938
 20
283.53278824442515
 11
361.73227327839385
 21
283.53278824442515
  0
LINE
  8
_0-f_
  6
CONTINUOUS
 62
    7
 10
362.5322732783938
 20
283.61278824442508
 11
361.73227327839385
 21
283.61278824442508
  0
LINE
  8
_0-f_
  6
CONTINUOUS
 62
    7
 10
362.5322732783938
 20
283.69278824442512
 11
361.73227327839385
 21
283.69278824442512
  0
LINE
  8
_0-f_
  6
CONTINUOUS
 62
    7
 10
362.5322732783938
 20
283.77278824442516
 11
361.73227327839385
 21
283.77278824442516
  0
LINE
  8
_0-f_
  6
CONTINUOUS
 62
    7
 10
362.5322732783938
 20
283.85278824442508
 11
361.73227327839385
 21
283.85278824442508
  0
LINE
  8
_0-f_
  6
CONTINUOUS
 62
    7
 10
362.5322732783938
 20
283.93278824442513
 11
361.73227327839385
 21
283.93278824442513
  0
LINE
  8
_0-f_
  6
CONTINUOUS
 62
    7
 10
362.5322732783938
 20
284.01278824442505
 11
361.73227327839385
 21
284.01278824442505
  0
LINE
  8
_0-f_
  6
CONTINUOUS
 62
    7
 10
362.5322732783938
 20
284.09278824442509
 11
361.73227327839385
 21
284.09278824442509
  0
LINE
  8
_0-f_
  6
CONTINUOUS
 62
    7
 10
362.5322732783938
 20
284.17278824442513
 11
361.73227327839385
 21
284.17278824442513
  0
LINE
  8
_0-f_
  6
CONTINUOUS
 62
    7
 10
362.5322732783938
 20
284.25278824442506
 11
361.73227327839385
 21
284.25278824442506
  0
LINE
  8
_0-f_
  6
CONTINUOUS
 62
    7
 10
364.21229727839381
 20
284.3327882444251
 11
360.05228927839386
 21
284.3327882444251
  0
LINE
  8
_0-f_
  6
CONTINUOUS
 62
    7
 10
364.21229727839381
 20
284.41278824442514
 11
360.05228927839386
 21
284.41278824442514
  0
LINE
  8
_0-f_
  6
CONTINUOUS
 62
    7
 10
364.21229727839381
 20
284.49278824442518
 11
360.05228927839386
 21
284.49278824442518
  0
LINE
  8
_0-f_
  6
CONTINUOUS
 62
    7
 10
364.21229727839381
 20
284.57278824442511
 11
360.05228927839386
 21
284.57278824442511
  0
LINE
  8
_0-f_
  6
CONTINUOUS
 62
    7
 10
364.21229727839381
 20
284.65278824442515
 11
360.05228927839386
 21
284.65278824442515
  0
LINE
  8
_0-f_
  6
CONTINUOUS
 62
    7
 10
364.21229727839381
 20
284.73278824442508
 11
360.05228927839386
 21
284.73278824442508
  0
LINE
  8
_0-f_
  6
CONTINUOUS
 62
    7
 10
362.5322732783938
 20
282.65278824442515
 11
361.73227327839385
 21
282.65278824442515
  0
LINE
  8
_0-f_
  6
CONTINUOUS
 62
    7
 10
362.5322732783938
 20
282.57278824442511
 11
361.73227327839385
 21
282.57278824442511
  0
LINE
  8
_0-f_
  6
CONTINUOUS
 62
    7
 10
362.5322732783938
 20
282.49278824442507
 11
361.73227327839385
 21
282.49278824442507
  0
LINE
  8
_0-f_
  6
CONTINUOUS
 62
    7
 10
362.5322732783938
 20
282.41278824442503
 11
361.73227327839385
 21
282.41278824442503
  0
LINE
  8
_0-f_
  6
CONTINUOUS
 62
    7
 10
362.5322732783938
 20
282.3327882444251
 11
361.73227327839385
 21
282.3327882444251
  0
LINE
  8
_0-f_
  6
CONTINUOUS
 62
    7
 10
362.5322732783938
 20
282.25278824442506
 11
361.73227327839385
 21
282.25278824442506
  0
LINE
  8
_0-f_
  6
CONTINUOUS
 62
    7
 10
362.5322732783938
 20
282.17278824442502
 11
361.73227327839385
 21
282.17278824442502
  0
LINE
  8
_0-f_
  6
CONTINUOUS
 62
    7
 10
362.5322732783938
 20
282.09278824442509
 11
361.73227327839385
 21
282.09278824442509
  0
LINE
  8
_0-f_
  6
CONTINUOUS
 62
    7
 10
362.5322732783938
 20
282.01278824442505
 11
361.73227327839385
 21
282.01278824442505
  0
LINE
  8
_0-f_
  6
CONTINUOUS
 62
    7
 10
362.5322732783938
 20
281.93278824442513
 11
361.73227327839385
 21
281.93278824442513
  0
LINE
  8
_0-f_
  6
CONTINUOUS
 62
    7
 10
362.5322732783938
 20
281.85278824442508
 11
361.73227327839385
 21
281.85278824442508
  0
LINE
  8
_0-f_
  6
CONTINUOUS
 62
    7
 10
362.5322732783938
 20
281.77278824442504
 11
361.73227327839385
 21
281.77278824442504
  0
LINE
  8
_0-f_
  6
CONTINUOUS
 62
    7
 10
362.5322732783938
 20
281.69278824442512
 11
361.73227327839385
 21
281.69278824442512
  0
LINE
  8
_0-f_
  6
CONTINUOUS
 62
    7
 10
362.5322732783938
 20
281.61278824442508
 11
361.73227327839385
 21
281.61278824442508
  0
LINE
  8
_0-f_
  6
CONTINUOUS
 62
    7
 10
362.5322732783938
 20
281.53278824442515
 11
361.73227327839385
 21
281.53278824442515
  0
LINE
  8
_0-f_
  6
CONTINUOUS
 62
    7
 10
362.5322732783938
 20
281.45278824442511
 11
361.73227327839385
 21
281.45278824442511
  0
LINE
  8
_0-f_
  6
CONTINUOUS
 62
    7
 10
362.5322732783938
 20
281.37278824442507
 11
361.73227327839385
 21
281.37278824442507
  0
LINE
  8
_0-f_
  6
CONTINUOUS
 62
    7
 10
362.5322732783938
 20
281.29278824442503
 11
361.73227327839385
 21
281.29278824442503
  0
LINE
  8
_0-f_
  6
CONTINUOUS
 62
    7
 10
364.53227327839392
 20
281.2127882444251
 11
359.73229727839379
 21
281.2127882444251
  0
LINE
  8
_0-f_
  6
CONTINUOUS
 62
    7
 10
364.53227327839392
 20
281.13278824442506
 11
359.73229727839379
 21
281.13278824442506
  0
LINE
  8
_0-f_
  6
CONTINUOUS
 62
    7
 10
364.53227327839392
 20
281.05278824442502
 11
359.73229727839379
 21
281.05278824442502
  0
LINE
  8
_0-f_
  6
CONTINUOUS
 62
    7
 10
364.53227327839392
 20
280.97278824442509
 11
359.73229727839379
 21
280.97278824442509
  0
LINE
  8
_0-f_
  6
CONTINUOUS
 62
    7
 10
364.53227327839392
 20
280.89278824442505
 11
359.73229727839379
 21
280.89278824442505
  0
LINE
  8
_0-f_
  6
CONTINUOUS
 62
    7
 10
364.53227327839392
 20
280.81278824442512
 11
359.73229727839379
 21
280.81278824442512
  0
LINE
  8
_0-f_
  6
CONTINUOUS
 62
    7
 10
357.81235512038796
 20
283.3327882444251
 11
357.14279078762712
 21
281.49278824442518
  0
LINE
  8
_0-f_
  6
CONTINUOUS
 62
    7
 10
357.14279078762712
 20
281.49278824442518
 11
356.74273767613425
 21
281.49278824442518
  0
LINE
  8
_0-f_
  6
CONTINUOUS
 62
    7
 10
356.74273767613425
 20
281.49278824442518
 11
356.48036167613435
 21
280.77278824442516
  0
LINE
  8
_0-f_
  6
CONTINUOUS
 62
    7
 10
356.48036167613435
 20
280.77278824442516
 11
357.95487369498034
 21
280.77278824442516
  0
ARC
  8
_0-f_
  6
CONTINUOUS
 62
    7
 10
357.95487369498034
 20
281.17278824442513
 40
0.4000000000000004
 50
270
 51
339.99904441127069
  0
LINE
  8
_0-f_
  6
CONTINUOUS
 62
    7
 10
358.33074846153437
 20
281.03597391817272
 11
359.31164299285064
 21
283.73081964867362
  0
ARC
  8
_0-f_
  6
CONTINUOUS
 62
    7
 10
359.0861181329181
 20
283.81290824442516
 40
0.2399999999999993
 50
339.99904441126887
 51
90.000000000000014
  0
LINE
  8
_0-f_
  6
CONTINUOUS
 62
    7
 10
359.0861181329181
 20
284.05290824442505
 11
357.04674567613421
 21
284.05290824442505
  0
LINE
  8
_0-f_
  6
CONTINUOUS
 62
    7
 10
357.04674567613421
 20
284.05278824442513
 11
357.19157126916122
 21
284.45075457151785
  0
ARC
  8
_0-f_
  6
CONTINUOUS
 62
    7
 10
356.96604097803487
 20
284.53282824442505
 40
0.2399999999999989
 50
340.002835592856
 51
90.000000000000057
  0
LINE
  8
_0-f_
  6
CONTINUOUS
 62
    7
 10
356.96604097803487
 20
284.77282824442517
 11
355.95396967613448
 21
284.77282824442517
  0
LINE
  8
_0-f_
  6
CONTINUOUS
 62
    7
 10
355.95400165204586
 20
284.77282824442517
 11
355.69240962795703
 21
284.05290824442505
  0
LINE
  8
_0-f_
  6
CONTINUOUS
 62
    7
 10
355.69240962795703
 20
284.05290824442505
 11
355.05236167613435
 21
284.05290824442505
  0
LINE
  8
_0-f_
  6
CONTINUOUS
 62
    7
 10
355.05236167613435
 20
284.05290824442505
 11
354.78993035279296
 21
283.3327882444251
  0
LINE
  8
_0-f_
  6
CONTINUOUS
 62
    7
 10
354.78993035279296
 20
283.3327882444251
 11
355.42999005588507
 21
283.3327882444251
  0
LINE
  8
_0-f_
  6
CONTINUOUS
 62
    7
 10
355.42999005588507
 20
283.3327882444251
 11
354.7603696761343
 21
281.49278824442518
  0
LINE
  8
_0-f_
  6
CONTINUOUS
 62
    7
 10
354.7603696761343
 20
281.49278824442518
 11
354.12035367613424
 21
281.49278824442518
  0
LINE
  8
_0-f_
  6
CONTINUOUS
 62
    7
 10
354.12035367613424
 20
281.49278824442518
 11
353.85797482933941
 21
280.77278824442516
  0
LINE
  8
_0-f_
  6
CONTINUOUS
 62
    7
 10
353.85797482933941
 20
280.77278824442516
 11
355.51732681524794
 21
280.77278824442516
  0
ARC
  8
_0-f_
  6
CONTINUOUS
 62
    7
 10
355.51732681524794
 20
281.25278824442506
 40
0.4800000000000009
 50
270
 51
340.00100452272619
  0
LINE
  8
_0-f_
  6
CONTINUOUS
 62
    7
 10
355.96838196334198
 20
281.08862596685225
 11
356.78514567613428
 21
283.3327882444251
  0
LINE
  8
_0-f_
  6
CONTINUOUS
 62
    7
 10
356.78514567613428
 20
283.3327882444251
 11
357.81235512038796
 21
283.3327882444251
  0
LINE
  8
_0-f_
  6
CONTINUOUS
 62
    7
 10
358.94837041830982
 20
282.73278824442508
 11
357.59401892492241
 21
282.73278824442508
  0
LINE
  8
_0-f_
  6
CONTINUOUS
 62
    7
 10
356.56677544837811
 20
282.73278824442508
 11
355.21163558422717
 21
282.73278824442508
  0
LINE
  8
_0-f_
  6
CONTINUOUS
 62
    7
 10
358.97748954806815
 20
282.81278824442512
 11
357.62313041765123
 21
282.81278824442512
  0
LINE
  8
_0-f_
  6
CONTINUOUS
 62
    7
 10
356.59589147874561
 20
282.81278824442512
 11
355.24074951378162
 21
282.81278824442512
  0
LINE
  8
_0-f_
  6
CONTINUOUS
 62
    7
 10
359.00660867782659
 20
282.89278824442505
 11
357.65224191037993
 21
282.89278824442505
  0
LINE
  8
_0-f_
  6
CONTINUOUS
 62
    7
 10
356.62500750911312
 20
282.89278824442505
 11
355.26986344333596
 21
282.89278824442505
  0
LINE
  8
_0-f_
  6
CONTINUOUS
 62
    7
 10
359.03572780758503
 20
282.97278824442509
 11
357.68135340310863
 21
282.97278824442509
  0
LINE
  8
_0-f_
  6
CONTINUOUS
 62
    7
 10
356.65412353948062
 20
282.97278824442509
 11
355.29897737289031
 21
282.97278824442509
  0
LINE
  8
_0-f_
  6
CONTINUOUS
 62
    7
 10
359.06484693734336
 20
283.05278824442513
 11
357.71046489583733
 21
283.05278824442513
  0
LINE
  8
_0-f_
  6
CONTINUOUS
 62
    7
 10
356.68323956984813
 20
283.05278824442513
 11
355.32809130244465
 21
283.05278824442513
  0
LINE
  8
_0-f_
  6
CONTINUOUS
 62
    7
 10
359.0939660671018
 20
283.13278824442506
 11
357.73957638856604
 21
283.13278824442506
  0
LINE
  8
_0-f_
  6
CONTINUOUS
 62
    7
 10
356.71235560021552
 20
283.13278824442506
 11
355.3572052319991
 21
283.13278824442506
  0
LINE
  8
_0-f_
  6
CONTINUOUS
 62
    7
 10
359.12308519686013
 20
283.2127882444251
 11
357.76868788129485
 21
283.2127882444251
  0
LINE
  8
_0-f_
  6
CONTINUOUS
 62
    7
 10
356.74147163058302
 20
283.2127882444251
 11
355.38631916155344
 21
283.2127882444251
  0
LINE
  8
_0-f_
  6
CONTINUOUS
 62
    7
 10
359.15220432661857
 20
283.29278824442514
 11
357.79779937402355
 21
283.29278824442514
  0
LINE
  8
_0-f_
  6
CONTINUOUS
 62
    7
 10
356.77058766095053
 20
283.29278824442514
 11
355.4154330911079
 21
283.29278824442514
  0
LINE
  8
_0-f_
  6
CONTINUOUS
 62
    7
 10
359.1813234563769
 20
283.37278824442518
 11
354.8045074412417
 21
283.37278824442518
  0
LINE
  8
_0-f_
  6
CONTINUOUS
 62
    7
 10
359.21044258613534
 20
283.45278824442511
 11
354.83366161813905
 21
283.45278824442511
  0
LINE
  8
_0-f_
  6
CONTINUOUS
 62
    7
 10
359.23956171589379
 20
283.53278824442515
 11
354.8628157950364
 21
283.53278824442515
  0
LINE
  8
_0-f_
  6
CONTINUOUS
 62
    7
 10
359.26868084565211
 20
283.61278824442508
 11
354.89196997193375
 21
283.61278824442508
  0
LINE
  8
_0-f_
  6
CONTINUOUS
 62
    7
 10
359.29779997541044
 20
283.69278824442512
 11
354.9211241488311
 21
283.69278824442512
  0
LINE
  8
_0-f_
  6
CONTINUOUS
 62
    7
 10
359.32235472865187
 20
283.77278824442516
 11
354.95027832572845
 21
283.77278824442516
  0
LINE
  8
_0-f_
  6
CONTINUOUS
 62
    7
 10
359.32216617443936
 20
283.85278824442508
 11
354.97943250262568
 21
283.85278824442508
  0
LINE
  8
_0-f_
  6
CONTINUOUS
 62
    7
 10
359.29319256472985
 20
283.93278824442513
 11
355.00858667952303
 21
283.93278824442513
  0
LINE
  8
_0-f_
  6
CONTINUOUS
 62
    7
 10
359.21762428593826
 20
284.01278824442505
 11
355.03774085642038
 21
284.01278824442505
  0
LINE
  8
_0-f_
  6
CONTINUOUS
 62
    7
 10
357.06130224367956
 20
284.09278824442509
 11
355.70690052961373
 21
284.09278824442509
  0
LINE
  8
_0-f_
  6
CONTINUOUS
 62
    7
 10
357.09041537877016
 20
284.17278824442513
 11
355.73596953995803
 21
284.17278824442513
  0
LINE
  8
_0-f_
  6
CONTINUOUS
 62
    7
 10
357.11952851386076
 20
284.25278824442506
 11
355.76503855030234
 21
284.25278824442506
  0
LINE
  8
_0-f_
  6
CONTINUOUS
 62
    7
 10
357.14864164895124
 20
284.3327882444251
 11
355.79410756064675
 21
284.3327882444251
  0
LINE
  8
_0-f_
  6
CONTINUOUS
 62
    7
 10
357.17775478404195
 20
284.41278824442514
 11
355.82317657099105
 21
284.41278824442514
  0
LINE
  8
_0-f_
  6
CONTINUOUS
 62
    7
 10
357.2022877372429
 20
284.49278824442518
 11
355.85224558133547
 21
284.49278824442518
  0
LINE
  8
_0-f_
  6
CONTINUOUS
 62
    7
 10
357.20207319899549
 20
284.57278824442511
 11
355.88131459167977
 21
284.57278824442511
  0
LINE
  8
_0-f_
  6
CONTINUOUS
 62
    7
 10
357.17306998241241
 20
284.65278824442515
 11
355.91038360202418
 21
284.65278824442515
  0
LINE
  8
_0-f_
  6
CONTINUOUS
 62
    7
 10
357.09742606283368
 20
284.73278824442508
 11
355.93945261236848
 21
284.73278824442508
  0
LINE
  8
_0-f_
  6
CONTINUOUS
 62
    7
 10
358.91925128855149
 20
282.65278824442515
 11
357.56490743219371
 21
282.65278824442515
  0
LINE
  8
_0-f_
  6
CONTINUOUS
 62
    7
 10
356.53765941801061
 20
282.65278824442515
 11
355.18252165467283
 21
282.65278824442515
  0
LINE
  8
_0-f_
  6
CONTINUOUS
 62
    7
 10
358.89013215879305
 20
282.57278824442511
 11
357.535795939465
 21
282.57278824442511
  0
LINE
  8
_0-f_
  6
CONTINUOUS
 62
    7
 10
356.5085433876431
 20
282.57278824442511
 11
355.15340772511848
 21
282.57278824442511
  0
LINE
  8
_0-f_
  6
CONTINUOUS
 62
    7
 10
358.86101302903472
 20
282.49278824442507
 11
357.5066844467363
 21
282.49278824442507
  0
LINE
  8
_0-f_
  6
CONTINUOUS
 62
    7
 10
356.4794273572756
 20
282.49278824442507
 11
355.12429379556403
 21
282.49278824442507
  0
LINE
  8
_0-f_
  6
CONTINUOUS
 62
    7
 10
358.83189389927628
 20
282.41278824442503
 11
357.47757295400748
 21
282.41278824442503
  0
LINE
  8
_0-f_
  6
CONTINUOUS
 62
    7
 10
356.45031132690809
 20
282.41278824442503
 11
355.09517986600969
 21
282.41278824442503
  0
LINE
  8
_0-f_
  6
CONTINUOUS
 62
    7
 10
358.80277476951784
 20
282.3327882444251
 11
357.44846146127878
 21
282.3327882444251
  0
LINE
  8
_0-f_
  6
CONTINUOUS
 62
    7
 10
356.4211952965407
 20
282.3327882444251
 11
355.06606593645523
 21
282.3327882444251
  0
LINE
  8
_0-f_
  6
CONTINUOUS
 62
    7
 10
358.77365563975951
 20
282.25278824442506
 11
357.41934996855008
 21
282.25278824442506
  0
LINE
  8
_0-f_
  6
CONTINUOUS
 62
    7
 10
356.3920792661732
 20
282.25278824442506
 11
355.03695200690089
 21
282.25278824442506
  0
LINE
  8
_0-f_
  6
CONTINUOUS
 62
    7
 10
358.74453651000107
 20
282.17278824442502
 11
357.39023847582126
 21
282.17278824442502
  0
LINE
  8
_0-f_
  6
CONTINUOUS
 62
    7
 10
356.36296323580569
 20
282.17278824442513
 11
355.00783807734655
 21
282.17278824442502
  0
LINE
  8
_0-f_
  6
CONTINUOUS
 62
    7
 10
358.71541738024274
 20
282.09278824442509
 11
357.36112698309256
 21
282.09278824442509
  0
LINE
  8
_0-f_
  6
CONTINUOUS
 62
    7
 10
356.33384720543819
 20
282.09278824442509
 11
354.97872414779221
 21
282.09278824442509
  0
LINE
  8
_0-f_
  6
CONTINUOUS
 62
    7
 10
358.6862982504843
 20
282.01278824442505
 11
357.33201549036386
 21
282.01278824442505
  0
LINE
  8
_0-f_
  6
CONTINUOUS
 62
    7
 10
356.30473117507069
 20
282.01278824442505
 11
354.94961021823775
 21
282.01278824442505
  0
LINE
  8
_0-f_
  6
CONTINUOUS
 62
    7
 10
358.65717912072597
 20
281.93278824442513
 11
357.30290399763516
 21
281.93278824442513
  0
LINE
  8
_0-f_
  6
CONTINUOUS
 62
    7
 10
356.27561514470318
 20
281.93278824442513
 11
354.92049628868341
 21
281.93278824442513
  0
LINE
  8
_0-f_
  6
CONTINUOUS
 62
    7
 10
358.62805999096753
 20
281.85278824442508
 11
357.27379250490645
 21
281.85278824442508
  0
LINE
  8
_0-f_
  6
CONTINUOUS
 62
    7
 10
356.24649911433579
 20
281.85278824442508
 11
354.89138235912907
 21
281.85278824442508
  0
LINE
  8
_0-f_
  6
CONTINUOUS
 62
    7
 10
358.5989408612092
 20
281.77278824442504
 11
357.24468101217764
 21
281.77278824442504
  0
LINE
  8
_0-f_
  6
CONTINUOUS
 62
    7
 10
356.21738308396829
 20
281.77278824442504
 11
354.86226842957461
 21
281.77278824442504
  0
LINE
  8
_0-f_
  6
CONTINUOUS
 62
    7
 10
358.56982173145076
 20
281.69278824442512
 11
357.21556951944893
 21
281.69278824442512
  0
LINE
  8
_0-f_
  6
CONTINUOUS
 62
    7
 10
356.18826705360078
 20
281.69278824442512
 11
354.83315450002027
 21
281.69278824442512
  0
LINE
  8
_0-f_
  6
CONTINUOUS
 62
    7
 10
358.54070260169243
 20
281.61278824442508
 11
357.18645802672023
 21
281.61278824442508
  0
LINE
  8
_0-f_
  6
CONTINUOUS
 62
    7
 10
356.15915102323328
 20
281.61278824442508
 11
354.80404057046582
 21
281.61278824442508
  0
LINE
  8
_0-f_
  6
CONTINUOUS
 62
    7
 10
358.51158347193399
 20
281.53278824442515
 11
357.15734653399153
 21
281.53278824442515
  0
LINE
  8
_0-f_
  6
CONTINUOUS
 62
    7
 10
356.13003499286577
 20
281.53278824442515
 11
354.77492664091147
 21
281.53278824442515
  0
LINE
  8
_0-f_
  6
CONTINUOUS
 62
    7
 10
358.48246434217555
 20
281.45278824442511
 11
356.72816123168985
 21
281.45278824442511
  0
LINE
  8
_0-f_
  6
CONTINUOUS
 62
    7
 10
356.10091896249827
 20
281.45278824442511
 11
354.10577707353451
 21
281.45278824442511
  0
LINE
  8
_0-f_
  6
CONTINUOUS
 62
    7
 10
358.45334521241722
 20
281.37278824442507
 11
356.69900834280094
 21
281.37278824442507
  0
LINE
  8
_0-f_
  6
CONTINUOUS
 62
    7
 10
356.07180293213077
 20
281.37278824442507
 11
354.07662386833505
 21
281.37278824442507
  0
LINE
  8
_0-f_
  6
CONTINUOUS
 62
    7
 10
358.42422608265889
 20
281.29278824442503
 11
356.66985545391202
 21
281.29278824442503
  0
LINE
  8
_0-f_
  6
CONTINUOUS
 62
    7
 10
356.04268690176337
 20
281.29278824442503
 11
354.04747066313558
 21
281.29278824442503
  0
LINE
  8
_0-f_
  6
CONTINUOUS
 62
    7
 10
358.39510695290045
 20
281.2127882444251
 11
356.64070256502322
 21
281.2127882444251
  0
LINE
  8
_0-f_
  6
CONTINUOUS
 62
    7
 10
356.01357087139587
 20
281.2127882444251
 11
354.01831745793612
 21
281.2127882444251
  0
LINE
  8
_0-f_
  6
CONTINUOUS
 62
    7
 10
358.36598782314212
 20
281.13278824442506
 11
356.6115496761343
 21
281.13278824442506
  0
LINE
  8
_0-f_
  6
CONTINUOUS
 62
    7
 10
355.98445484102837
 20
281.13278824442506
 11
353.98916425273677
 21
281.13278824442506
  0
LINE
  8
_0-f_
  6
CONTINUOUS
 62
    7
 10
358.33686869338368
 20
281.05278824442502
 11
356.58239678724539
 21
281.05278824442502
  0
LINE
  8
_0-f_
  6
CONTINUOUS
 62
    7
 10
355.95279946448676
 20
281.05278824442502
 11
353.96001104753742
 21
281.05278824442502
  0
LINE
  8
_0-f_
  6
CONTINUOUS
 62
    7
 10
358.29999822033659
 20
280.97278824442509
 11
356.55324389835658
 21
280.97278824442509
  0
LINE
  8
_0-f_
  6
CONTINUOUS
 62
    7
 10
355.90696401609222
 20
280.97278824442509
 11
353.93085784233796
 21
280.97278824442509
  0
LINE
  8
_0-f_
  6
CONTINUOUS
 62
    7
 10
358.24014411925629
 20
280.89278824442505
 11
356.52409100946767
 21
280.89278824442505
  0
LINE
  8
_0-f_
  6
CONTINUOUS
 62
    7
 10
355.83263108109594
 20
280.89278824442505
 11
353.90170463713849
 21
280.89278824442505
  0
LINE
  8
_0-f_
  6
CONTINUOUS
 62
    7
 10
358.12778435168701
 20
280.81278824442512
 11
356.49493812057875
 21
280.81278824442512
  0
LINE
  8
_0-f_
  6
CONTINUOUS
 62
    7
 10
355.70550593222157
 20
280.81278824442512
 11
353.87255143193914
 21
280.81278824442512
  0
ARC
  8
_0-f_
  6
CONTINUOUS
 62
    7
 10
355.51732681524794
 20
281.25278824442506
 40
0.4799999999999999
 50
270
 51
340.00093888113781
  0
LINE
  8
_0-f_
  6
CONTINUOUS
 62
    7
 10
354.36627988411288
 20
283.3327882444251
 11
354.51113459027482
 21
283.73083457151796
  0
ARC
  8
_0-f_
  6
CONTINUOUS
 62
    7
 10
354.28560429914847
 20
283.81290824442516
 40
0.2399999999999993
 50
340.00283559286606
 51
89.999999999999815
  0
LINE
  8
_0-f_
  6
CONTINUOUS
 62
    7
 10
354.28560429914847
 20
284.05290824442505
 11
353.09115268009435
 21
284.05290824442505
  0
LINE
  8
_0-f_
  6
CONTINUOUS
 62
    7
 10
353.09115268009435
 20
284.05290824442505
 11
353.23595184742754
 21
284.45074401666244
  0
ARC
  8
_0-f_
  6
CONTINUOUS
 62
    7
 10
353.01042539764256
 20
284.53282824442505
 40
0.2399999999999979
 50
340.00015411793316
 51
89.999999999999986
  0
LINE
  8
_0-f_
  6
CONTINUOUS
 62
    7
 10
353.01042539764256
 20
284.77282824442517
 11
351.83827841623173
 21
284.77282824442517
  0
LINE
  8
_0-f_
  6
CONTINUOUS
 62
    7
 10
351.83827841623173
 20
284.77282824442517
 11
351.57585441623172
 21
284.05290824442505
  0
LINE
  8
_0-f_
  6
CONTINUOUS
 62
    7
 10
351.57585441623172
 20
284.05290824442505
 11
349.61027841623189
 21
284.05290824442505
  0
LINE
  8
_0-f_
  6
CONTINUOUS
 62
    7
 10
349.61027841623189
 20
284.05290824442505
 11
349.34789882013303
 21
283.3327882444251
  0
LINE
  8
_0-f_
  6
CONTINUOUS
 62
    7
 10
349.34789882013303
 20
283.3327882444251
 11
351.31426092854389
 21
283.3327882444251
  0
LINE
  8
_0-f_
  6
CONTINUOUS
 62
    7
 10
351.31426092854389
 20
283.3327882444251
 11
350.64389956237829
 21
281.49278824442518
  0
LINE
  8
_0-f_
  6
CONTINUOUS
 62
    7
 10
350.64389956237829
 20
281.49278824442518
 11
349.31907041623191
 21
281.49278824442518
  0
LINE
  8
_0-f_
  6
CONTINUOUS
 62
    7
 10
349.31907041623191
 20
281.49278824442518
 11
349.05747041623175
 21
280.77278824442516
  0
LINE
  8
_0-f_
  6
CONTINUOUS
 62
    7
 10
349.05747041623175
 20
280.77278824442516
 11
351.61682755252906
 21
280.77278824442516
  0
ARC
  8
_0-f_
  6
CONTINUOUS
 62
    7
 10
351.61682755252906
 20
281.17278824442513
 40
0.399999999999999
 50
270
 51
340.00026326049675
  0
LINE
  8
_0-f_
  6
CONTINUOUS
 62
    7
 10
351.99270522943999
 20
281.03598191416205
 11
352.82866241623168
 21
283.3327882444251
  0
LINE
  8
_0-f_
  6
CONTINUOUS
 62
    7
 10
352.82866241623168
 20
283.3327882444251
 11
354.36627988411288
 21
283.3327882444251
  0
LINE
  8
_0-f_
  6
CONTINUOUS
 62
    7
 10
352.61028339773708
 20
282.73278824442508
 11
351.09566483088116
 21
282.73278824442508
  0
LINE
  8
_0-f_
  6
CONTINUOUS
 62
    7
 10
352.63940060020303
 20
282.81278824442512
 11
351.12481097723622
 21
282.81278824442512
  0
LINE
  8
_0-f_
  6
CONTINUOUS
 62
    7
 10
352.66851780266899
 20
282.89278824442505
 11
351.15395712359128
 21
282.89278824442505
  0
LINE
  8
_0-f_
  6
CONTINUOUS
 62
    7
 10
352.69763500513494
 20
282.97278824442509
 11
351.18310326994634
 21
282.97278824442509
  0
LINE
  8
_0-f_
  6
CONTINUOUS
 62
    7
 10
352.7267522076009
 20
283.05278824442513
 11
351.21224941630129
 21
283.05278824442513
  0
LINE
  8
_0-f_
  6
CONTINUOUS
 62
    7
 10
352.75586941006685
 20
283.13278824442506
 11
351.24139556265635
 21
283.13278824442506
  0
LINE
  8
_0-f_
  6
CONTINUOUS
 62
    7
 10
352.7849866125328
 20
283.2127882444251
 11
351.2705417090113
 21
283.2127882444251
  0
LINE
  8
_0-f_
  6
CONTINUOUS
 62
    7
 10
352.81410381499876
 20
283.29278824442514
 11
351.29968785536636
 21
283.29278824442514
  0
LINE
  8
_0-f_
  6
CONTINUOUS
 62
    7
 10
354.38083645165813
 20
283.37278824442518
 11
349.36247303532485
 21
283.37278824442518
  0
LINE
  8
_0-f_
  6
CONTINUOUS
 62
    7
 10
354.40994958674861
 20
283.45278824442511
 11
349.39162146570851
 21
283.45278824442511
  0
LINE
  8
_0-f_
  6
CONTINUOUS
 62
    7
 10
354.43906272183921
 20
283.53278824442515
 11
349.42076989609228
 21
283.53278824442515
  0
LINE
  8
_0-f_
  6
CONTINUOUS
 62
    7
 10
354.4681758569298
 20
283.61278824442508
 11
349.44991832647594
 21
283.61278824442508
  0
LINE
  8
_0-f_
  6
CONTINUOUS
 62
    7
 10
354.4972889920204
 20
283.69278824442512
 11
349.47906675685959
 21
283.69278824442512
  0
LINE
  8
_0-f_
  6
CONTINUOUS
 62
    7
 10
354.52184194711646
 20
283.77278824442516
 11
349.50821518724337
 21
283.77278824442516
  0
LINE
  8
_0-f_
  6
CONTINUOUS
 62
    7
 10
354.52165280018977
 20
283.85278824442508
 11
349.53736361762702
 21
283.85278824442508
  0
LINE
  8
_0-f_
  6
CONTINUOUS
 62
    7
 10
354.49267857066792
 20
283.93278824442513
 11
349.56651204801079
 21
283.93278824442513
  0
LINE
  8
_0-f_
  6
CONTINUOUS
 62
    7
 10
354.41711026383592
 20
284.01278824442505
 11
349.59566047839445
 21
284.01278824442505
  0
LINE
  8
_0-f_
  6
CONTINUOUS
 62
    7
 10
353.1056676915544
 20
284.09278824442509
 11
351.59039140523049
 21
284.09278824442509
  0
LINE
  8
_0-f_
  6
CONTINUOUS
 62
    7
 10
353.1347850665997
 20
284.17278824442513
 11
351.61955286761514
 21
284.17278824442513
  0
LINE
  8
_0-f_
  6
CONTINUOUS
 62
    7
 10
353.16390244164489
 20
284.25278824442506
 11
351.6487143299999
 21
284.25278824442506
  0
LINE
  8
_0-f_
  6
CONTINUOUS
 62
    7
 10
353.1930198166902
 20
284.3327882444251
 11
351.67787579238467
 21
284.3327882444251
  0
LINE
  8
_0-f_
  6
CONTINUOUS
 62
    7
 10
353.22213719173538
 20
284.41278824442514
 11
351.70703725476932
 21
284.41278824442514
  0
LINE
  8
_0-f_
  6
CONTINUOUS
 62
    7
 10
353.24667167842853
 20
284.49278824442518
 11
351.73619871715408
 21
284.49278824442518
  0
LINE
  8
_0-f_
  6
CONTINUOUS
 62
    7
 10
353.24645714348088
 20
284.57278824442511
 11
351.76536017953873
 21
284.57278824442511
  0
LINE
  8
_0-f_
  6
CONTINUOUS
 62
    7
 10
353.21745460574135
 20
284.65278824442515
 11
351.7945216419235
 21
284.65278824442515
  0
LINE
  8
_0-f_
  6
CONTINUOUS
 62
    7
 10
353.1418105873442
 20
284.73278824442508
 11
351.82368310430815
 21
284.73278824442508
  0
LINE
  8
_0-f_
  6
CONTINUOUS
 62
    7
 10
352.58116619527112
 20
282.65278824442515
 11
351.06651868452622
 21
282.65278824442515
  0
LINE
  8
_0-f_
  6
CONTINUOUS
 62
    7
 10
352.55204899280517
 20
282.57278824442511
 11
351.03737253817116
 21
282.57278824442511
  0
LINE
  8
_0-f_
  6
CONTINUOUS
 62
    7
 10
352.52293179033921
 20
282.49278824442507
 11
351.00822639181609
 21
282.49278824442507
  0
LINE
  8
_0-f_
  6
CONTINUOUS
 62
    7
 10
352.49381458787326
 20
282.41278824442503
 11
350.97908024546103
 21
282.41278824442503
  0
LINE
  8
_0-f_
  6
CONTINUOUS
 62
    7
 10
352.46469738540731
 20
282.3327882444251
 11
350.94993409910609
 21
282.3327882444251
  0
LINE
  8
_0-f_
  6
CONTINUOUS
 62
    7
 10
352.43558018294135
 20
282.25278824442506
 11
350.92078795275103
 21
282.25278824442506
  0
LINE
  8
_0-f_
  6
CONTINUOUS
 62
    7
 10
352.4064629804754
 20
282.17278824442513
 11
350.89164180639597
 21
282.17278824442502
  0
LINE
  8
_0-f_
  6
CONTINUOUS
 62
    7
 10
352.37734577800944
 20
282.09278824442509
 11
350.86249566004091
 21
282.09278824442509
  0
LINE
  8
_0-f_
  6
CONTINUOUS
 62
    7
 10
352.3482285755436
 20
282.01278824442505
 11
350.83334951368596
 21
282.01278824442505
  0
LINE
  8
_0-f_
  6
CONTINUOUS
 62
    7
 10
352.31911137307765
 20
281.93278824442513
 11
350.8042033673309
 21
281.93278824442513
  0
LINE
  8
_0-f_
  6
CONTINUOUS
 62
    7
 10
352.28999417061169
 20
281.85278824442508
 11
350.77505722097584
 21
281.85278824442508
  0
LINE
  8
_0-f_
  6
CONTINUOUS
 62
    7
 10
352.26087696814574
 20
281.77278824442504
 11
350.74591107462089
 21
281.77278824442504
  0
LINE
  8
_0-f_
  6
CONTINUOUS
 62
    7
 10
352.23175976567978
 20
281.69278824442512
 11
350.71676492826583
 21
281.69278824442512
  0
LINE
  8
_0-f_
  6
CONTINUOUS
 62
    7
 10
352.20264256321383
 20
281.61278824442508
 11
350.68761878191077
 21
281.61278824442508
  0
LINE
  8
_0-f_
  6
CONTINUOUS
 62
    7
 10
352.17352536074787
 20
281.53278824442515
 11
350.65847263555571
 21
281.53278824442515
  0
LINE
  8
_0-f_
  6
CONTINUOUS
 62
    7
 10
352.14440815828192
 20
281.45278824442511
 11
349.30453708289843
 21
281.45278824442511
  0
LINE
  8
_0-f_
  6
CONTINUOUS
 62
    7
 10
352.11529095581596
 20
281.37278824442507
 11
349.27547041623183
 21
281.37278824442507
  0
LINE
  8
_0-f_
  6
CONTINUOUS
 62
    7
 10
352.08617375335001
 20
281.29278824442503
 11
349.2464037495651
 21
281.29278824442503
  0
LINE
  8
_0-f_
  6
CONTINUOUS
 62
    7
 10
352.05705655088406
 20
281.2127882444251
 11
349.2173370828985
 21
281.2127882444251
  0
LINE
  8
_0-f_
  6
CONTINUOUS
 62
    7
 10
352.0279393484181
 20
281.13278824442506
 11
349.18827041623177
 21
281.13278824442506
  0
LINE
  8
_0-f_
  6
CONTINUOUS
 62
    7
 10
351.99882214595215
 20
281.05278824442502
 11
349.15920374956517
 21
281.05278824442502
  0
LINE
  8
_0-f_
  6
CONTINUOUS
 62
    7
 10
351.96195207788497
 20
280.97278824442509
 11
349.13013708289844
 21
280.97278824442509
  0
LINE
  8
_0-f_
  6
CONTINUOUS
 62
    7
 10
351.90209797680626
 20
280.89278824442505
 11
349.10107041623172
 21
280.89278824442505
  0
LINE
  8
_0-f_
  6
CONTINUOUS
 62
    7
 10
351.78973820923505
 20
280.81278824442512
 11
349.07200374956511
 21
280.81278824442512
  0
LINE
  8
_0-f_
  6
CONTINUOUS
 62
    7
 10
342.52757173860897
 20
283.99721903765209
 11
343.11635602240818
 21
284.46142235664598
  0
LINE
  8
_0-f_
  6
CONTINUOUS
 62
    7
 10
347.01211643116852
 20
281.16078824442508
 11
346.41040217150538
 21
281.01721764315761
  0
LINE
  8
_0-f_
  6
CONTINUOUS
 62
    7
 10
346.41040217150538
 20
281.01721764315761
 11
345.7695713513894
 21
280.94637054341791
  0
LINE
  8
_0-f_
  6
CONTINUOUS
 62
    7
 10
345.7695713513894
 20
280.94637054341791
 11
345.23763150101587
 21
280.94472403074514
  0
LINE
  8
_0-f_
  6
CONTINUOUS
 62
    7
 10
345.23763150101587
 20
280.94472403074514
 11
344.81171413410408
 21
280.98025491074731
  0
LINE
  8
_0-f_
  6
CONTINUOUS
 62
    7
 10
344.81171413410408
 20
280.98025491074731
 11
344.46220607416598
 21
281.05142903067969
  0
LINE
  8
_0-f_
  6
CONTINUOUS
 62
    7
 10
344.46220607416598
 20
281.05142903067969
 11
344.85216306006822
 21
282.50677003471372
  0
LINE
  8
_0-f_
  6
CONTINUOUS
 62
    7
 10
344.85216306006822
 20
282.50677003471372
 11
345.00464989527217
 21
282.42979822304397
  0
LINE
  8
_0-f_
  6
CONTINUOUS
 62
    7
 10
345.00464989527217
 20
282.42979822304397
 11
345.38677938260918
 21
282.05136761291971
  0
LINE
  8
_0-f_
  6
CONTINUOUS
 62
    7
 10
345.38677938260918
 20
282.05136761291971
 11
345.55149594790322
 21
281.89068002094899
  0
LINE
  8
_0-f_
  6
CONTINUOUS
 62
    7
 10
345.55149594790322
 20
281.89068002094899
 11
345.66340731682766
 21
281.82524437822968
  0
LINE
  8
_0-f_
  6
CONTINUOUS
 62
    7
 10
345.66340731682766
 20
281.82524437822968
 11
345.79041768524297
 21
281.7981522543044
  0
LINE
  8
_0-f_
  6
CONTINUOUS
 62
    7
 10
345.79041768524297
 20
281.7981522543044
 11
346.20182137431976
 21
281.7978446926241
  0
LINE
  8
_0-f_
  6
CONTINUOUS
 62
    7
 10
346.20182137431976
 20
281.7978446926241
 11
346.99058756866776
 21
281.79826592445062
  0
LINE
  8
_0-f_
  6
CONTINUOUS
 62
    7
 10
346.99058756866776
 20
281.79826592445062
 11
347.2502483675583
 21
282.04950740787393
  0
LINE
  8
_0-f_
  6
CONTINUOUS
 62
    7
 10
347.2502483675583
 20
282.04950740787393
 11
347.99927137365177
 21
284.84489874262027
  0
LINE
  8
_0-f_
  6
CONTINUOUS
 62
    7
 10
347.99927137365177
 20
284.84489874262027
 11
347.05562709111103
 21
285.23882500462759
  0
LINE
  8
_0-f_
  6
CONTINUOUS
 62
    7
 10
347.05562709111103
 20
285.23882500462759
 11
345.97581714805966
 21
285.43541277656396
  0
LINE
  8
_0-f_
  6
CONTINUOUS
 62
    7
 10
345.97581714805966
 20
285.43541277656396
 11
344.79345230702774
 21
285.41513673317871
  0
LINE
  8
_0-f_
  6
CONTINUOUS
 62
    7
 10
344.79345230702774
 20
285.41513673317871
 11
343.66738724362887
 21
285.15884189441812
  0
LINE
  8
_0-f_
  6
CONTINUOUS
 62
    7
 10
343.66738724362887
 20
285.15884189441812
 11
342.70916051010016
 21
284.67942629673286
  0
LINE
  8
_0-f_
  6
CONTINUOUS
 62
    7
 10
342.70916051010016
 20
284.67942629673286
 11
342.02021290146655
 21
284.01077094757369
  0
LINE
  8
_0-f_
  6
CONTINUOUS
 62
    7
 10
342.02021290146655
 20
284.01077094757369
 11
341.70545577427214
 21
283.23166086329451
  0
LINE
  8
_0-f_
  6
CONTINUOUS
 62
    7
 10
341.70545577427214
 20
283.23166086329451
 11
341.79251547549217
 21
282.41511104463626
  0
LINE
  8
_0-f_
  6
CONTINUOUS
 62
    7
 10
341.79251547549217
 20
282.41511104463626
 11
342.27149052678595
 21
281.67739943321209
  0
LINE
  8
_0-f_
  6
CONTINUOUS
 62
    7
 10
342.27149052678595
 20
281.67739943321209
 11
343.09646502640265
 21
281.07881921745542
  0
LINE
  8
_0-f_
  6
CONTINUOUS
 62
    7
 10
343.09646502640265
 20
281.07881921745542
 11
344.13316652863824
 21
280.69431986964418
  0
LINE
  8
_0-f_
  6
CONTINUOUS
 62
    7
 10
344.13316652863824
 20
280.69431986964418
 11
345.31069025933556
 21
280.53824501392756
  0
LINE
  8
_0-f_
  6
CONTINUOUS
 62
    7
 10
345.31069025933556
 20
280.53824501392756
 11
345.99752254945685
 21
280.55760305705559
  0
LINE
  8
_0-f_
  6
CONTINUOUS
 62
    7
 10
345.99752254945685
 20
280.55760305705559
 11
346.57401016836428
 21
280.63705911909341
  0
LINE
  8
_0-f_
  6
CONTINUOUS
 62
    7
 10
346.57401016836428
 20
280.63705911909341
 11
346.90069568348696
 21
280.74496370250455
  0
LINE
  8
_0-f_
  6
CONTINUOUS
 62
    7
 10
346.90069568348696
 20
280.74496370250455
 11
347.01211643116852
 21
281.16078824442508
  0
LINE
  8
_0-f_
  6
CONTINUOUS
 62
    7
 10
343.56910303875549
 20
283.46830982861746
 11
343.14852953071289
 21
281.8987080905361
  0
LINE
  8
_0-f_
  6
CONTINUOUS
 62
    7
 10
343.14852953071289
 20
281.8987080905361
 11
343.05825816975113
 21
281.56531954272026
  0
LINE
  8
_0-f_
  6
CONTINUOUS
 62
    7
 10
343.05825816975113
 20
281.56531954272026
 11
343.05525235273655
 21
281.56710235502084
  0
LINE
  8
_0-f_
  6
CONTINUOUS
 62
    7
 10
343.05525235273655
 20
281.56710235502084
 11
343.05224114301831
 21
281.56888024766675
  0
LINE
  8
_0-f_
  6
CONTINUOUS
 62
    7
 10
343.05224114301831
 20
281.56888024766675
 11
342.71378886387794
 21
281.81608427035889
  0
LINE
  8
_0-f_
  6
CONTINUOUS
 62
    7
 10
342.71378886387794
 20
281.81608427035889
 11
342.27888464157712
 21
282.32654751629019
  0
LINE
  8
_0-f_
  6
CONTINUOUS
 62
    7
 10
342.27888464157712
 20
282.32654751629019
 11
342.09670670591692
 21
282.88966284457462
  0
LINE
  8
_0-f_
  6
CONTINUOUS
 62
    7
 10
342.09670670591692
 20
282.88966284457462
 11
342.18242129271113
 21
283.46442150907302
  0
LINE
  8
_0-f_
  6
CONTINUOUS
 62
    7
 10
342.18242129271113
 20
283.46442150907302
 11
342.52757173860897
 21
283.99721903765209
  0
LINE
  8
_0-f_
  6
CONTINUOUS
 62
    7
 10
343.11635602240818
 20
284.46142235664598
 11
343.9219757499896
 21
284.81894142722325
  0
LINE
  8
_0-f_
  6
CONTINUOUS
 62
    7
 10
343.9219757499896
 20
284.81894142722325
 11
344.85159358945799
 21
285.01580335796558
  0
LINE
  8
_0-f_
  6
CONTINUOUS
 62
    7
 10
344.85159358945799
 20
285.01580335796558
 11
345.62384712348052
 21
285.05018233926882
  0
LINE
  8
_0-f_
  6
CONTINUOUS
 62
    7
 10
345.62384712348052
 20
285.05018233926882
 11
345.99701352344238
 21
285.02859641458434
  0
LINE
  8
_0-f_
  6
CONTINUOUS
 62
    7
 10
345.99701352344238
 20
285.02859641458434
 11
346.36025025405723
 21
284.98259786492503
  0
LINE
  8
_0-f_
  6
CONTINUOUS
 62
    7
 10
346.36025025405723
 20
284.98259786492503
 11
346.41696149890782
 21
284.68962428776416
  0
LINE
  8
_0-f_
  6
CONTINUOUS
 62
    7
 10
346.41696149890782
 20
284.68962428776416
 11
345.96594890551302
 21
283.0064227046617
  0
LINE
  8
_0-f_
  6
CONTINUOUS
 62
    7
 10
345.96594890551302
 20
283.0064227046617
 11
345.79475527922926
 21
283.16902744771522
  0
LINE
  8
_0-f_
  6
CONTINUOUS
 62
    7
 10
345.79475527922926
 20
283.16902744771522
 11
345.45172370407005
 21
283.51106847993282
  0
LINE
  8
_0-f_
  6
CONTINUOUS
 62
    7
 10
345.45172370407005
 20
283.51106847993282
 11
345.29484996806451
 21
283.66668568406175
  0
LINE
  8
_0-f_
  6
CONTINUOUS
 62
    7
 10
345.29484996806451
 20
283.66668568406175
 11
345.1975234840483
 21
283.73150301007405
  0
LINE
  8
_0-f_
  6
CONTINUOUS
 62
    7
 10
345.1975234840483
 20
283.73150301007405
 11
345.0862436646143
 21
283.76602852943694
  0
LINE
  8
_0-f_
  6
CONTINUOUS
 62
    7
 10
345.0862436646143
 20
283.76602852943694
 11
344.9436727840843
 21
283.77109873058708
  0
LINE
  8
_0-f_
  6
CONTINUOUS
 62
    7
 10
344.9436727840843
 20
283.77109873058708
 11
343.99334161218775
 21
283.77109873058708
  0
LINE
  8
_0-f_
  6
CONTINUOUS
 62
    7
 10
343.99334161218775
 20
283.77109873058708
 11
343.82242927149929
 21
283.74592822493008
  0
LINE
  8
_0-f_
  6
CONTINUOUS
 62
    7
 10
343.82242927149929
 20
283.74592822493008
 11
343.66323867096156
 21
283.63938404240531
  0
LINE
  8
_0-f_
  6
CONTINUOUS
 62
    7
 10
343.66323867096156
 20
283.63938404240531
 11
343.56910303875549
 21
283.46830982861746
  0
SOLID
  8
_0-f_
  6
CONTINUOUS
 62
    7
 10
345.79041768524297
 20
281.7981522543044
 11
346.20182137431976
 21
281.7978446926241
 12
346.99058756866776
 22
281.79826592445062
 13
346.99058756866776
 23
281.79826592445062
  0
LINE
  8
_0-f_
  6
CONTINUOUS
 62
    7
 10
346.14185529738933
 20
280.57749613263553
 11
345.01455592352119
 21
280.57749613263553
  0
LINE
  8
_0-f_
  6
CONTINUOUS
 62
    7
 10
346.66195481635242
 20
280.66610733263548
 11
344.34601908376879
 21
280.66610733263548
  0
LINE
  8
_0-f_
  6
CONTINUOUS
 62
    7
 10
346.92705299412768
 20
280.84332973263548
 11
343.73140057067138
 21
280.84332973263548
  0
LINE
  8
_0-f_
  6
CONTINUOUS
 62
    7
 10
346.95079648485859
 20
280.93194093263554
 11
343.49248374369137
 21
280.93194093263554
  0
LINE
  8
_0-f_
  6
CONTINUOUS
 62
    7
 10
346.90330950339688
 20
280.75471853263554
 11
343.97031739765129
 21
280.75471853263554
  0
LINE
  8
_0-f_
  6
CONTINUOUS
 62
    7
 10
344.52516245831174
 20
281.28638573263555
 11
342.81039295537465
 21
281.28638573263555
  0
LINE
  8
_0-f_
  6
CONTINUOUS
 62
    7
 10
344.50141918689036
 20
281.19777453263549
 11
342.93251857606191
 21
281.19777453263549
  0
LINE
  8
_0-f_
  6
CONTINUOUS
 62
    7
 10
344.5726490011545
 20
281.46360813263556
 11
342.56614171400003
 21
281.46360813263556
  0
LINE
  8
_0-f_
  6
CONTINUOUS
 62
    7
 10
344.59639227257588
 20
281.5522193326355
 11
342.44401609331265
 21
281.5522193326355
  0
LINE
  8
_0-f_
  6
CONTINUOUS
 62
    7
 10
344.54890572973312
 20
281.3749969326355
 11
342.6882673346874
 21
281.3749969326355
  0
LINE
  8
_0-f_
  6
CONTINUOUS
 62
    7
 10
344.47767591546886
 20
281.10916333263555
 11
343.05464419674928
 21
281.10916333263555
  0
LINE
  8
_0-f_
  6
CONTINUOUS
 62
    7
 10
344.6138303547695
 20
281.02055213263549
 11
343.25356691671146
 21
281.02055213263549
  0
LINE
  8
_0-f_
  6
CONTINUOUS
 62
    7
 10
346.99828346632029
 20
281.10916333263555
 11
346.79575287690733
 21
281.10916333263555
  0
LINE
  8
_0-f_
  6
CONTINUOUS
 62
    7
 10
346.97453997558949
 20
281.02055213263549
 11
346.42437724613654
 21
281.02055213263549
  0
LINE
  8
_0-f_
  6
CONTINUOUS
 62
    7
 10
347.33069014140693
 20
282.34972013263547
 11
345.08551068934133
 21
282.34972013263547
  0
LINE
  8
_0-f_
  6
CONTINUOUS
 62
    7
 10
347.30694683699988
 20
282.26110893263552
 11
345.1749879977894
 21
282.26110893263552
  0
LINE
  8
_0-f_
  6
CONTINUOUS
 62
    7
 10
347.28320353259295
 20
282.17249773263546
 11
345.26446530623758
 21
282.17249773263546
  0
LINE
  8
_0-f_
  6
CONTINUOUS
 62
    7
 10
347.25946022818601
 20
282.08388653263552
 11
345.35394261468576
 21
282.08388653263552
  0
LINE
  8
_0-f_
  6
CONTINUOUS
 62
    7
 10
347.19419892942398
 20
281.99527533263546
 11
345.44341992313383
 21
281.99527533263546
  0
LINE
  8
_0-f_
  6
CONTINUOUS
 62
    7
 10
347.10261829286213
 20
281.90666413263551
 11
345.53289723158201
 21
281.90666413263551
  0
LINE
  8
_0-f_
  6
CONTINUOUS
 62
    7
 10
347.0110376563004
 20
281.81805293263557
 11
345.69712147511501
 21
281.81805293263557
  0
LINE
  8
_0-f_
  6
CONTINUOUS
 62
    7
 10
347.35443344581387
 20
282.43833133263553
 11
344.98774517589715
 21
282.43833133263553
  0
LINE
  8
_0-f_
  6
CONTINUOUS
 62
    7
 10
347.39616360094163
 20
285.0966673326356
 11
343.54311651165204
 21
285.0966673326356
  0
LINE
  8
_0-f_
  6
CONTINUOUS
 62
    7
 10
347.18389683857089
 20
285.18527853263555
 11
343.78354008866626
 21
285.18527853263555
  0
LINE
  8
_0-f_
  6
CONTINUOUS
 62
    7
 10
346.86302486778601
 20
285.27388973263561
 11
344.17286504358259
 21
285.2738897326355
  0
LINE
  8
_0-f_
  6
CONTINUOUS
 62
    7
 10
346.37630459071494
 20
285.36250093263556
 11
344.5621899984996
 21
285.36250093263556
  0
LINE
  8
_0-f_
  6
CONTINUOUS
 62
    7
 10
347.60843036331238
 20
285.00805613263555
 11
346.15921396054847
 21
285.00805613263555
  0
LINE
  8
_0-f_
  6
CONTINUOUS
 62
    7
 10
347.82069712568313
 20
284.91944493263549
 11
346.37247484250241
 21
284.91944493263549
  0
LINE
  8
_0-f_
  6
CONTINUOUS
 62
    7
 10
347.99550266480281
 20
284.83083373263554
 11
346.38962741820018
 21
284.83083373263554
  0
LINE
  8
_0-f_
  6
CONTINUOUS
 62
    7
 10
347.97175936039577
 20
284.74222253263559
 11
346.40677999389794
 21
284.74222253263559
  0
LINE
  8
_0-f_
  6
CONTINUOUS
 62
    7
 10
347.94801605598872
 20
284.65361133263553
 11
346.4073118547704
 21
284.65361133263553
  0
LINE
  8
_0-f_
  6
CONTINUOUS
 62
    7
 10
347.92427275158178
 20
284.56500013263559
 11
346.38356855063074
 21
284.56500013263559
  0
LINE
  8
_0-f_
  6
CONTINUOUS
 62
    7
 10
347.90052944717473
 20
284.47638893263553
 11
346.35982524649108
 21
284.47638893263553
  0
LINE
  8
_0-f_
  6
CONTINUOUS
 62
    7
 10
347.87678614276768
 20
284.38777773263558
 11
346.33608194235143
 21
284.38777773263558
  0
LINE
  8
_0-f_
  6
CONTINUOUS
 62
    7
 10
347.85304283836064
 20
284.29916653263552
 11
346.31233863821166
 21
284.29916653263552
  0
LINE
  8
_0-f_
  6
CONTINUOUS
 62
    7
 10
347.82929953395359
 20
284.21055533263547
 11
346.288595334072
 21
284.21055533263547
  0
LINE
  8
_0-f_
  6
CONTINUOUS
 62
    7
 10
347.80555622954654
 20
284.12194413263552
 11
346.26485202993234
 21
284.12194413263552
  0
LINE
  8
_0-f_
  6
CONTINUOUS
 62
    7
 10
347.78181292513949
 20
284.03333293263557
 11
346.24110872579269
 21
284.03333293263557
  0
LINE
  8
_0-f_
  6
CONTINUOUS
 62
    7
 10
347.75806962073256
 20
283.94472173263551
 11
346.21736542165303
 21
283.94472173263551
  0
LINE
  8
_0-f_
  6
CONTINUOUS
 62
    7
 10
347.73432631632539
 20
283.85611053263557
 11
346.19362211751337
 21
283.85611053263557
  0
LINE
  8
_0-f_
  6
CONTINUOUS
 62
    7
 10
347.71058301191846
 20
283.76749933263551
 11
346.16987881337371
 21
283.76749933263551
  0
LINE
  8
_0-f_
  6
CONTINUOUS
 62
    7
 10
347.68683970751141
 20
283.67888813263556
 11
346.14613550923394
 21
283.67888813263556
  0
LINE
  8
_0-f_
  6
CONTINUOUS
 62
    7
 10
347.66309640310448
 20
283.5902769326355
 11
346.12239220509429
 21
283.5902769326355
  0
LINE
  8
_0-f_
  6
CONTINUOUS
 62
    7
 10
347.63935309869754
 20
283.50166573263556
 11
346.09864890095463
 21
283.50166573263556
  0
LINE
  8
_0-f_
  6
CONTINUOUS
 62
    7
 10
347.61560979429049
 20
283.4130545326355
 11
346.07490559681497
 21
283.4130545326355
  0
LINE
  8
_0-f_
  6
CONTINUOUS
 62
    7
 10
347.59186648988356
 20
283.32444333263555
 11
346.05116229267531
 21
283.32444333263555
  0
LINE
  8
_0-f_
  6
CONTINUOUS
 62
    7
 10
347.56812318547662
 20
283.23583213263561
 11
346.02741898853566
 21
283.23583213263561
  0
LINE
  8
_0-f_
  6
CONTINUOUS
 62
    7
 10
347.54437988106969
 20
283.14722093263555
 11
346.003675684396
 21
283.14722093263555
  0
LINE
  8
_0-f_
  6
CONTINUOUS
 62
    7
 10
347.52063657666264
 20
283.05860973263549
 11
345.97993238025623
 21
283.05860973263549
  0
LINE
  8
_0-f_
  6
CONTINUOUS
 62
    7
 10
344.81500978249238
 20
285.00805613263555
 11
343.36600583536193
 21
285.00805613263555
  0
LINE
  8
_0-f_
  6
CONTINUOUS
 62
    7
 10
344.39657158072276
 20
284.91944493263549
 11
343.18889515907171
 21
284.91944493263549
  0
LINE
  8
_0-f_
  6
CONTINUOUS
 62
    7
 10
343.97813337895303
 20
284.83083373263554
 11
343.01178448278159
 21
284.83083373263554
  0
LINE
  8
_0-f_
  6
CONTINUOUS
 62
    7
 10
343.749100342649
 20
284.74222253263559
 11
342.83467380649159
 21
284.74222253263559
  0
LINE
  8
_0-f_
  6
CONTINUOUS
 62
    7
 10
343.54942727153292
 20
284.65361133263553
 11
342.68256211706529
 21
284.65361133263553
  0
LINE
  8
_0-f_
  6
CONTINUOUS
 62
    7
 10
343.34975420041718
 20
284.56500013263559
 11
342.59126175670036
 21
284.56500013263559
  0
LINE
  8
_0-f_
  6
CONTINUOUS
 62
    7
 10
343.15008112930121
 20
284.47638893263553
 11
342.50381412741405
 21
284.47638893263553
  0
LINE
  8
_0-f_
  6
CONTINUOUS
 62
    7
 10
343.02294695911741
 20
284.38777773263558
 11
342.40866103597051
 21
284.38777773263558
  0
LINE
  8
_0-f_
  6
CONTINUOUS
 62
    7
 10
342.91055465213941
 20
284.29916653263552
 11
342.31736067560558
 21
284.29916653263552
  0
LINE
  8
_0-f_
  6
CONTINUOUS
 62
    7
 10
342.79816234516142
 20
284.21055533263547
 11
342.22606031524066
 21
284.21055533263547
  0
LINE
  8
_0-f_
  6
CONTINUOUS
 62
    7
 10
342.68577003818342
 20
284.12194413263552
 11
342.13475995487585
 21
284.12194413263552
  0
LINE
  8
_0-f_
  6
CONTINUOUS
 62
    7
 10
342.57337773120543
 20
284.03333293263557
 11
342.04345959451092
 21
284.03333293263557
  0
LINE
  8
_0-f_
  6
CONTINUOUS
 62
    7
 10
342.49356356990899
 20
283.94472173263551
 11
341.99352930236176
 21
283.94472173263551
  0
LINE
  8
_0-f_
  6
CONTINUOUS
 62
    7
 10
342.4361605348891
 20
283.85611053263557
 11
341.95773075821245
 21
283.85611053263557
  0
LINE
  8
_0-f_
  6
CONTINUOUS
 62
    7
 10
344.78633844394489
 20
282.26110893263552
 11
343.24563454135438
 21
282.26110893263552
  0
LINE
  8
_0-f_
  6
CONTINUOUS
 62
    7
 10
344.76259517252385
 20
282.17249773263546
 11
343.221891242445
 21
282.17249773263546
  0
LINE
  8
_0-f_
  6
CONTINUOUS
 62
    7
 10
344.73885190110281
 20
282.08388653263552
 11
343.19814794353573
 21
282.08388653263552
  0
LINE
  8
_0-f_
  6
CONTINUOUS
 62
    7
 10
344.71510862968177
 20
281.99527533263546
 11
343.17440464462635
 21
281.99527533263546
  0
LINE
  8
_0-f_
  6
CONTINUOUS
 62
    7
 10
344.69136535826084
 20
281.90666413263551
 11
343.15066134571708
 21
281.90666413263551
  0
LINE
  8
_0-f_
  6
CONTINUOUS
 62
    7
 10
344.6676220868398
 20
281.81805293263557
 11
343.1269180468077
 21
281.81805293263557
  0
LINE
  8
_0-f_
  6
CONTINUOUS
 62
    7
 10
344.64387881541876
 20
281.72944173263551
 11
343.10317474789844
 21
281.72944173263551
  0
LINE
  8
_0-f_
  6
CONTINUOUS
 62
    7
 10
344.62013554399738
 20
281.64083053263545
 11
343.07943144898906
 21
281.64083053263545
  0
LINE
  8
_0-f_
  6
CONTINUOUS
 62
    7
 10
345.55002149749845
 20
283.4130545326355
 11
343.55429742717553
 21
283.4130545326355
  0
LINE
  8
_0-f_
  6
CONTINUOUS
 62
    7
 10
345.63888931349021
 20
283.32444333263555
 11
343.53055412826615
 21
283.32444333263555
  0
LINE
  8
_0-f_
  6
CONTINUOUS
 62
    7
 10
345.72775712948209
 20
283.23583213263561
 11
343.50681082935688
 21
283.23583213263561
  0
LINE
  8
_0-f_
  6
CONTINUOUS
 62
    7
 10
345.81662494547385
 20
283.14722093263555
 11
343.4830675304475
 21
283.14722093263555
  0
LINE
  8
_0-f_
  6
CONTINUOUS
 62
    7
 10
345.90549276146561
 20
283.05860973263549
 11
343.45932423153823
 21
283.05860973263549
  0
LINE
  8
_0-f_
  6
CONTINUOUS
 62
    7
 10
347.4968932722557
 20
282.96999853263554
 11
343.43558093262885
 21
282.96999853263554
  0
LINE
  8
_0-f_
  6
CONTINUOUS
 62
    7
 10
347.47314996784877
 20
282.88138733263548
 11
343.41183763371959
 21
282.88138733263548
  0
LINE
  8
_0-f_
  6
CONTINUOUS
 62
    7
 10
347.44940666344183
 20
282.79277613263554
 11
343.38809433481021
 21
282.79277613263554
  0
LINE
  8
_0-f_
  6
CONTINUOUS
 62
    7
 10
347.42566335903479
 20
282.70416493263548
 11
343.36435103590094
 21
282.70416493263548
  0
LINE
  8
_0-f_
  6
CONTINUOUS
 62
    7
 10
347.40192005462785
 20
282.61555373263565
 11
343.34060773699156
 21
282.61555373263542
  0
LINE
  8
_0-f_
  6
CONTINUOUS
 62
    7
 10
347.37817675022092
 20
282.52694253263559
 11
343.31686443808229
 21
282.52694253263559
  0
LINE
  8
_0-f_
  6
CONTINUOUS
 62
    7
 10
344.83382498678696
 20
282.43833133263553
 11
343.29312113917291
 21
282.43833133263553
  0
LINE
  8
_0-f_
  6
CONTINUOUS
 62
    7
 10
344.81008171536592
 20
282.34972013263547
 11
343.26937784026364
 21
282.34972013263547
  0
LINE
  8
_0-f_
  6
CONTINUOUS
 62
    7
 10
345.37228586551493
 20
283.5902769326355
 11
343.63621689648352
 21
283.59027693263562
  0
LINE
  8
_0-f_
  6
CONTINUOUS
 62
    7
 10
345.46115368150657
 20
283.50166573263556
 11
343.58745752388228
 21
283.50166573263556
  0
LINE
  8
_0-f_
  6
CONTINUOUS
 62
    7
 10
345.27652737611044
 20
283.67888813263556
 11
343.7222628213039
 21
283.67888813263556
  0
LINE
  8
_0-f_
  6
CONTINUOUS
 62
    7
 10
345.04488559993496
 20
283.76749933263551
 11
343.9689010412531
 21
283.76749933263551
  0
LINE
  8
_0-f_
  6
CONTINUOUS
 62
    7
 10
342.3787574998691
 20
283.76749933263551
 11
341.92193221406313
 21
283.76749933263551
  0
LINE
  8
_0-f_
  6
CONTINUOUS
 62
    7
 10
342.32135446484921
 20
283.67888813263556
 11
341.88613366991382
 21
283.67888813263556
  0
LINE
  8
_0-f_
  6
CONTINUOUS
 62
    7
 10
342.26395142982932
 20
283.59027693263562
 11
341.8503351257645
 21
283.59027693263562
  0
LINE
  8
_0-f_
  6
CONTINUOUS
 62
    7
 10
342.20654839480943
 20
283.50166573263556
 11
341.81453658161519
 21
283.50166573263556
  0
LINE
  8
_0-f_
  6
CONTINUOUS
 62
    7
 10
342.17476086159076
 20
283.4130545326355
 11
341.77873803746587
 21
283.4130545326355
  0
LINE
  8
_0-f_
  6
CONTINUOUS
 62
    7
 10
342.16154614581097
 20
283.32444333263567
 11
341.74293949331656
 21
283.32444333263567
  0
LINE
  8
_0-f_
  6
CONTINUOUS
 62
    7
 10
342.14833143003108
 20
283.23583213263561
 11
341.70714094916724
 21
283.23583213263561
  0
LINE
  8
_0-f_
  6
CONTINUOUS
 62
    7
 10
342.1351167142513
 20
283.14722093263555
 11
341.7144586727681
 21
283.14722093263555
  0
LINE
  8
_0-f_
  6
CONTINUOUS
 62
    7
 10
342.12190199847151
 20
283.05860973263549
 11
341.72390630770775
 21
283.05860973263549
  0
LINE
  8
_0-f_
  6
CONTINUOUS
 62
    7
 10
342.10868728269162
 20
282.96999853263554
 11
341.7333539426474
 21
282.96999853263554
  0
LINE
  8
_0-f_
  6
CONTINUOUS
 62
    7
 10
342.09938398285448
 20
282.88138733263548
 11
341.74280157758716
 21
282.88138733263548
  0
LINE
  8
_0-f_
  6
CONTINUOUS
 62
    7
 10
342.12805129962163
 20
282.79277613263554
 11
341.75224921252681
 21
282.79277613263554
  0
LINE
  8
_0-f_
  6
CONTINUOUS
 62
    7
 10
342.15671861638879
 20
282.70416493263548
 11
341.76169684746645
 21
282.70416493263548
  0
LINE
  8
_0-f_
  6
CONTINUOUS
 62
    7
 10
342.18538593315594
 20
282.61555373263542
 11
341.77114448240621
 21
282.61555373263542
  0
LINE
  8
_0-f_
  6
CONTINUOUS
 62
    7
 10
342.2140532499231
 20
282.52694253263559
 11
341.78059211734586
 21
282.52694253263559
  0
LINE
  8
_0-f_
  6
CONTINUOUS
 62
    7
 10
342.24272056669025
 20
282.43833133263553
 11
341.79003975228551
 21
282.43833133263553
  0
LINE
  8
_0-f_
  6
CONTINUOUS
 62
    7
 10
342.27138788345741
 20
282.34972013263547
 11
341.83497192452279
 21
282.34972013263547
  0
LINE
  8
_0-f_
  6
CONTINUOUS
 62
    7
 10
342.33463697352187
 20
282.26110893263552
 11
341.8925046424684
 21
282.26110893263552
  0
LINE
  8
_0-f_
  6
CONTINUOUS
 62
    7
 10
342.41013189961171
 20
282.17249773263546
 11
341.95003736041389
 21
282.17249773263546
  0
LINE
  8
_0-f_
  6
CONTINUOUS
 62
    7
 10
342.48562682570156
 20
282.08388653263552
 11
342.00757007835938
 21
282.08388653263552
  0
LINE
  8
_0-f_
  6
CONTINUOUS
 62
    7
 10
342.5611217517914
 20
281.99527533263546
 11
342.06510279630487
 21
281.99527533263546
  0
LINE
  8
_0-f_
  6
CONTINUOUS
 62
    7
 10
342.63661667788114
 20
281.90666413263551
 11
342.12263551425036
 21
281.90666413263551
  0
LINE
  8
_0-f_
  6
CONTINUOUS
 62
    7
 10
342.71211160397098
 20
281.81805293263557
 11
342.18016823219585
 21
281.81805293263557
  0
LINE
  8
_0-f_
  6
CONTINUOUS
 62
    7
 10
342.83241300293372
 20
281.72944173263551
 11
342.23770095014146
 21
281.72944173263551
  0
LINE
  8
_0-f_
  6
CONTINUOUS
 62
    7
 10
342.95373247933532
 20
281.64083053263545
 11
342.3218904726254
 21
281.64083053263545
  0
TEXT
  8
_0-f_
 62
    7
 10
333.27973956818602
 20
56.25599912060602
 40
2
 41
1
 50
0
  1
図面名称　：
  0
TEXT
  8
_0-f_
 62
    7
 10
333.27973956818602
 20
36.255999120606077
 40
2
 41
1
 50
0
  1
尺　度　：
  0
TEXT
  8
_0-f_
 62
    7
 10
368.77973956818602
 20
36.255999120606077
 40
2
 41
1
 50
0
  1
作成日
  0
TEXT
  8
_0-f_
 62
    7
 10
345.02973956818602
 20
31.505999120606077
 40
2.5
 41
1
 50
0
  1
1/5
  0
TEXT
  8
_0-f_
 62
    7
 10
333.27973956818602
 20
23.25599912060602
 40
2
 41
1
 50
0
  1
サイズ　：
  0
TEXT
  8
_0-f_
 62
    7
 10
368.77973956818602
 20
23.25599912060602
 40
2
 41
1
 50
0
  1
File Name ：
  0
TEXT
  8
_0-f_
 62
    7
 10
348.77973956818602
 20
18.50599912060602
 40
2.5
 41
1
 50
0
  1
A3
  0
TEXT
  8
_0-f_
 62
    7
 10
342.27973956818602
 20
265.25599912060591
 40
5
 41
1
 50
0
  1
NHED-FT
  0
TEXT
  8
_0-f_
 62
    7
 10
333.27973956818602
 20
238.25599912060602
 40
3
 41
1
 50
0
  1
①本体　ｽﾁｰﾙ　t1.2　ｱｲﾎﾞﾘｰ　焼付塗装
  0
TEXT
  8
_0-f_
 62
    7
 10
333.27973956818602
 20
235.25599912060602
 40
3
 41
1
 50
0
  1
②扉　　ｽﾁｰﾙ　t2.0　ｱｲﾎﾞﾘｰ　焼付塗装
  0
LINE
  8
_0-2_
  6
CONTINUOUS
 62
    7
 10
115.21465255459519
 20
152.0729149192951
 11
115.21469055459521
 21
152.0729149192951
  0
LINE
  8
_0-2_
  6
CONTINUOUS
 62
    7
 10
114.71466155459517
 20
153.17290491929509
 11
114.71466155459517
 21
152.57288491929512
  0
LINE
  8
_0-2_
  6
CONTINUOUS
 62
    7
 10
115.71468155459523
 20
152.57293491929511
 11
115.71468155459523
 21
153.17290491929509
  0
LINE
  8
_0-2_
  6
CENTER2
 62
    7
 10
113.71464055459522
 20
152.87288491929507
 11
116.7146925545952
 21
152.87288491929507
  0
ARC
  8
_0-2_
  6
CONTINUOUS
 62
    7
 10
115.21465255459519
 20
153.17290491929509
 40
0.4999953999999999
 50
0.0014189999999996
 51
179.99858
  0
ARC
  8
_0-2_
  6
CONTINUOUS
 62
    7
 10
115.21469055459521
 20
152.57288491929512
 40
0.4999892
 50
179.99857999999998
 51
0.0014189999999985
  0
LINE
  8
_0-2_
  6
CONTINUOUS
 62
    7
 10
115.21465255459519
 20
72.992909871522727
 11
115.21469055459521
 21
72.992909871522727
  0
LINE
  8
_0-2_
  6
CONTINUOUS
 62
    7
 10
114.71466155459517
 20
74.092899871522718
 11
114.71466155459517
 21
73.492879871522746
  0
LINE
  8
_0-2_
  6
CONTINUOUS
 62
    7
 10
115.71468155459523
 20
73.492929871522733
 11
115.71468155459523
 21
74.092899871522718
  0
LINE
  8
_0-2_
  6
CENTER2
 62
    7
 10
113.71464055459522
 20
73.7928798715227
 11
116.7146925545952
 21
73.7928798715227
  0
ARC
  8
_0-2_
  6
CONTINUOUS
 62
    7
 10
115.21465255459519
 20
74.092899871522718
 40
0.4999953999999999
 50
0.0014189999999996
 51
179.99858
  0
ARC
  8
_0-2_
  6
CONTINUOUS
 62
    7
 10
115.21469055459521
 20
73.492879871522746
 40
0.4999892
 50
179.99857999999998
 51
0.0014189999999985
  0
LINE
  8
_0-2_
  6
CONTINUOUS
 62
    7
 10
96.454678078758533
 20
138.23287422989472
 11
134.45468591435292
 21
138.23287422989472
  0
LINE
  8
_0-2_
  6
CONTINUOUS
 62
    7
 10
87.754681542916018
 20
176.83288033341034
 11
87.254655149334923
 21
176.83288033341034
  0
LINE
  8
_0-2_
  6
CONTINUOUS
 62
    7
 10
91.114666894478518
 20
224.22835762833228
 11
139.59466674601464
 21
224.22835762833228
  0
LINE
  8
_0-2_
  6
CONTINUOUS
 62
    7
 10
142.75467123292344
 20
175.93287983853077
 11
142.75467123292344
 21
176.83288033341034
  0
LINE
  8
_0-2_
  6
CONTINUOUS
 62
    7
 10
103.4546764291597
 20
132.63287802397201
 11
96.454678078758533
 21
132.63287802397201
  0
LINE
  8
_0-2_
  6
CONTINUOUS
 62
    7
 10
106.25467453212106
 20
135.43286994093785
 11
134.45468591435292
 21
135.43286994093785
  0
LINE
  8
_0-2_
  6
CONTINUOUS
 62
    7
 10
87.754681542916018
 20
46.832878271411857
 11
87.254655149334923
 21
46.832878271411857
  0
LINE
  8
_0-2_
  6
DASHED1
 62
    7
 10
142.25464483934235
 20
47.732878766291492
 11
87.254655149334923
 21
47.732878766291492
  0
LINE
  8
_0-2_
  6
DASHED1
 62
    7
 10
142.25464483934235
 20
175.93287983853077
 11
142.25464483934235
 21
47.732878766291492
  0
LINE
  8
_0-2_
  6
CONTINUOUS
 62
    7
 10
142.75467123292344
 20
223.98836574435848
 11
86.754678243718416
 21
223.98836574435848
  0
LINE
  8
_0-2_
  6
CONTINUOUS
 62
    7
 10
86.754678243718416
 20
223.98836574435848
 11
86.754678243718416
 21
223.58835452708649
  0
LINE
  8
_0-2_
  6
CONTINUOUS
 62
    7
 10
142.75467123292344
 20
223.58835452708649
 11
86.754678243718416
 21
223.58835452708649
  0
LINE
  8
_0-2_
  6
CONTINUOUS
 62
    7
 10
142.75467123292344
 20
223.98836574435848
 11
142.75467123292344
 21
223.58835452708649
  0
LINE
  8
_0-2_
  6
CONTINUOUS
 62
    7
 10
90.974677814822684
 20
255.22836092752988
 11
90.974677814822684
 21
224.22835762833228
  0
LINE
  8
_0-2_
  6
CONTINUOUS
 62
    7
 10
87.254679893317217
 20
223.98836574435848
 11
87.254679893317217
 21
224.22835762833228
  0
LINE
  8
_0-2_
  6
CONTINUOUS
 62
    7
 10
139.45466529436771
 20
255.22836092752988
 11
90.974677814822684
 21
255.22836092752988
  0
LINE
  8
_0-2_
  6
CONTINUOUS
 62
    7
 10
139.45466529436771
 20
224.22835762833228
 11
139.45466529436771
 21
255.22836092752988
  0
ARC
  8
_0-2_
  6
CONTINUOUS
 62
    7
 10
106.25467453212106
 20
134.03286779645936
 40
1.4000000180424872
 50
90
 51
180
  0
ARC
  8
_0-2_
  6
CONTINUOUS
 62
    7
 10
103.4546764291597
 20
134.03286779645936
 40
1.4000000180424872
 50
270
 51
0
  0
ARC
  8
_0-2_
  6
CONTINUOUS
 62
    7
 10
96.454678078758533
 20
135.43286994093785
 40
2.8000000360849744
 50
180
 51
270
  0
ARC
  8
_0-2_
  6
CONTINUOUS
 62
    7
 10
96.454678078758533
 20
135.43286994093785
 40
2.8000000360849744
 50
90
 51
180
  0
ARC
  8
_0-2_
  6
CONTINUOUS
 62
    7
 10
134.45468591435292
 20
136.83287208541628
 40
1.4000000180424872
 50
0
 51
90
  0
ARC
  8
_0-2_
  6
CONTINUOUS
 62
    7
 10
134.45468591435292
 20
136.83287208541628
 40
1.4000000180424872
 50
270
 51
0
  0
LINE
  8
_0-2_
  6
CONTINUOUS
 62
    2
 10
132.814641037017
 20
223.8351271853719
 11
132.814641037017
 21
224.79119678751096
  0
LINE
  8
_0-2_
  6
CONTINUOUS
 62
    2
 10
137.01464103701704
 20
223.8351271853719
 11
137.01464103701704
 21
224.82893637706906
  0
LINE
  8
_0-2_
  6
CONTINUOUS
 62
    7
 10
139.21464103701709
 20
225.42835762833232
 11
139.21464103701709
 21
232.92835762833226
  0
LINE
  8
_0-2_
  6
CONTINUOUS
 62
    7
 10
139.21464103701709
 20
232.92835762833226
 11
138.91464103701713
 21
232.92835762833226
  0
ARC
  8
_0-2_
  6
CONTINUOUS
 62
    7
 10
138.11464103701707
 20
230.02835762833229
 40
0.6999999999999998
 50
90
 51
180
  0
ARC
  8
_0-2_
  6
CONTINUOUS
 62
    7
 10
136.11464103701707
 20
225.3283576283323
 40
0.6999999999999998
 50
0
 51
90
  0
ARC
  8
_0-2_
  6
CONTINUOUS
 62
    7
 10
133.314641037017
 20
225.3283576283323
 40
0.6999999999999998
 50
90
 51
180
  0
ARC
  8
_0-2_
  6
CONTINUOUS
 62
    7
 10
137.31916478176339
 20
227.76574964573234
 40
0.400000000000003
 50
140.84336457282711
 51
230.84336457282757
  0
ARC
  8
_0-2_
  6
CONTINUOUS
 62
    7
 10
133.59588163292659
 20
230.02100120388883
 40
0.5999999999999982
 50
267.78911387262394
 51
357.78911387262565
  0
ARC
  8
_0-2_
  6
CONTINUOUS
 62
    7
 10
133.27011882929099
 20
231.95164393642563
 40
1.0000000000000144
 50
131.7891138726263
 51
177.78911387262519
  0
ARC
  8
_0-2_
  6
CONTINUOUS
 62
    7
 10
135.58035535281721
 20
230.582200076856
 40
0.2000000000000062
 50
251.26073179891944
 51
314.69568062184157
  0
ARC
  8
_0-2_
  6
CONTINUOUS
 62
    7
 10
135.77683015132396
 20
230.77659878004545
 40
0.1999999999999922
 50
314.69568062184277
 51
341.26073179892245
  0
CIRCLE
  8
_0-2_
  6
CONTINUOUS
 62
    7
 10
134.81131269977226
 20
230.420703445784
 40
0.2999999999999998
  0
CIRCLE
  8
_0-2_
  6
CONTINUOUS
 62
    7
 10
133.61131269977221
 20
230.420703445784
 40
0.4499999999999974
  0
CIRCLE
  8
_0-2_
  6
CONTINUOUS
 62
    7
 10
136.29260907283316
 20
234.78714863096252
 40
0.4500000000000034
  0
CIRCLE
  8
_0-2_
  6
CONTINUOUS
 62
    7
 10
133.314641037017
 20
225.3283576283323
 40
0.45
  0
CIRCLE
  8
_0-2_
  6
CONTINUOUS
 62
    7
 10
136.11464103701707
 20
225.3283576283323
 40
0.45
  0
CIRCLE
  8
_0-2_
  6
CONTINUOUS
 62
    7
 10
138.11464103701707
 20
225.8283576283323
 40
0.4500000000000072
  0
CIRCLE
  8
_0-2_
  6
CONTINUOUS
 62
    7
 10
134.67608711013048
 20
228.62844286957073
 40
0.4499999999999991
  0
CIRCLE
  8
_0-2_
  6
CONTINUOUS
 62
    7
 10
138.11464103701707
 20
230.02835762833229
 40
0.4500000000000107
  0
ARC
  8
_0-2_
  6
CONTINUOUS
 62
    7
 10
138.11464103701707
 20
225.8283576283323
 40
0.6999999999999998
 50
270
 51
325.15009542095356
  0
ARC
  8
_0-2_
  6
CONTINUOUS
 62
    7
 10
138.11464103701707
 20
225.8283576283323
 40
0.6999999999999998
 50
180
 51
270
  0
ARC
  8
_0-2_
  6
CONTINUOUS
 62
    7
 10
134.81131269977226
 20
230.420703445784
 40
0.6999999999999847
 50
357.86228139794179
 51
83.277504605261115
  0
ARC
  8
_0-2_
  6
CONTINUOUS
 62
    7
 10
133.314641037017
 20
225.3283576283323
 40
0.8000000000000061
 50
61.044975628139369
 51
80.608358091166096
  0
ARC
  8
_0-2_
  6
CONTINUOUS
 62
    7
 10
134.60242309264623
 20
231.26473022001426
 40
0.6000000000000077
 50
131.78911387262639
 51
231.17994176754684
  0
ARC
  8
_0-2_
  6
CONTINUOUS
 62
    7
 10
136.29260907283316
 20
234.78714863096252
 40
0.8999999999999982
 50
311.78911387262519
 51
131.78911387262497
  0
ARC
  8
_0-2_
  6
CONTINUOUS
 62
    7
 10
136.11464103701707
 20
225.3283576283323
 40
0.799999999999995
 50
331.04497562814083
 51
23.553069489336515
  0
ARC
  8
_0-2_
  6
CONTINUOUS
 62
    7
 10
134.05994826487773
 20
226.6041124757615
 40
0.799999999999989
 50
329.86346732569558
 51
13.96137399196575
  0
ARC
  8
_0-2_
  6
CONTINUOUS
 62
    7
 10
134.67608711013048
 20
228.62844286957073
 40
0.799999999999994
 50
203.5530694893362
 51
246.57108474733133
  0
ARC
  8
_0-2_
  6
CONTINUOUS
 62
    7
 10
134.67608711013048
 20
228.62844286957073
 40
0.7999999999999938
 50
189.4337424635564
 51
203.5530694893362
  0
ARC
  8
_0-2_
  6
CONTINUOUS
 62
    7
 10
134.67608711013048
 20
228.62844286957073
 40
0.8000000000000121
 50
23.553069489335051
 51
189.4337424635564
  0
ARC
  8
_0-2_
  6
CONTINUOUS
 62
    7
 10
134.81131269977226
 20
230.420703445784
 40
0.6999999999999844
 50
321.61403546623569
 51
357.86228139794173
  0
LINE
  8
_0-2_
  6
CONTINUOUS
 62
    7
 10
138.68909730167087
 20
225.42835762833232
 11
138.91464103701713
 21
225.42835762833232
  0
LINE
  8
_0-2_
  6
CONTINUOUS
 62
    7
 10
137.41464103701713
 20
226.47835762833233
 11
137.41464103701713
 21
225.8283576283323
  0
LINE
  8
_0-2_
  6
CONTINUOUS
 62
    7
 10
138.91464103701713
 20
230.72835762833228
 11
138.91464103701713
 21
225.42835762833232
  0
LINE
  8
_0-2_
  6
CONTINUOUS
 62
    7
 10
138.11464103701707
 20
230.72835762833228
 11
138.91464103701713
 21
230.72835762833228
  0
LINE
  8
_0-2_
  6
CONTINUOUS
 62
    7
 10
137.41464103701713
 20
229.27835762833229
 11
137.41464103701713
 21
230.02835762833229
  0
LINE
  8
_0-2_
  6
CONTINUOUS
 62
    7
 10
137.71464103701709
 20
228.97835762833233
 11
137.41464103701713
 21
229.27835762833229
  0
LINE
  8
_0-2_
  6
CONTINUOUS
 62
    7
 10
137.71464103701709
 20
226.77835762833234
 11
137.71464103701709
 21
228.97835762833233
  0
LINE
  8
_0-2_
  6
CONTINUOUS
 62
    7
 10
137.41464103701713
 20
226.47835762833233
 11
137.71464103701709
 21
226.77835762833234
  0
LINE
  8
_0-2_
  6
CONTINUOUS
 62
    7
 10
136.814641037017
 20
224.52835762833234
 11
132.61464103701707
 21
224.52835762833234
  0
LINE
  8
_0-2_
  6
CONTINUOUS
 62
    7
 10
136.814641037017
 20
225.3283576283323
 11
136.814641037017
 21
224.52835762833234
  0
LINE
  8
_0-2_
  6
CONTINUOUS
 62
    7
 10
133.314641037017
 20
226.02835762833234
 11
136.11464103701707
 21
226.02835762833234
  0
LINE
  8
_0-2_
  6
CONTINUOUS
 62
    7
 10
132.61464103701707
 20
224.52835762833234
 11
130.41464103701713
 21
224.52835762833234
  0
LINE
  8
_0-2_
  6
CONTINUOUS
 62
    7
 10
132.61464103701707
 20
224.52835762833234
 11
132.61464103701707
 21
225.3283576283323
  0
LINE
  8
_0-2_
  6
CONTINUOUS
 62
    7
 10
138.91464103701713
 20
225.42835762833232
 11
139.21464103701709
 21
225.42835762833232
  0
LINE
  8
_0-2_
  6
CONTINUOUS
 62
    7
 10
138.91464103701713
 20
232.92835762833226
 11
138.91464103701713
 21
230.72835762833228
  0
LINE
  8
_0-2_
  6
CONTINUOUS
 62
    7
 10
130.41464103701713
 20
224.52835762833234
 11
130.41464103701713
 21
224.22835762833228
  0
LINE
  8
_0-2_
  6
CONTINUOUS
 62
    7
 10
138.41464103701713
 20
224.52835762833234
 11
136.814641037017
 21
224.52835762833234
  0
LINE
  8
_0-2_
  6
CONTINUOUS
 62
    7
 10
138.41464103701713
 20
224.22835762833228
 11
138.41464103701713
 21
224.52835762833234
  0
LINE
  8
_0-2_
  6
CONTINUOUS
 62
    7
 10
130.41464103701713
 20
224.22835762833228
 11
138.41464103701713
 21
224.22835762833228
  0
LINE
  8
_0-2_
  6
CONTINUOUS
 62
    2
 10
139.55792005514564
 20
226.42835762833232
 11
138.55601424937657
 21
226.42835762833232
  0
LINE
  8
_0-2_
  6
CONTINUOUS
 62
    2
 10
139.54714687443851
 20
230.12835762833231
 11
138.61397572768823
 21
230.12835762833231
  0
LINE
  8
_0-2_
  6
CONTINUOUS
 62
    7
 10
137.71464103701709
 20
226.92785745914449
 11
137.06658774119654
 21
227.4555805973435
  0
LINE
  8
_0-2_
  6
CONTINUOUS
 62
    7
 10
137.00899573337455
 20
228.0183266862993
 11
135.05403163335762
 21
229.61029419357197
  0
LINE
  8
_0-2_
  6
CONTINUOUS
 62
    7
 10
135.05403163335762
 20
229.61029419357197
 11
135.36000461510827
 21
229.98603439691476
  0
LINE
  8
_0-2_
  6
CONTINUOUS
 62
    7
 10
134.89325516560183
 20
231.11589078189832
 11
134.00404057021518
 21
231.22070344578401
  0
LINE
  8
_0-2_
  6
CONTINUOUS
 62
    7
 10
137.67263121602497
 20
225.28556179365177
 11
137.60948695588326
 21
225.20801953155456
  0
LINE
  8
_0-2_
  6
CONTINUOUS
 62
    7
 10
137.60948695588326
 20
225.20801953155456
 11
136.72629154386055
 21
225.92722373509991
  0
LINE
  8
_0-2_
  6
CONTINUOUS
 62
    7
 10
137.43059124076916
 20
230.17693715671095
 11
136.6614630577007
 21
232.45043085707073
  0
LINE
  8
_0-2_
  6
CONTINUOUS
 62
    7
 10
137.01456423079065
 20
235.77141523605417
 11
138.72222916430059
 21
230.72835762833228
  0
LINE
  8
_0-2_
  6
CONTINUOUS
 62
    7
 10
136.60329404269459
 20
235.63182303539429
 11
137.01456423079065
 21
235.77141523605417
  0
LINE
  8
_0-2_
  6
CONTINUOUS
 62
    2
 10
136.78760907283316
 20
234.78714863096252
 11
135.79760907283315
 21
234.78714863096252
  0
LINE
  8
_0-2_
  6
CONTINUOUS
 62
    2
 10
136.29260907283316
 20
235.28214863096252
 11
136.29260907283316
 21
234.29214863096252
  0
LINE
  8
_0-2_
  6
CONTINUOUS
 62
    7
 10
133.44518667149424
 20
226.11763440951808
 11
133.54772098480697
 21
228.77352303422259
  0
LINE
  8
_0-2_
  6
CONTINUOUS
 62
    7
 10
131.99631991730092
 20
224.87888079321158
 11
132.61464103701707
 21
224.85500963731027
  0
LINE
  8
_0-2_
  6
CONTINUOUS
 62
    7
 10
134.19543499576929
 20
229.99785460362045
 11
134.22629712946053
 21
230.79725908741074
  0
LINE
  8
_0-2_
  6
CONTINUOUS
 62
    7
 10
132.27086322455301
 20
231.99022160353957
 11
131.99631991730092
 21
224.87888079321158
  0
LINE
  8
_0-2_
  6
CONTINUOUS
 62
    7
 10
134.20258860142627
 20
231.71209179595803
 11
136.8923608096631
 21
234.11610626704692
  0
LINE
  8
_0-2_
  6
CONTINUOUS
 62
    7
 10
135.69285733600321
 20
235.45819099487812
 11
132.60372801059106
 21
232.69724656299854
  0
LINE
  8
_0-2_
  6
CONTINUOUS
 62
    7
 10
134.75181344386277
 20
226.20246266048952
 11
134.82770829487157
 21
226.02835762833234
  0
LINE
  8
_0-2_
  6
CONTINUOUS
 62
    7
 10
134.3579983101867
 20
227.89439960425847
 11
134.83631514301038
 21
226.79712664762081
  0
LINE
  8
_0-2_
  6
CONTINUOUS
 62
    7
 10
136.84799331284779
 20
225.64803627875153
 11
135.40943938596132
 21
228.94812151998991
  0
LINE
  8
_0-2_
  6
CONTINUOUS
 62
    7
 10
133.54772098480697
 20
228.77352303422259
 11
133.88690646606693
 21
228.49731731509974
  0
LINE
  8
_0-2_
  6
CONTINUOUS
 62
    7
 10
133.54772098480697
 20
228.77352303422259
 11
133.57273503265827
 21
229.42144784104607
  0
LINE
  8
_0-2_
  6
CONTINUOUS
 62
    2
 10
134.10631269977233
 20
230.420703445784
 11
133.11631269977221
 21
230.420703445784
  0
LINE
  8
_0-2_
  6
CONTINUOUS
 62
    2
 10
133.61131269977221
 20
230.915703445784
 11
133.61131269977221
 21
229.92570344578394
  0
LINE
  8
_0-2_
  6
CONTINUOUS
 62
    2
 10
138.60964103701707
 20
230.02835762833229
 11
137.61964103701706
 21
230.02835762833229
  0
LINE
  8
_0-2_
  6
CONTINUOUS
 62
    2
 10
138.11464103701707
 20
230.52335762833229
 11
138.11464103701707
 21
229.53335762833228
  0
LINE
  8
_0-2_
  6
CONTINUOUS
 62
    2
 10
135.14131269977219
 20
230.420703445784
 11
134.48131269977233
 21
230.420703445784
  0
LINE
  8
_0-2_
  6
CONTINUOUS
 62
    2
 10
134.81131269977226
 20
230.75070344578398
 11
134.81131269977226
 21
230.09070344578402
  0
LINE
  8
_0-2_
  6
CONTINUOUS
 62
    2
 10
135.1710871101306
 20
228.62844286957073
 11
134.18108711013059
 21
228.62844286957073
  0
LINE
  8
_0-2_
  6
CONTINUOUS
 62
    2
 10
134.67608711013048
 20
229.12344286957068
 11
134.67608711013048
 21
228.13344286957073
  0
LINE
  8
_0-2_
  6
CONTINUOUS
 62
    2
 10
133.80964103701712
 20
225.3283576283323
 11
132.81964103701711
 21
225.3283576283323
  0
LINE
  8
_0-2_
  6
CONTINUOUS
 62
    2
 10
133.314641037017
 20
225.8233576283323
 11
133.314641037017
 21
224.83335762833229
  0
LINE
  8
_0-2_
  6
CONTINUOUS
 62
    2
 10
136.60964103701707
 20
225.3283576283323
 11
135.61964103701706
 21
225.3283576283323
  0
LINE
  8
_0-2_
  6
CONTINUOUS
 62
    2
 10
136.11464103701707
 20
225.8233576283323
 11
136.11464103701707
 21
224.83335762833229
  0
LINE
  8
_0-2_
  6
CONTINUOUS
 62
    2
 10
138.60964103701707
 20
225.8283576283323
 11
137.61964103701706
 21
225.8283576283323
  0
LINE
  8
_0-2_
  6
CONTINUOUS
 62
    2
 10
138.11464103701707
 20
226.3233576283323
 11
138.11464103701707
 21
225.33335762833229
  0
LINE
  8
_0-2_
  6
CONTINUOUS
 62
    7
 10
135.72102357591888
 20
230.44002957706994
 11
135.91749837442563
 21
230.63442828025944
  0
LINE
  8
_0-2_
  6
CONTINUOUS
 62
    7
 10
136.6614630577007
 20
232.45043085707073
 11
136.6087376974811
 21
232.60628364851328
  0
LINE
  8
_0-2_
  6
CONTINUOUS
 62
    7
 10
136.6087376974811
 20
232.60628364851328
 11
135.96622821535908
 21
230.71234636110466
  0
LINE
  8
_0-2_
  6
CONTINUOUS
 62
    7
 10
136.6087376974811
 20
232.60628364851328
 11
136.28239224351586
 21
233.57093993086539
  0
LINE
  8
_0-2_
  6
CONTINUOUS
 62
    7
 10
132.71464103701697
 20
224.22835762833228
 11
138.01464103701704
 21
224.22835762833228
  0
LINE
  8
_0-2_
  6
CONTINUOUS
 62
    7
 10
130.51464103701704
 20
224.22835762833228
 11
132.71464103701697
 21
224.22835762833228
  0
LINE
  8
_0-2_
  6
DASHED1
 62
    7
 10
92.414667884237744
 20
224.22835762833228
 11
92.702687837785035
 21
224.22835762833228
  0
LINE
  8
_0-2_
  6
DASHED1
 62
    7
 10
93.086664954550244
 20
224.22835762833228
 11
93.374684908097535
 21
224.22835762833228
  0
LINE
  8
_0-2_
  6
CONTINUOUS
 62
    7
 10
93.614701536053687
 20
228.42835762833226
 11
91.214683720386489
 21
228.42835762833226
  0
ARC
  8
_0-2_
  6
CONTINUOUS
 62
    7
 10
91.694716976298565
 20
228.18834100037617
 40
0.2400000030929977
 50
0
 51
90
  0
ARC
  8
_0-2_
  6
CONTINUOUS
 62
    7
 10
93.614701536053687
 20
228.18834100037617
 40
0.2400000030929977
 50
0
 51
90
  0
LINE
  8
_0-2_
  6
CONTINUOUS
 62
    7
 10
93.614701536053687
 20
224.42835762833226
 11
91.214683720386489
 21
224.42835762833226
  0
ARC
  8
_0-2_
  6
CONTINUOUS
 62
    7
 10
91.694716976298565
 20
224.66834951230612
 40
0.2400000030929977
 50
270
 51
0
  0
ARC
  8
_0-2_
  6
CONTINUOUS
 62
    7
 10
93.614701536053687
 20
224.66834951230612
 40
0.2400000030929977
 50
270
 51
0
  0
LINE
  8
_0-2_
  6
CONTINUOUS
 62
    7
 10
93.374684908097535
 20
224.42835762833226
 11
93.374684908097535
 21
224.22835762833228
  0
LINE
  8
_0-2_
  6
CONTINUOUS
 62
    7
 10
93.086664954550244
 20
224.42835762833226
 11
93.086664954550244
 21
224.22835762833228
  0
LINE
  8
_0-2_
  6
CONTINUOUS
 62
    7
 10
92.702687837785035
 20
224.42835762833226
 11
92.702687837785035
 21
224.22835762833228
  0
LINE
  8
_0-2_
  6
CONTINUOUS
 62
    7
 10
92.414667884237744
 20
224.42835762833226
 11
92.414667884237744
 21
224.22835762833228
  0
LINE
  8
_0-2_
  6
CONTINUOUS
 62
    7
 10
93.374684908097535
 20
224.22835762833228
 11
93.086664954550244
 21
224.22835762833228
  0
LINE
  8
_0-2_
  6
CONTINUOUS
 62
    7
 10
92.702687837785035
 20
224.22835762833228
 11
92.414667884237744
 21
224.22835762833228
  0
LINE
  8
_0-2_
  6
CONTINUOUS
 62
    7
 10
91.934684116290128
 20
224.66437796236659
 11
91.934684116290128
 21
228.18834100037617
  0
LINE
  8
_0-2_
  6
CONTINUOUS
 62
    7
 10
93.854718164009839
 20
224.66834951230612
 11
93.854718164009839
 21
228.18834100037617
  0
LINE
  8
_0-2_
  6
CONTINUOUS
 62
    7
 10
91.214683720386489
 20
224.42835762833226
 11
93.616675646316864
 21
224.42835762833226
  0
LINE
  8
_0-2_
  6
CONTINUOUS
 62
    7
 10
92.355480278663478
 20
226.33236334914096
 11
92.355480278663478
 21
226.52437665150586
  0
LINE
  8
_0-2_
  6
CONTINUOUS
 62
    7
 10
92.355480278663478
 20
226.52437665150586
 11
92.625288661264833
 21
226.52437665150586
  0
LINE
  8
_0-2_
  6
CONTINUOUS
 62
    7
 10
92.355480278663478
 20
226.33236334914096
 11
92.625288661264833
 21
226.33236334914096
  0
LINE
  8
_0-2_
  6
CONTINUOUS
 62
    7
 10
91.934684116290128
 20
226.90835376827107
 11
89.846687916965863
 21
226.72240274156076
  0
LINE
  8
_0-2_
  6
CONTINUOUS
 62
    7
 10
91.934684116290128
 20
225.94836148839352
 11
89.846687916965863
 21
226.13431251510383
  0
LINE
  8
_0-2_
  6
CONTINUOUS
 62
    7
 10
89.61275830864659
 20
226.42837000032341
 11
89.846687916965863
 21
226.72240274156076
  0
LINE
  8
_0-2_
  6
CONTINUOUS
 62
    7
 10
89.61275830864659
 20
226.42837000032341
 11
89.846687916965863
 21
226.13431251510383
  0
ARC
  8
_0-2_
  6
CONTINUOUS
 62
    7
 10
91.656858683435445
 20
226.42837000032341
 40
0.9731599446889517
 50
286.58741760253906
 51
73.412582397460938
  0
LINE
  8
_0-2_
  6
DASHED1
 62
    7
 10
91.214683720386489
 20
254.98835762833221
 11
91.214683720386489
 21
224.22835762833228
  0
LINE
  8
_0-2_
  6
DASHED1
 62
    7
 10
139.21464103701709
 20
254.98835762833221
 11
91.214683720386489
 21
254.98835762833221
  0
LINE
  8
_0-2_
  6
DASHED1
 62
    7
 10
139.21464103701709
 20
224.22835762833228
 11
139.21464103701709
 21
254.98835762833221
  0
LINE
  8
_0-2_
  6
CONTINUOUS
 62
    7
 10
142.25466958332464
 20
224.22835762833228
 11
87.254679893317217
 21
224.22835762833228
  0
LINE
  8
_0-2_
  6
CONTINUOUS
 62
    7
 10
142.25466958332464
 20
224.22835762833228
 11
142.25466958332464
 21
223.98836574435848
  0
LINE
  8
_0-2_
  6
DASHED1
 62
    7
 10
87.254655149334923
 20
175.93287983853077
 11
142.25464483934235
 21
175.93287983853077
  0
LINE
  8
_0-2_
  6
DASHED1
 62
    7
 10
87.254655149334923
 20
47.732878766291492
 11
87.254655149334923
 21
175.93287983853077
  0
LINE
  8
_0-2_
  6
CONTINUOUS
 62
    7
 10
86.754678243718416
 20
46.832878271411857
 11
86.754678243718416
 21
176.83288033341034
  0
LINE
  8
_0-2_
  6
CONTINUOUS
 62
    7
 10
86.754678243718416
 20
176.83288033341034
 11
142.75467123292344
 21
176.83288033341034
  0
LINE
  8
_0-2_
  6
CONTINUOUS
 62
    7
 10
142.75467123292344
 20
176.83288033341034
 11
142.75467123292344
 21
46.832878271411857
  0
LINE
  8
_0-2_
  6
CONTINUOUS
 62
    7
 10
142.75467123292344
 20
46.832878271411857
 11
86.754678243718416
 21
46.832878271411857
  0
LINE
  8
_0-1_
  6
CONTINUOUS
 62
    7
 10
86.754678243718416
 20
262.21654608329186
 11
87.254679893317217
 21
262.21654608329186
  0
POINT
  8
_0-1_
 62
    7
 10
86.754678243718416
 20
262.21654608329186
  0
POINT
  8
_0-1_
 62
    7
 10
87.254679893317217
 20
262.21654608329186
  0
LINE
  8
_0-1_
  6
CONTINUOUS
 62
    7
 10
86.754678243718416
 20
262.21654608329186
 11
86.754678243718416
 21
257.82857908176777
  0
LINE
  8
_0-1_
  6
CONTINUOUS
 62
    7
 10
87.254679893317217
 20
262.21654608329186
 11
87.254679893317217
 21
257.82857908176777
  0
LINE
  8
_0-1_
  6
CONTINUOUS
 62
    7
 10
87.254679893317217
 20
262.21654608329186
 11
90.974677814822684
 21
262.21654608329186
  0
POINT
  8
_0-1_
 62
    7
 10
90.974677814822684
 20
262.21654608329186
  0
LINE
  8
_0-1_
  6
CONTINUOUS
 62
    7
 10
90.974677814822684
 20
262.21654608329186
 11
90.974677814822684
 21
257.82857908176777
  0
LINE
  8
_0-1_
  6
CONTINUOUS
 62
    7
 10
90.974677814822684
 20
262.21654608329186
 11
139.45466529436771
 21
262.21654608329186
  0
POINT
  8
_0-1_
 62
    7
 10
139.45466529436771
 20
262.21654608329186
  0
LINE
  8
_0-1_
  6
CONTINUOUS
 62
    7
 10
139.45466529436771
 20
262.21654608329186
 11
139.45466529436771
 21
257.82857908176777
  0
LINE
  8
_0-1_
  6
CONTINUOUS
 62
    7
 10
139.45466529436771
 20
262.21654608329186
 11
142.25466958332464
 21
262.21654608329186
  0
POINT
  8
_0-1_
 62
    7
 10
142.25466958332464
 20
262.21654608329186
  0
LINE
  8
_0-1_
  6
CONTINUOUS
 62
    7
 10
142.25466958332464
 20
262.21654608329186
 11
142.25466958332464
 21
257.82857908176777
  0
LINE
  8
_0-1_
  6
CONTINUOUS
 62
    7
 10
142.25466958332464
 20
262.21654608329186
 11
142.75467123292344
 21
262.21654608329186
  0
POINT
  8
_0-1_
 62
    7
 10
142.75467123292344
 20
262.21654608329186
  0
LINE
  8
_0-1_
  6
CONTINUOUS
 62
    7
 10
142.75467123292344
 20
262.21654608329186
 11
142.75467123292344
 21
257.82857908176777
  0
TEXT
  8
_0-1_
 62
    7
 10
86.617885454305821
 20
262.3780753321011
 40
5
 41
1
 50
0
  1
18.6
  0
TEXT
  8
_0-1_
 62
    7
 10
109.49196647584391
 20
261.9402938771434
 40
5
 41
1
 50
0
  1
242.4
  0
TEXT
  8
_0-1_
 62
    7
 10
136.63441668321934
 20
262.15918460462228
 40
5
 41
1
 50
0
  1
14
  0
CIRCLE
  8
_0-1_
  6
CONTINUOUS
 62
    7
 10
154.5573971666239
 20
253.30809029769807
 40
4
  0
TEXT
  8
_0-1_
 62
    7
 10
151.85027410383469
 20
250.96715436451075
 40
5
 41
1
 50
0
  1
１
  0
LINE
  8
_0-1_
  6
CONTINUOUS
 62
    7
 10
139.51537827624304
 20
238.26606759261995
 11
151.72900895251257
 21
250.47967538070588
  0
LINE
  8
_0-1_
  6
CONTINUOUS
 62
    7
 10
86.754678243718416
 20
214.03006865137854
 11
142.75467123292344
 21
214.03006865137854
  0
POINT
  8
_0-1_
 62
    7
 10
86.754678243718416
 20
214.03006865137854
  0
POINT
  8
_0-1_
 62
    7
 10
142.75467123292344
 20
214.03006865137854
  0
LINE
  8
_0-1_
  6
CONTINUOUS
 62
    7
 10
86.754678243718416
 20
214.03006865137854
 11
86.754678243718416
 21
220.58206638825919
  0
LINE
  8
_0-1_
  6
CONTINUOUS
 62
    7
 10
142.75467123292344
 20
214.03006865137854
 11
142.75467123292344
 21
220.58206638825919
  0
LINE
  8
_0-1_
  6
CONTINUOUS
 62
    7
 10
86.896980885715863
 20
123.70255212922962
 11
93.794681427444161
 21
123.70255212922962
  0
LINE
  8
_0-1_
  6
CONTINUOUS
 62
    7
 10
86.896980885715863
 20
123.70255212922962
 11
86.896980885715863
 21
125.14073423834071
  0
LINE
  8
_0-1_
  6
CONTINUOUS
 62
    7
 10
93.794681427444161
 20
123.70255212922962
 11
93.794681427444161
 21
125.14073423834071
  0
LINE
  8
_0-1_
  6
CONTINUOUS
 62
    7
 10
93.794681427444161
 20
123.70255212922962
 11
104.99468002528515
 21
123.70255212922962
  0
LINE
  8
_0-1_
  6
CONTINUOUS
 62
    7
 10
104.99468002528515
 20
123.70255212922962
 11
104.99468002528515
 21
125.14073423834071
  0
LINE
  8
_0-1_
  6
CONTINUOUS
 62
    7
 10
135.99467713848719
 20
123.70255212922962
 11
135.99467713848719
 21
125.14073423834071
  0
LINE
  8
_0-1_
  6
CONTINUOUS
 62
    7
 10
135.99467713848719
 20
123.70255212922962
 11
142.89699861890318
 21
123.70255212922962
  0
LINE
  8
_0-1_
  6
CONTINUOUS
 62
    7
 10
142.89699861890318
 20
123.70255212922962
 11
142.89699861890318
 21
125.14073423834071
  0
LINE
  8
_0-1_
  6
CONTINUOUS
 62
    7
 10
104.99468002528515
 20
123.70255212922962
 11
135.99467713848719
 21
123.70255212922962
  0
POINT
  8
_0-1_
 62
    7
 10
86.896980885715863
 20
123.70255212922962
  0
POINT
  8
_0-1_
 62
    7
 10
93.794681427444161
 20
123.70255212922962
  0
POINT
  8
_0-1_
 62
    7
 10
104.99468002528515
 20
123.70255212922962
  0
POINT
  8
_0-1_
 62
    7
 10
135.99467713848719
 20
123.70255212922962
  0
POINT
  8
_0-1_
 62
    7
 10
142.89699861890318
 20
123.70255212922962
  0
TEXT
  8
_0-1_
 62
    7
 10
97.309244910604988
 20
124.80233553690488
 40
5
 41
1
 50
0
  1
56
  0
TEXT
  8
_0-1_
 62
    7
 10
82.046008942092584
 20
124.70484424678665
 40
5
 41
1
 50
0
  1
34.5
  0
TEXT
  8
_0-1_
 62
    7
 10
115.74468538648129
 20
124.70255542842727
 40
5
 41
1
 50
0
  1
155
  0
TEXT
  8
_0-1_
 62
    7
 10
136.54790226913542
 20
124.29473748475118
 40
5
 41
1
 50
0
  1
34.5
  0
CIRCLE
  8
_0-1_
  6
CONTINUOUS
 62
    7
 10
156.48197634651933
 20
118.53757252896264
 40
4
  0
TEXT
  8
_0-1_
 62
    7
 10
153.91421596979586
 20
116.29625680227241
 40
5
 41
1
 50
0
  1
２
  0
LINE
  8
_0-1_
  6
CONTINUOUS
 62
    7
 10
137.73438212067038
 20
99.79000882069181
 11
153.65353854134355
 21
115.70916524136499
  0
LINE
  8
_0-2_
  6
DASHED1
 62
    7
 10
91.214682070787632
 20
172.43288066333014
 11
139.21464866641162
 21
172.43288066333014
  0
LINE
  8
_0-1_
  6
CONTINUOUS
 62
    7
 10
86.754678243718416
 20
188.77256161800756
 11
87.254655149334923
 21
188.77256161800756
  0
POINT
  8
_0-1_
 62
    7
 10
86.754678243718416
 20
188.77256161800756
  0
POINT
  8
_0-1_
 62
    7
 10
87.254655149334923
 20
188.77256161800756
  0
LINE
  8
_0-1_
  6
CONTINUOUS
 62
    7
 10
86.754678243718416
 20
188.77256161800756
 11
86.754678243718416
 21
179.48423012327459
  0
LINE
  8
_0-1_
  6
CONTINUOUS
 62
    7
 10
87.254655149334923
 20
188.77256161800756
 11
87.254655149334923
 21
179.48423012327459
  0
LINE
  8
_0-1_
  6
CONTINUOUS
 62
    7
 10
87.254655149334923
 20
188.77256161800756
 11
91.214682070787632
 21
188.77256161800756
  0
POINT
  8
_0-1_
 62
    7
 10
91.214682070787632
 20
188.77256161800756
  0
LINE
  8
_0-1_
  6
CONTINUOUS
 62
    7
 10
91.214682070787632
 20
188.77256161800756
 11
91.214682070787632
 21
179.48423012327459
  0
LINE
  8
_0-1_
  6
CONTINUOUS
 62
    7
 10
91.214682070787632
 20
188.77256161800756
 11
139.21464866641162
 21
188.77256161800756
  0
POINT
  8
_0-1_
 62
    7
 10
139.21464866641162
 20
188.77256161800756
  0
LINE
  8
_0-1_
  6
CONTINUOUS
 62
    7
 10
139.21464866641162
 20
188.77256161800756
 11
139.21464866641162
 21
179.48423012327459
  0
LINE
  8
_0-1_
  6
CONTINUOUS
 62
    7
 10
139.21464866641162
 20
188.77256161800756
 11
142.25464483934235
 21
188.77256161800756
  0
POINT
  8
_0-1_
 62
    7
 10
142.25464483934235
 20
188.77256161800756
  0
LINE
  8
_0-1_
  6
CONTINUOUS
 62
    7
 10
142.25464483934235
 20
188.77256161800756
 11
142.25464483934235
 21
179.48423012327459
  0
LINE
  8
_0-1_
  6
CONTINUOUS
 62
    7
 10
142.25464483934235
 20
188.77256161800756
 11
142.75467123292344
 21
188.77256161800756
  0
POINT
  8
_0-1_
 62
    7
 10
142.75467123292344
 20
188.77256161800756
  0
LINE
  8
_0-1_
  6
CONTINUOUS
 62
    7
 10
142.75467123292344
 20
188.77256161800756
 11
142.75467123292344
 21
179.48423012327459
  0
LINE
  8
_0-2_
  6
DASHED1
 62
    7
 10
91.214682070787632
 20
172.43288066333014
 11
91.214682070787632
 21
51.23287794149212
  0
LINE
  8
_0-2_
  6
DASHED1
 62
    7
 10
139.21464866641162
 20
51.23287794149212
 11
91.214682070787632
 21
51.23287794149212
  0
LINE
  8
_0-2_
  6
DASHED1
 62
    7
 10
139.21464866641162
 20
172.43288066333014
 11
139.21464866641162
 21
51.23287794149212
  0
TEXT
  8
_0-1_
 62
    7
 10
78.832777140286652
 20
184.06881018943056
 40
5
 41
1
 50
0
  1
2.5
  0
TEXT
  8
_0-1_
 62
    7
 10
85.210946682401953
 20
189.02960872218694
 40
5
 41
1
 50
0
  1
19.8
  0
TEXT
  8
_0-1_
 62
    7
 10
109.23538529103628
 20
188.81700307078313
 40
5
 41
1
 50
0
  1
240
  0
TEXT
  8
_0-1_
 62
    7
 10
143.18142096518329
 20
183.99794163896263
 40
5
 41
1
 50
0
  1
2.5
  0
TEXT
  8
_0-1_
 62
    7
 10
132.40940129405521
 20
188.81700307078313
 40
5
 41
1
 50
0
  1
15.2
  0
LINE
  8
_0-2_
  6
CONTINUOUS
 62
    7
 10
226.48959372822344
 20
50.992879871522746
 11
195.48959042902578
 21
50.992879871522746
  0
LINE
  8
_0-2_
  6
CONTINUOUS
 62
    7
 10
195.24962328903422
 20
176.43288148812957
 11
195.24962328903422
 21
175.93287983853077
  0
LINE
  8
_0-2_
  6
CONTINUOUS
 62
    7
 10
195.24962328903422
 20
175.93287983853077
 11
195.48959042902578
 21
175.93287983853077
  0
LINE
  8
_0-2_
  6
CONTINUOUS
 62
    7
 10
195.24962328903422
 20
47.732878766291492
 11
195.48959042902578
 21
47.732878766291492
  0
LINE
  8
_0-2_
  6
CONTINUOUS
 62
    7
 10
195.24962328903422
 20
46.832878271411857
 11
195.24962328903422
 21
176.83288033341034
  0
LINE
  8
_0-2_
  6
CONTINUOUS
 62
    7
 10
194.84959969977115
 20
46.832878271411857
 11
194.84959969977115
 21
176.83288033341034
  0
LINE
  8
_0-2_
  6
CONTINUOUS
 62
    7
 10
195.24962328903422
 20
176.83288033341034
 11
194.84959969977115
 21
176.83288033341034
  0
LINE
  8
_0-2_
  6
CONTINUOUS
 62
    7
 10
195.24962328903422
 20
46.832878271411857
 11
194.84959969977115
 21
46.832878271411857
  0
LINE
  8
_0-2_
  6
DASHED1
 62
    7
 10
195.72963991699027
 20
150.22259557966248
 11
195.72963991699027
 21
149.4431601383618
  0
LINE
  8
_0-2_
  6
DASHED1
 62
    7
 10
201.65251624088341
 20
148.6328969273435
 11
195.48962328903417
 21
148.6328969273435
  0
LINE
  8
_0-2_
  6
DASHED1
 62
    7
 10
195.48962328903417
 20
152.23289692734346
 11
201.65251624088341
 21
152.23289692734346
  0
LINE
  8
_0-2_
  6
DASHED1
 62
    7
 10
201.8525162408834
 20
152.03289692734347
 11
201.8525162408834
 21
148.83289692734348
  0
LINE
  8
_0-2_
  6
DASHED1
 62
    7
 10
195.56283781051195
 20
148.93289692734345
 11
195.56283781051195
 21
151.93289692734345
  0
LINE
  8
_0-2_
  6
DASHED1
 62
    7
 10
195.68962328903416
 20
152.03289692734347
 11
195.68962328903416
 21
148.83289692734348
  0
LINE
  8
_0-2_
  6
DASHED1
 62
    7
 10
203.29720797008486
 20
153.42892619000861
 11
201.39929919749557
 21
154.66986654131699
  0
LINE
  8
_0-2_
  6
DASHED1
 62
    7
 10
200.85204983451285
 20
154.83289692734348
 11
196.14995860710218
 21
154.83289692734348
  0
LINE
  8
_0-2_
  6
DASHED1
 62
    7
 10
195.74995860710214
 20
154.43289692734345
 11
195.74995860710214
 21
152.83289692734348
  0
LINE
  8
_0-2_
  6
DASHED1
 62
    7
 10
196.14995860710218
 20
146.03289692734347
 11
200.85204983451285
 21
146.03289692734347
  0
LINE
  8
_0-2_
  6
DASHED1
 62
    7
 10
201.39929919749557
 20
146.19592731336991
 11
203.29720797008486
 21
147.43686766467829
  0
LINE
  8
_0-2_
  6
DASHED1
 62
    7
 10
203.74995860710214
 20
148.27383727865185
 11
203.74995860710214
 21
152.5919565760351
  0
LINE
  8
_0-2_
  6
DASHED1
 62
    7
 10
197.54995860710216
 20
153.23289692734346
 11
196.94995860710219
 21
153.23289692734346
  0
LINE
  8
_0-2_
  6
DASHED1
 62
    7
 10
196.94995860710219
 20
154.03289692734347
 11
197.54995860710216
 21
154.03289692734347
  0
LINE
  8
_0-2_
  6
DASHED1
 62
    7
 10
201.14995860710218
 20
147.6328969273435
 11
200.54995860710216
 21
147.6328969273435
  0
LINE
  8
_0-2_
  6
DASHED1
 62
    7
 10
200.54995860710216
 20
146.83289692734348
 11
201.14995860710218
 21
146.83289692734348
  0
LINE
  8
_0-2_
  6
DASHED1
 62
    7
 10
201.54995860710216
 20
152.33289692734348
 11
201.54995860710216
 21
152.43289692734345
  0
LINE
  8
_0-2_
  6
DASHED1
 62
    7
 10
201.54995860710216
 20
152.43289692734345
 11
201.94995860710219
 21
152.43289692734345
  0
LINE
  8
_0-2_
  6
DASHED1
 62
    7
 10
201.94995860710219
 20
152.43289692734345
 11
201.94995860710219
 21
148.43289692734345
  0
LINE
  8
_0-2_
  6
DASHED1
 62
    7
 10
201.94995860710219
 20
148.43289692734345
 11
201.54995860710216
 21
148.43289692734345
  0
LINE
  8
_0-2_
  6
DASHED1
 62
    7
 10
201.54995860710216
 20
148.43289692734345
 11
201.54995860710216
 21
148.53289692734347
  0
LINE
  8
_0-2_
  6
DASHED1
 62
    7
 10
201.54995860710216
 20
152.33289692734348
 11
197.34995860710217
 21
152.33289692734348
  0
LINE
  8
_0-2_
  6
DASHED1
 62
    7
 10
197.34995860710217
 20
152.33289692734348
 11
197.34995860710217
 21
152.43289692734345
  0
LINE
  8
_0-2_
  6
DASHED1
 62
    7
 10
197.34995860710217
 20
152.6328969273435
 11
201.54995860710216
 21
152.6328969273435
  0
LINE
  8
_0-2_
  6
DASHED1
 62
    7
 10
201.54995860710216
 20
152.6328969273435
 11
201.54995860710216
 21
152.43289692734345
  0
LINE
  8
_0-2_
  6
DASHED1
 62
    7
 10
197.34995860710217
 20
148.23289692734346
 11
197.34995860710217
 21
148.43289692734345
  0
LINE
  8
_0-2_
  6
DASHED1
 62
    7
 10
197.34995860710217
 20
148.53289692734347
 11
201.54995860710216
 21
148.53289692734347
  0
LINE
  8
_0-2_
  6
DASHED1
 62
    7
 10
201.54995860710216
 20
148.43289692734345
 11
201.54995860710216
 21
148.23289692734346
  0
LINE
  8
_0-2_
  6
DASHED1
 62
    7
 10
197.34995860710217
 20
152.43289692734345
 11
196.14995860710218
 21
152.43289692734345
  0
LINE
  8
_0-2_
  6
DASHED1
 62
    7
 10
197.34995860710217
 20
152.43289692734345
 11
197.34995860710217
 21
152.6328969273435
  0
LINE
  8
_0-2_
  6
DASHED1
 62
    7
 10
197.34995860710217
 20
148.43289692734345
 11
196.14995860710218
 21
148.43289692734345
  0
LINE
  8
_0-2_
  6
DASHED1
 62
    7
 10
197.34995860710217
 20
148.43289692734345
 11
197.34995860710217
 21
148.53289692734347
  0
LINE
  8
_0-2_
  6
DASHED1
 62
    7
 10
195.74995860710214
 20
148.03289692734347
 11
195.74995860710214
 21
146.43289692734345
  0
LINE
  8
_0-2_
  6
DASHED1
 62
    7
 10
201.29995860710216
 20
148.23289692734346
 11
201.29995860710216
 21
148.1328969273435
  0
LINE
  8
_0-2_
  6
DASHED1
 62
    7
 10
200.39995860710218
 20
148.1328969273435
 11
200.39995860710218
 21
148.23289692734346
  0
LINE
  8
_0-2_
  6
DASHED1
 62
    7
 10
201.54995860710216
 20
148.23289692734346
 11
197.34995860710217
 21
148.23289692734346
  0
LINE
  8
_0-2_
  6
DASHED1
 62
    7
 10
201.29995860710216
 20
148.1328969273435
 11
200.39995860710218
 21
148.1328969273435
  0
LINE
  8
_0-2_
  6
DASHED1
 62
    7
 10
198.49995860710214
 20
148.23289692734346
 11
198.49995860710214
 21
148.1328969273435
  0
LINE
  8
_0-2_
  6
DASHED1
 62
    7
 10
197.59995860710217
 20
148.1328969273435
 11
197.59995860710217
 21
148.23289692734346
  0
LINE
  8
_0-2_
  6
DASHED1
 62
    7
 10
198.49995860710214
 20
148.1328969273435
 11
197.59995860710217
 21
148.1328969273435
  0
LINE
  8
_0-2_
  6
DASHED1
 62
    7
 10
196.63552706704121
 20
148.6328969273435
 11
196.63552706704121
 21
148.53289692734347
  0
LINE
  8
_0-2_
  6
DASHED1
 62
    7
 10
195.73552706704118
 20
148.53289692734347
 11
195.73552706704118
 21
148.6328969273435
  0
LINE
  8
_0-2_
  6
DASHED1
 62
    7
 10
196.63552706704121
 20
148.53289692734347
 11
195.73552706704118
 21
148.53289692734347
  0
ARC
  8
_0-2_
  6
DASHED1
 62
    7
 10
201.14995860710218
 20
153.6328969273435
 40
0.3499999999999999
 50
180
 51
0
  0
ARC
  8
_0-2_
  6
DASHED1
 62
    7
 10
201.14995860710218
 20
153.6328969273435
 40
0.3499999999999999
 50
0
 51
180
  0
ARC
  8
_0-2_
  6
DASHED1
 62
    7
 10
200.84995860710217
 20
149.09539692734347
 40
1.0625
 50
244.94238458169698
 51
295.05761541830304
  0
ARC
  8
_0-2_
  6
DASHED1
 62
    7
 10
198.04995860710216
 20
149.09539692734347
 40
1.0625
 50
244.94238458169698
 51
295.05761541830304
  0
ARC
  8
_0-2_
  6
DASHED1
 62
    7
 10
196.18552706704122
 20
149.49539692734345
 40
1.0625
 50
244.94238458169698
 51
295.05761541830304
  0
CIRCLE
  8
_0-2_
  6
DASHED1
 62
    7
 10
196.94995860710219
 20
147.23289692734346
 40
0.3499999999999999
  0
ARC
  8
_0-2_
  6
DASHED1
 62
    7
 10
195.48962328903417
 20
148.83289692734348
 40
0.2
 50
270
 51
0
  0
ARC
  8
_0-2_
  6
DASHED1
 62
    7
 10
195.48962328903417
 20
152.03289692734347
 40
0.2
 50
0
 51
90
  0
ARC
  8
_0-2_
  6
DASHED1
 62
    7
 10
201.65251624088341
 20
148.83289692734348
 40
0.2
 50
270
 51
0
  0
ARC
  8
_0-2_
  6
DASHED1
 62
    7
 10
201.65251624088341
 20
152.03289692734347
 40
0.2
 50
0
 51
90
  0
ARC
  8
_0-2_
  6
DASHED1
 62
    7
 10
196.14995860710218
 20
154.43289692734345
 40
0.4
 50
90
 51
180
  0
ARC
  8
_0-2_
  6
DASHED1
 62
    7
 10
196.14995860710218
 20
146.43289692734345
 40
0.4
 50
180
 51
270
  0
ARC
  8
_0-2_
  6
DASHED1
 62
    7
 10
200.85204983451285
 20
153.83289692734348
 40
1
 50
56.821488340607381
 51
90
  0
ARC
  8
_0-2_
  6
DASHED1
 62
    7
 10
202.74995860710214
 20
152.5919565760351
 40
0.9999999999999944
 50
0
 51
56.821488340607196
  0
ARC
  8
_0-2_
  6
DASHED1
 62
    7
 10
202.74995860710214
 20
148.27383727865185
 40
1
 50
303.1785116593926
 51
0.0000000000000127
  0
ARC
  8
_0-2_
  6
DASHED1
 62
    7
 10
200.85204983451285
 20
147.03289692734347
 40
1.0000000000000002
 50
270
 51
303.17851165939248
  0
ARC
  8
_0-2_
  6
DASHED1
 62
    7
 10
197.54995860710216
 20
153.6328969273435
 40
0.4
 50
0
 51
90
  0
ARC
  8
_0-2_
  6
DASHED1
 62
    7
 10
197.54995860710216
 20
153.6328969273435
 40
0.4
 50
270
 51
0
  0
ARC
  8
_0-2_
  6
DASHED1
 62
    7
 10
196.94995860710219
 20
153.6328969273435
 40
0.4
 50
90
 51
180
  0
ARC
  8
_0-2_
  6
DASHED1
 62
    7
 10
196.94995860710219
 20
153.6328969273435
 40
0.4
 50
180
 51
270
  0
ARC
  8
_0-2_
  6
DASHED1
 62
    7
 10
201.14995860710218
 20
147.23289692734346
 40
0.4
 50
0
 51
90
  0
ARC
  8
_0-2_
  6
DASHED1
 62
    7
 10
201.14995860710218
 20
147.23289692734346
 40
0.4
 50
270
 51
0
  0
ARC
  8
_0-2_
  6
DASHED1
 62
    7
 10
200.54995860710216
 20
147.23289692734346
 40
0.4
 50
90
 51
180
  0
ARC
  8
_0-2_
  6
DASHED1
 62
    7
 10
200.54995860710216
 20
147.23289692734346
 40
0.4000000000000018
 50
180
 51
270
  0
ARC
  8
_0-2_
  6
DASHED1
 62
    7
 10
196.14995860710218
 20
152.83289692734348
 40
0.4
 50
180
 51
270
  0
ARC
  8
_0-2_
  6
DASHED1
 62
    7
 10
196.14995860710218
 20
148.03289692734347
 40
0.4
 50
90
 51
180
  0
LINE
  8
_0-2_
  6
DASHED1
 62
    7
 10
195.56283781051195
 20
151.53289692734347
 11
195.48962328903417
 21
151.53289692734347
  0
LINE
  8
_0-2_
  6
DASHED1
 62
    7
 10
195.56283781051195
 20
149.33289692734348
 11
195.48962328903417
 21
149.33289692734348
  0
LINE
  8
_0-2_
  6
DASHED1
 62
    7
 10
201.65251624088341
 20
71.432867107139714
 11
195.48962328903417
 21
71.432867107139714
  0
LINE
  8
_0-2_
  6
DASHED1
 62
    7
 10
195.48962328903417
 20
75.032867107139737
 11
201.65251624088341
 21
75.032867107139737
  0
LINE
  8
_0-2_
  6
DASHED1
 62
    7
 10
201.8525162408834
 20
74.832867107139691
 11
201.8525162408834
 21
71.632867107139703
  0
LINE
  8
_0-2_
  6
DASHED1
 62
    7
 10
195.56283781051195
 20
71.732867107139725
 11
195.56283781051195
 21
74.732867107139725
  0
LINE
  8
_0-2_
  6
DASHED1
 62
    7
 10
195.68962328903416
 20
74.832867107139691
 11
195.68962328903416
 21
71.632867107139703
  0
LINE
  8
_0-2_
  6
DASHED1
 62
    7
 10
203.29720797008486
 20
76.228896369804829
 11
201.39929919749557
 21
77.469836721113268
  0
LINE
  8
_0-2_
  6
DASHED1
 62
    7
 10
200.85204983451285
 20
77.632867107139703
 11
196.14995860710218
 21
77.632867107139703
  0
LINE
  8
_0-2_
  6
DASHED1
 62
    7
 10
195.74995860710214
 20
77.232867107139725
 11
195.74995860710214
 21
75.632867107139703
  0
LINE
  8
_0-2_
  6
DASHED1
 62
    7
 10
196.14995860710218
 20
68.832867107139691
 11
200.85204983451285
 21
68.832867107139691
  0
LINE
  8
_0-2_
  6
DASHED1
 62
    7
 10
201.39929919749557
 20
68.995897493166183
 11
203.29720797008486
 21
70.236837844474564
  0
LINE
  8
_0-2_
  6
DASHED1
 62
    7
 10
203.74995860710214
 20
71.073807458448073
 11
203.74995860710214
 21
75.391926755831321
  0
LINE
  8
_0-2_
  6
DASHED1
 62
    7
 10
197.54995860710216
 20
76.032867107139737
 11
196.94995860710219
 21
76.032867107139737
  0
LINE
  8
_0-2_
  6
DASHED1
 62
    7
 10
196.94995860710219
 20
76.832867107139691
 11
197.54995860710216
 21
76.832867107139691
  0
LINE
  8
_0-2_
  6
DASHED1
 62
    7
 10
201.14995860710218
 20
70.432867107139714
 11
200.54995860710216
 21
70.432867107139714
  0
LINE
  8
_0-2_
  6
DASHED1
 62
    7
 10
200.54995860710216
 20
69.632867107139703
 11
201.14995860710218
 21
69.632867107139703
  0
LINE
  8
_0-2_
  6
DASHED1
 62
    7
 10
201.54995860710216
 20
75.132867107139703
 11
201.54995860710216
 21
75.232867107139725
  0
LINE
  8
_0-2_
  6
DASHED1
 62
    7
 10
201.54995860710216
 20
75.232867107139725
 11
201.94995860710219
 21
75.232867107139725
  0
LINE
  8
_0-2_
  6
DASHED1
 62
    7
 10
201.94995860710219
 20
75.232867107139725
 11
201.94995860710219
 21
71.232867107139725
  0
LINE
  8
_0-2_
  6
DASHED1
 62
    7
 10
201.94995860710219
 20
71.232867107139725
 11
201.54995860710216
 21
71.232867107139725
  0
LINE
  8
_0-2_
  6
DASHED1
 62
    7
 10
201.54995860710216
 20
71.232867107139725
 11
201.54995860710216
 21
71.332867107139691
  0
LINE
  8
_0-2_
  6
DASHED1
 62
    7
 10
201.54995860710216
 20
75.132867107139703
 11
197.34995860710217
 21
75.132867107139703
  0
LINE
  8
_0-2_
  6
DASHED1
 62
    7
 10
197.34995860710217
 20
75.132867107139703
 11
197.34995860710217
 21
75.232867107139725
  0
LINE
  8
_0-2_
  6
DASHED1
 62
    7
 10
197.34995860710217
 20
75.432867107139714
 11
201.54995860710216
 21
75.432867107139714
  0
LINE
  8
_0-2_
  6
DASHED1
 62
    7
 10
201.54995860710216
 20
75.432867107139714
 11
201.54995860710216
 21
75.232867107139725
  0
LINE
  8
_0-2_
  6
DASHED1
 62
    7
 10
197.34995860710217
 20
71.032867107139737
 11
197.34995860710217
 21
71.232867107139725
  0
LINE
  8
_0-2_
  6
DASHED1
 62
    7
 10
197.34995860710217
 20
71.332867107139691
 11
201.54995860710216
 21
71.332867107139691
  0
LINE
  8
_0-2_
  6
DASHED1
 62
    7
 10
201.54995860710216
 20
71.232867107139725
 11
201.54995860710216
 21
71.032867107139737
  0
LINE
  8
_0-2_
  6
DASHED1
 62
    7
 10
197.34995860710217
 20
75.232867107139725
 11
196.14995860710218
 21
75.232867107139725
  0
LINE
  8
_0-2_
  6
DASHED1
 62
    7
 10
197.34995860710217
 20
75.232867107139725
 11
197.34995860710217
 21
75.432867107139714
  0
LINE
  8
_0-2_
  6
DASHED1
 62
    7
 10
197.34995860710217
 20
71.232867107139725
 11
196.14995860710218
 21
71.232867107139725
  0
LINE
  8
_0-2_
  6
DASHED1
 62
    7
 10
197.34995860710217
 20
71.232867107139725
 11
197.34995860710217
 21
71.332867107139691
  0
LINE
  8
_0-2_
  6
DASHED1
 62
    7
 10
195.74995860710214
 20
70.832867107139691
 11
195.74995860710214
 21
69.232867107139725
  0
LINE
  8
_0-2_
  6
DASHED1
 62
    7
 10
201.29995860710216
 20
71.032867107139737
 11
201.29995860710216
 21
70.932867107139714
  0
LINE
  8
_0-2_
  6
DASHED1
 62
    7
 10
200.39995860710218
 20
70.932867107139714
 11
200.39995860710218
 21
71.032867107139737
  0
LINE
  8
_0-2_
  6
DASHED1
 62
    7
 10
201.54995860710216
 20
71.032867107139737
 11
197.34995860710217
 21
71.032867107139737
  0
LINE
  8
_0-2_
  6
DASHED1
 62
    7
 10
201.29995860710216
 20
70.932867107139714
 11
200.39995860710218
 21
70.932867107139714
  0
LINE
  8
_0-2_
  6
DASHED1
 62
    7
 10
198.49995860710214
 20
71.032867107139737
 11
198.49995860710214
 21
70.932867107139714
  0
LINE
  8
_0-2_
  6
DASHED1
 62
    7
 10
197.59995860710217
 20
70.932867107139714
 11
197.59995860710217
 21
71.032867107139737
  0
LINE
  8
_0-2_
  6
DASHED1
 62
    7
 10
198.49995860710214
 20
70.932867107139714
 11
197.59995860710217
 21
70.932867107139714
  0
LINE
  8
_0-2_
  6
DASHED1
 62
    7
 10
196.63552706704121
 20
71.432867107139714
 11
196.63552706704121
 21
71.332867107139691
  0
LINE
  8
_0-2_
  6
DASHED1
 62
    7
 10
195.73552706704118
 20
71.332867107139691
 11
195.73552706704118
 21
71.432867107139714
  0
LINE
  8
_0-2_
  6
DASHED1
 62
    7
 10
196.63552706704121
 20
71.332867107139691
 11
195.73552706704118
 21
71.332867107139691
  0
ARC
  8
_0-2_
  6
DASHED1
 62
    7
 10
201.14995860710218
 20
76.432867107139714
 40
0.3499999999999999
 50
180
 51
0
  0
ARC
  8
_0-2_
  6
DASHED1
 62
    7
 10
201.14995860710218
 20
76.432867107139714
 40
0.3499999999999999
 50
0
 51
180
  0
ARC
  8
_0-2_
  6
DASHED1
 62
    7
 10
200.84995860710217
 20
71.895367107139691
 40
1.0625
 50
244.94238458169698
 51
295.05761541830304
  0
ARC
  8
_0-2_
  6
DASHED1
 62
    7
 10
198.04995860710216
 20
71.895367107139691
 40
1.0625
 50
244.94238458169698
 51
295.05761541830304
  0
ARC
  8
_0-2_
  6
DASHED1
 62
    7
 10
196.18552706704122
 20
72.295367107139725
 40
1.0625
 50
244.94238458169698
 51
295.05761541830304
  0
CIRCLE
  8
_0-2_
  6
DASHED1
 62
    7
 10
196.94995860710219
 20
70.032867107139737
 40
0.3499999999999999
  0
ARC
  8
_0-2_
  6
DASHED1
 62
    7
 10
195.48962328903417
 20
71.632867107139703
 40
0.2
 50
270
 51
0
  0
ARC
  8
_0-2_
  6
DASHED1
 62
    7
 10
195.48962328903417
 20
74.832867107139691
 40
0.2
 50
0
 51
90
  0
ARC
  8
_0-2_
  6
DASHED1
 62
    7
 10
201.65251624088341
 20
71.632867107139703
 40
0.2
 50
270
 51
0
  0
ARC
  8
_0-2_
  6
DASHED1
 62
    7
 10
201.65251624088341
 20
74.832867107139691
 40
0.2
 50
0
 51
90
  0
ARC
  8
_0-2_
  6
DASHED1
 62
    7
 10
196.14995860710218
 20
77.232867107139725
 40
0.4
 50
90
 51
180
  0
ARC
  8
_0-2_
  6
DASHED1
 62
    7
 10
196.14995860710218
 20
69.232867107139725
 40
0.4
 50
180
 51
270
  0
ARC
  8
_0-2_
  6
DASHED1
 62
    7
 10
200.85204983451285
 20
76.632867107139703
 40
1
 50
56.821488340607381
 51
90
  0
ARC
  8
_0-2_
  6
DASHED1
 62
    7
 10
202.74995860710214
 20
75.391926755831321
 40
0.9999999999999944
 50
0
 51
56.821488340607196
  0
ARC
  8
_0-2_
  6
DASHED1
 62
    7
 10
202.74995860710214
 20
71.073807458448073
 40
1
 50
303.1785116593926
 51
0.0000000000000127
  0
ARC
  8
_0-2_
  6
DASHED1
 62
    7
 10
200.85204983451285
 20
69.832867107139691
 40
1.0000000000000002
 50
270
 51
303.17851165939248
  0
ARC
  8
_0-2_
  6
DASHED1
 62
    7
 10
197.54995860710216
 20
76.432867107139714
 40
0.4
 50
0
 51
90
  0
ARC
  8
_0-2_
  6
DASHED1
 62
    7
 10
197.54995860710216
 20
76.432867107139714
 40
0.4
 50
270
 51
0
  0
ARC
  8
_0-2_
  6
DASHED1
 62
    7
 10
196.94995860710219
 20
76.432867107139714
 40
0.4
 50
90
 51
180
  0
ARC
  8
_0-2_
  6
DASHED1
 62
    7
 10
196.94995860710219
 20
76.432867107139714
 40
0.4
 50
180
 51
270
  0
ARC
  8
_0-2_
  6
DASHED1
 62
    7
 10
201.14995860710218
 20
70.032867107139737
 40
0.4
 50
0
 51
90
  0
ARC
  8
_0-2_
  6
DASHED1
 62
    7
 10
201.14995860710218
 20
70.032867107139737
 40
0.4
 50
270
 51
0
  0
ARC
  8
_0-2_
  6
DASHED1
 62
    7
 10
200.54995860710216
 20
70.032867107139737
 40
0.4
 50
90
 51
180
  0
ARC
  8
_0-2_
  6
DASHED1
 62
    7
 10
200.54995860710216
 20
70.032867107139737
 40
0.4000000000000018
 50
180
 51
270
  0
ARC
  8
_0-2_
  6
DASHED1
 62
    7
 10
196.14995860710218
 20
75.632867107139703
 40
0.4
 50
180
 51
270
  0
ARC
  8
_0-2_
  6
DASHED1
 62
    7
 10
196.14995860710218
 20
70.832867107139691
 40
0.4
 50
90
 51
180
  0
LINE
  8
_0-2_
  6
DASHED1
 62
    7
 10
195.56283781051195
 20
74.332867107139691
 11
195.48962328903417
 21
74.332867107139691
  0
LINE
  8
_0-2_
  6
DASHED1
 62
    7
 10
195.56283781051195
 20
72.132867107139703
 11
195.48962328903417
 21
72.132867107139703
  0
LINE
  8
_0-2_
  6
DASHED1
 62
    7
 10
226.24959372822343
 20
51.232884919295088
 11
226.24959372822343
 21
172.43288491929508
  0
LINE
  8
_0-2_
  6
DASHED1
 62
    7
 10
226.24959372822343
 20
172.43288491929508
 11
195.54955149849371
 21
172.43288491929508
  0
LINE
  8
_0-2_
  6
DASHED1
 62
    7
 10
195.48959372822344
 20
51.232884919295088
 11
226.24959372822343
 21
51.232884919295088
  0
LINE
  8
_0-2_
  6
CONTINUOUS
 62
    7
 10
195.48959042902578
 20
175.93287983853077
 11
195.48959042902578
 21
47.732878766291492
  0
LINE
  8
_0-2_
  6
CONTINUOUS
 62
    7
 10
226.48959372822344
 20
172.67288491929509
 11
195.48959042902578
 21
172.67288491929509
  0
LINE
  8
_0-2_
  6
CONTINUOUS
 62
    7
 10
226.48959372822344
 20
50.992879871522746
 11
226.48959372822344
 21
172.67288491929509
  0
LINE
  8
_0-1_
  6
CONTINUOUS
 62
    7
 10
194.84959969977115
 20
188.77256161800756
 11
226.48959372822344
 21
188.77256161800756
  0
POINT
  8
_0-1_
 62
    7
 10
194.84959969977115
 20
188.77256161800756
  0
POINT
  8
_0-1_
 62
    7
 10
226.48959372822344
 20
188.77256161800756
  0
LINE
  8
_0-1_
  6
CONTINUOUS
 62
    7
 10
194.84959969977115
 20
188.77256161800756
 11
194.84959969977115
 21
179.48423012327459
  0
LINE
  8
_0-1_
  6
CONTINUOUS
 62
    7
 10
226.48959372822344
 20
188.77256161800756
 11
226.48959372822344
 21
179.48423012327459
  0
TEXT
  8
_0-1_
 62
    7
 10
204.41959671399729
 20
188.77256161800756
 40
5
 41
1
 50
0
  1
158.2
  0
LINE
  8
_0-1_
  6
CONTINUOUS
 62
    7
 10
186.77739823163927
 20
176.83288033341034
 11
186.77739823163927
 21
46.832878271411857
  0
POINT
  8
_0-1_
 62
    7
 10
186.77739823163927
 20
176.83288033341034
  0
POINT
  8
_0-1_
 62
    7
 10
186.77739823163927
 20
46.832878271411857
  0
LINE
  8
_0-1_
  6
CONTINUOUS
 62
    7
 10
186.77739823163927
 20
176.83288033341034
 11
193.01885832943094
 21
176.83288033341034
  0
LINE
  8
_0-1_
  6
CONTINUOUS
 62
    7
 10
186.77739823163927
 20
46.832878271411857
 11
193.01885832943094
 21
46.832878271411857
  0
LINE
  8
_0-1_
  6
CONTINUOUS
 62
    7
 10
75.77560609568323
 20
255.22836092752988
 11
75.77560609568323
 21
224.22835762833228
  0
POINT
  8
_0-1_
 62
    7
 10
75.77560609568323
 20
255.22836092752988
  0
POINT
  8
_0-1_
 62
    7
 10
75.77560609568323
 20
224.22835762833228
  0
LINE
  8
_0-1_
  6
CONTINUOUS
 62
    7
 10
75.77560609568323
 20
224.22835762833228
 11
75.77560609568323
 21
223.98836574435848
  0
POINT
  8
_0-1_
 62
    7
 10
75.77560609568323
 20
223.98836574435848
  0
LINE
  8
_0-1_
  6
CONTINUOUS
 62
    7
 10
75.77560609568323
 20
223.98836574435848
 11
75.77560609568323
 21
223.58835452708649
  0
POINT
  8
_0-1_
 62
    7
 10
75.77560609568323
 20
223.58835452708649
  0
TEXT
  8
_0-1_
 62
    7
 10
75.574602610841254
 20
238.71202912810975
 40
5
 41
1
 50
90
  1
155
  0
TEXT
  8
_0-1_
 62
    7
 10
81.029966793170644
 20
224.19357859001821
 40
5
 41
1
 50
90
  1
1.2
  0
TEXT
  8
_0-1_
 62
    7
 10
81.029966793170644
 20
220.83152534028193
 40
5
 41
1
 50
90
  1
2
  0
LINE
  8
_0-1_
  6
CONTINUOUS
 62
    7
 10
75.77560609568323
 20
176.83288033341034
 11
75.77560609568323
 21
175.93287983853077
  0
POINT
  8
_0-1_
 62
    7
 10
75.77560609568323
 20
176.83288033341034
  0
POINT
  8
_0-1_
 62
    7
 10
75.77560609568323
 20
175.93287983853077
  0
LINE
  8
_0-1_
  6
CONTINUOUS
 62
    7
 10
75.77560609568323
 20
175.93287983853077
 11
75.77560609568323
 21
172.43288066333014
  0
POINT
  8
_0-1_
 62
    7
 10
75.77560609568323
 20
172.43288066333014
  0
LINE
  8
_0-1_
  6
CONTINUOUS
 62
    7
 10
75.77560609568323
 20
172.43288066333014
 11
75.77560609568323
 21
51.23287794149212
  0
POINT
  8
_0-1_
 62
    7
 10
75.77560609568323
 20
51.23287794149212
  0
LINE
  8
_0-1_
  6
CONTINUOUS
 62
    7
 10
75.77560609568323
 20
51.23287794149212
 11
75.77560609568323
 21
47.732878766291492
  0
POINT
  8
_0-1_
 62
    7
 10
75.77560609568323
 20
47.732878766291492
  0
LINE
  8
_0-1_
  6
CONTINUOUS
 62
    7
 10
75.77560609568323
 20
47.732878766291492
 11
75.77560609568323
 21
46.832878271411857
  0
POINT
  8
_0-1_
 62
    7
 10
75.77560609568323
 20
46.832878271411857
  0
TEXT
  8
_0-1_
 62
    7
 10
75.77560609568323
 20
105.58287930241113
 40
5
 41
1
 50
90
  1
606
  0
LINE
  8
_0-1_
  6
CONTINUOUS
 62
    7
 10
75.77560609568323
 20
223.58835452708649
 11
85.521839230146981
 21
223.58835452708649
  0
LINE
  8
_0-1_
  6
CONTINUOUS
 62
    7
 10
75.77560609568323
 20
223.98836574435848
 11
85.521839230146981
 21
223.98836574435848
  0
LINE
  8
_0-1_
  6
CONTINUOUS
 62
    7
 10
75.77560609568323
 20
224.22835762833228
 11
85.521839230146981
 21
224.22835762833228
  0
LINE
  8
_0-1_
  6
CONTINUOUS
 62
    7
 10
75.77560609568323
 20
255.22836092752988
 11
85.521839230146981
 21
255.22836092752988
  0
LINE
  8
_0-1_
  6
CONTINUOUS
 62
    7
 10
75.77560609568323
 20
176.83288033341034
 11
85.521839230146981
 21
176.83288033341034
  0
LINE
  8
_0-1_
  6
CONTINUOUS
 62
    7
 10
75.77560609568323
 20
175.93287983853077
 11
85.521839230146981
 21
175.93287983853077
  0
LINE
  8
_0-1_
  6
CONTINUOUS
 62
    7
 10
75.77560609568323
 20
172.43288066333014
 11
85.521839230146981
 21
172.43288066333014
  0
LINE
  8
_0-1_
  6
CONTINUOUS
 62
    7
 10
75.77560609568323
 20
51.23287794149212
 11
85.521839230146981
 21
51.23287794149212
  0
LINE
  8
_0-1_
  6
CONTINUOUS
 62
    7
 10
75.77560609568323
 20
47.732878766291492
 11
85.521839230146981
 21
47.732878766291492
  0
LINE
  8
_0-1_
  6
CONTINUOUS
 62
    7
 10
75.77560609568323
 20
46.832878271411857
 11
85.521839230146981
 21
46.832878271411857
  0
TEXT
  8
_0-1_
 62
    7
 10
75.939066963289321
 20
174.27316245238796
 40
5
 41
1
 50
90
  1
4.5
  0
TEXT
  8
_0-1_
 62
    7
 10
81.100249289226014
 20
161.9399475436561
 40
5
 41
1
 50
90
  1
17.5
  0
TEXT
  8
_0-1_
 62
    7
 10
81.179644530877198
 20
51.814284125789186
 40
5
 41
1
 50
90
  1
17.5
  0
TEXT
  8
_0-1_
 62
    7
 10
75.428740482150175
 20
40.213322510253704
 40
5
 41
1
 50
90
  1
4.5
  0
TEXT
  8
_0-1_
 62
    7
 10
186.80133293522414
 20
110.92492280429633
 40
5
 41
1
 50
90
  1
650
  0
LINE
  8
_0-1_
  6
CONTINUOUS
 62
    7
 10
237.02019782470865
 20
172.67288491929509
 11
237.02019782470865
 21
152.87288491929507
  0
POINT
  8
_0-1_
 62
    7
 10
237.02019782470865
 20
172.67288491929509
  0
POINT
  8
_0-1_
 62
    7
 10
237.02019782470865
 20
152.87288491929507
  0
LINE
  8
_0-1_
  6
CONTINUOUS
 62
    7
 10
237.02019782470865
 20
172.67288491929509
 11
229.2979084266903
 21
172.67288491929509
  0
LINE
  8
_0-1_
  6
CONTINUOUS
 62
    7
 10
237.02019782470865
 20
152.87288491929507
 11
229.2979084266903
 21
152.87288491929507
  0
LINE
  8
_0-1_
  6
CONTINUOUS
 62
    7
 10
237.02019782470865
 20
152.87288491929507
 11
237.02019782470865
 21
73.7928798715227
  0
POINT
  8
_0-1_
 62
    7
 10
237.02019782470865
 20
73.7928798715227
  0
LINE
  8
_0-1_
  6
CONTINUOUS
 62
    7
 10
237.02019782470865
 20
73.7928798715227
 11
229.2979084266903
 21
73.7928798715227
  0
LINE
  8
_0-1_
  6
CONTINUOUS
 62
    7
 10
237.02019782470865
 20
73.7928798715227
 11
237.02019782470865
 21
50.992879871522746
  0
POINT
  8
_0-1_
 62
    7
 10
237.02019782470865
 20
50.992879871522746
  0
LINE
  8
_0-1_
  6
CONTINUOUS
 62
    7
 10
237.02019782470865
 20
50.992879871522746
 11
229.2979084266903
 21
50.992879871522746
  0
LINE
  8
_0-1_
  6
CONTINUOUS
 62
    7
 10
246.02650425405085
 20
176.83288033341034
 11
246.02650425405085
 21
175.93287983853077
  0
POINT
  8
_0-1_
 62
    7
 10
246.02650425405085
 20
176.83288033341034
  0
POINT
  8
_0-1_
 62
    7
 10
246.02650425405085
 20
175.93287983853077
  0
LINE
  8
_0-1_
  6
CONTINUOUS
 62
    7
 10
246.02650425405085
 20
176.83288033341034
 11
229.2979084266903
 21
176.83288033341034
  0
LINE
  8
_0-1_
  6
CONTINUOUS
 62
    7
 10
246.02650425405085
 20
175.93287983853077
 11
229.2979084266903
 21
175.93287983853077
  0
LINE
  8
_0-1_
  6
CONTINUOUS
 62
    7
 10
246.02650425405085
 20
175.93287983853077
 11
246.02650425405085
 21
172.67288491929509
  0
POINT
  8
_0-1_
 62
    7
 10
246.02650425405085
 20
172.67288491929509
  0
LINE
  8
_0-1_
  6
CONTINUOUS
 62
    7
 10
246.02650425405085
 20
172.67288491929509
 11
229.2979084266903
 21
172.67288491929509
  0
LINE
  8
_0-1_
  6
CONTINUOUS
 62
    7
 10
246.02650425405085
 20
172.67288491929509
 11
246.02650425405085
 21
50.992879871522746
  0
POINT
  8
_0-1_
 62
    7
 10
246.02650425405085
 20
50.992879871522746
  0
LINE
  8
_0-1_
  6
CONTINUOUS
 62
    7
 10
246.02650425405085
 20
50.992879871522746
 11
229.2979084266903
 21
50.992879871522746
  0
LINE
  8
_0-1_
  6
CONTINUOUS
 62
    7
 10
246.02650425405085
 20
50.992879871522746
 11
246.02650425405085
 21
47.732878766291492
  0
POINT
  8
_0-1_
 62
    7
 10
246.02650425405085
 20
47.732878766291492
  0
LINE
  8
_0-1_
  6
CONTINUOUS
 62
    7
 10
246.02650425405085
 20
47.732878766291492
 11
229.2979084266903
 21
47.732878766291492
  0
LINE
  8
_0-1_
  6
CONTINUOUS
 62
    7
 10
246.02650425405085
 20
47.732878766291492
 11
246.02650425405085
 21
46.832878271411857
  0
POINT
  8
_0-1_
 62
    7
 10
246.02650425405085
 20
46.832878271411857
  0
LINE
  8
_0-1_
  6
CONTINUOUS
 62
    7
 10
246.02650425405085
 20
46.832878271411857
 11
229.2979084266903
 21
46.832878271411857
  0
TEXT
  8
_0-1_
 62
    7
 10
237.02019782470865
 20
157.77288491929505
 40
5
 41
1
 50
90
  1
99
  0
TEXT
  8
_0-1_
 62
    7
 10
237.02019782470865
 20
107.08288239540889
 40
5
 41
1
 50
90
  1
395.4
  0
TEXT
  8
_0-1_
 62
    7
 10
237.02019782470865
 20
57.392879871522723
 40
5
 41
1
 50
90
  1
114
  0
TEXT
  8
_0-1_
 62
    7
 10
245.70298885443941
 20
51.705552778976312
 40
5
 41
1
 50
90
  1
16.3
  0
TEXT
  8
_0-1_
 62
    7
 10
251.28345041052881
 20
40.290972323338792
 40
5
 41
1
 50
90
  1
4.5
  0
TEXT
  8
_0-1_
 62
    7
 10
246.02650425405085
 20
104.33288239540889
 40
5
 41
1
 50
90
  1
608.4
  0
TEXT
  8
_0-1_
 62
    7
 10
246.2054844899265
 20
177.25849016605162
 40
5
 41
1
 50
90
  1
4.5
  0
TEXT
  8
_0-1_
 62
    7
 10
245.40639814369416
 20
162.07584958763778
 40
5
 41
1
 50
90
  1
16.3
  0
TEXT
  8
_0-1_
 62
    7
 10
144.24079639738977
 20
258.44381407020171
 40
5
 41
1
 50
0
  1
2.5
  0
TEXT
  8
_0-1_
 62
    7
 10
77.995218644662685
 20
258.57219697282324
 40
5
 41
1
 50
0
  1
2.5
  0
TEXT
  8
_0-1_
 62
    7
 10
109.96256139743217
 20
214.15171266576209
 40
5
 41
1
 50
0
  1
280
  0
TEXT
  8
_0-f_
 62
    7
 10
379.27973956818602
 20
31.505999120606077
 40
2.5
 41
1
 50
0
  1
2020.02.15
  0
LINE
  8
_0-0_
  6
CONTINUOUS
 62
    7
 10
113.0390968911547
 20
166.1223480742118
 11
112.98620311111777
 21
166.06693554274466
  0
LINE
  8
_0-0_
  6
CONTINUOUS
 62
    7
 10
104.75365841178369
 20
171.44209904823896
 11
104.93472734480581
 21
171.74819176834774
  0
LINE
  8
_0-0_
  6
CONTINUOUS
 62
    7
 10
98.545418524650913
 20
168.99461902691337
 11
98.497310724941983
 21
168.93891525882941
  0
LINE
  8
_0-0_
  6
CONTINUOUS
 62
    7
 10
96.803518546363691
 20
172.47953585487164
 11
95.518837444413847
 21
172.47953585487164
  0
LINE
  8
_0-0_
  6
CONTINUOUS
 62
    7
 10
94.280311154937792
 20
173.82961484711319
 11
94.001360484529513
 21
173.40778700405673
  0
LINE
  8
_0-0_
  6
CONTINUOUS
 62
    7
 10
94.001360484529513
 20
173.40778700405673
 11
94.307525854489811
 21
173.25130248163259
  0
LINE
  8
_0-0_
  6
CONTINUOUS
 62
    7
 10
94.947071293962424
 20
172.79545626413613
 11
95.273647688586763
 21
173.23089145696855
  0
LINE
  8
_0-0_
  6
CONTINUOUS
 62
    7
 10
95.273647688586763
 20
173.23089145696855
 11
94.967482318626466
 21
173.45541272827279
  0
LINE
  8
_0-0_
  6
CONTINUOUS
 62
    7
 10
94.967482318626466
 20
173.45541272827279
 11
94.736157372434249
 21
173.59148622603294
  0
LINE
  8
_0-0_
  6
CONTINUOUS
 62
    7
 10
94.736157372434249
 20
173.59148622603294
 11
94.55926182534607
 21
173.68673767446501
  0
LINE
  8
_0-0_
  6
CONTINUOUS
 62
    7
 10
94.55926182534607
 20
173.68673767446501
 11
94.280311154937792
 21
173.82961484711319
  0
LINE
  8
_0-0_
  6
CONTINUOUS
 62
    7
 10
94.307525854489811
 20
173.25130248163259
 11
94.555408957769018
 21
173.09533779054823
  0
LINE
  8
_0-0_
  6
CONTINUOUS
 62
    7
 10
94.555408957769018
 20
173.09533779054823
 11
94.818000230131972
 21
172.90277085748204
  0
LINE
  8
_0-0_
  6
CONTINUOUS
 62
    7
 10
94.818000230131972
 20
172.90277085748204
 11
94.947071293962424
 21
172.79545626413613
  0
LINE
  8
_0-0_
  6
CONTINUOUS
 62
    7
 10
94.033884988073837
 20
172.42596805009725
 11
93.784865848889169
 21
171.96445257880833
  0
LINE
  8
_0-0_
  6
CONTINUOUS
 62
    7
 10
93.784865848889169
 20
171.96445257880833
 11
94.037205243262903
 21
171.84492339199971
  0
LINE
  8
_0-0_
  6
CONTINUOUS
 62
    7
 10
94.037205243262903
 20
171.84492339199971
 11
94.286224382447571
 21
171.69883216367805
  0
LINE
  8
_0-0_
  6
CONTINUOUS
 62
    7
 10
94.286224382447571
 20
171.69883216367805
 11
94.462197907471406
 21
171.57266246649118
  0
LINE
  8
_0-0_
  6
CONTINUOUS
 62
    7
 10
94.462197907471406
 20
171.57266246649118
 11
94.691295515521276
 21
171.38340792071085
  0
LINE
  8
_0-0_
  6
CONTINUOUS
 62
    7
 10
94.691295515521276
 20
171.38340792071085
 11
94.98347797216455
 21
171.83828288162147
  0
LINE
  8
_0-0_
  6
CONTINUOUS
 62
    7
 10
94.98347797216455
 20
171.83828288162147
 11
94.737779088169063
 21
172.02753742740185
  0
LINE
  8
_0-0_
  6
CONTINUOUS
 62
    7
 10
94.737779088169063
 20
172.02753742740185
 11
94.548524542388733
 21
172.16034763496691
  0
LINE
  8
_0-0_
  6
CONTINUOUS
 62
    7
 10
94.548524542388733
 20
172.16034763496691
 11
94.339348465473606
 21
172.26991605620816
  0
LINE
  8
_0-0_
  6
CONTINUOUS
 62
    7
 10
94.339348465473606
 20
172.26991605620816
 11
94.033884988073837
 21
172.42596805009725
  0
LINE
  8
_0-0_
  6
CONTINUOUS
 62
    7
 10
94.806206190055534
 20
171.12228663789301
 11
95.236421727595243
 21
170.83362589012444
  0
LINE
  8
_0-0_
  6
CONTINUOUS
 62
    7
 10
95.236421727595243
 20
170.83362589012444
 11
95.128173947182049
 21
170.53386280590325
  0
LINE
  8
_0-0_
  6
CONTINUOUS
 62
    7
 10
95.128173947182049
 20
170.53386280590325
 11
95.025477334995159
 21
170.29516257217165
  0
LINE
  8
_0-0_
  6
CONTINUOUS
 62
    7
 10
95.025477334995159
 20
170.29516257217165
 11
94.903351634016119
 21
170.05091117021357
  0
LINE
  8
_0-0_
  6
CONTINUOUS
 62
    7
 10
94.903351634016119
 20
170.05091117021357
 11
94.764572428358221
 21
169.78167951123714
  0
LINE
  8
_0-0_
  6
CONTINUOUS
 62
    7
 10
94.764572428358221
 20
169.78167951123714
 11
94.58138387688966
 21
169.47081409056329
  0
LINE
  8
_0-0_
  6
CONTINUOUS
 62
    7
 10
94.58138387688966
 20
169.47081409056329
 11
94.370439484289577
 21
169.1599486698895
  0
LINE
  8
_0-0_
  6
CONTINUOUS
 62
    7
 10
94.370439484289577
 20
169.1599486698895
 11
94.115085745878943
 21
168.83798091276299
  0
LINE
  8
_0-0_
  6
CONTINUOUS
 62
    7
 10
94.115085745878943
 20
168.83798091276299
 11
93.794727203811348
 21
169.3251177550593
  0
LINE
  8
_0-0_
  6
CONTINUOUS
 62
    7
 10
93.794727203811348
 20
169.3251177550593
 11
94.039296706420529
 21
169.66491786045435
  0
LINE
  8
_0-0_
  6
CONTINUOUS
 62
    7
 10
94.039296706420529
 20
169.66491786045435
 11
94.221100584466271
 21
169.93762367752299
  0
LINE
  8
_0-0_
  6
CONTINUOUS
 62
    7
 10
94.221100584466271
 20
169.93762367752299
 11
94.368275152408089
 21
170.19734350330265
  0
LINE
  8
_0-0_
  6
CONTINUOUS
 62
    7
 10
94.368275152408089
 20
170.19734350330265
 11
94.502463729060921
 21
170.45273466531927
  0
LINE
  8
_0-0_
  6
CONTINUOUS
 62
    7
 10
94.502463729060921
 20
170.45273466531927
 11
94.617586730487957
 21
170.7018030600417
  0
LINE
  8
_0-0_
  6
CONTINUOUS
 62
    7
 10
94.617586730487957
 20
170.7018030600417
 11
94.806206190055534
 21
171.12228663789301
  0
LINE
  8
_0-0_
  6
CONTINUOUS
 62
    7
 10
95.386262143228905
 20
173.57586184379443
 11
95.845275762891944
 21
173.78450439818675
  0
LINE
  8
_0-0_
  6
CONTINUOUS
 62
    7
 10
95.845275762891944
 20
173.78450439818675
 11
96.089565048406982
 21
173.45571990163927
  0
LINE
  8
_0-0_
  6
CONTINUOUS
 62
    7
 10
96.089565048406982
 20
173.45571990163927
 11
96.243491678984455
 21
173.2012697572153
  0
LINE
  8
_0-0_
  6
CONTINUOUS
 62
    7
 10
96.243491678984455
 20
173.2012697572153
 11
96.435114627254379
 21
172.82116522048307
  0
LINE
  8
_0-0_
  6
CONTINUOUS
 62
    7
 10
96.435114627254379
 20
172.82116522048307
 11
96.488517743985355
 21
172.69236946836725
  0
LINE
  8
_0-0_
  6
CONTINUOUS
 62
    7
 10
96.488517743985355
 20
172.69236946836725
 11
96.004748333599011
 21
172.51959467894358
  0
LINE
  8
_0-0_
  6
CONTINUOUS
 62
    7
 10
96.004748333599011
 20
172.51959467894358
 11
95.910507539367913
 21
172.73320714586737
  0
LINE
  8
_0-0_
  6
CONTINUOUS
 62
    7
 10
95.910507539367913
 20
172.73320714586737
 11
95.76600498821351
 21
173.02535360798385
  0
LINE
  8
_0-0_
  6
CONTINUOUS
 62
    7
 10
95.76600498821351
 20
173.02535360798385
 11
95.630926516482234
 21
173.24524879452315
  0
LINE
  8
_0-0_
  6
CONTINUOUS
 62
    7
 10
95.630926516482234
 20
173.24524879452315
 11
95.486423965327887
 21
173.45257854183154
  0
LINE
  8
_0-0_
  6
CONTINUOUS
 62
    7
 10
95.486423965327887
 20
173.45257854183154
 11
95.386262143228905
 21
173.57586184379443
  0
LINE
  8
_0-0_
  6
CONTINUOUS
 62
    7
 10
98.280497622245534
 20
173.80729100838772
 11
98.765382391844511
 21
173.62431562363338
  0
LINE
  8
_0-0_
  6
CONTINUOUS
 62
    7
 10
98.765382391844511
 20
173.62431562363338
 11
98.64644839175422
 21
173.36815008497729
  0
LINE
  8
_0-0_
  6
CONTINUOUS
 62
    7
 10
98.64644839175422
 20
173.36815008497729
 11
98.518365622426174
 21
173.11655893094007
  0
LINE
  8
_0-0_
  6
CONTINUOUS
 62
    7
 10
98.518365622426174
 20
173.11655893094007
 11
98.349113391528405
 21
172.85581900766522
  0
LINE
  8
_0-0_
  6
CONTINUOUS
 62
    7
 10
98.349113391528405
 20
172.85581900766522
 11
98.091041002654819
 21
172.49496687809119
  0
LINE
  8
_0-0_
  6
CONTINUOUS
 62
    7
 10
98.091041002654819
 20
172.49496687809119
 11
97.632785319247191
 21
172.70972138655162
  0
LINE
  8
_0-0_
  6
CONTINUOUS
 62
    7
 10
97.632785319247191
 20
172.70972138655162
 11
97.90503316068127
 21
173.08173707049878
  0
LINE
  8
_0-0_
  6
CONTINUOUS
 62
    7
 10
97.90503316068127
 20
173.08173707049878
 11
98.075822179220651
 21
173.36243981384075
  0
LINE
  8
_0-0_
  6
CONTINUOUS
 62
    7
 10
98.075822179220651
 20
173.36243981384075
 11
98.209409629365254
 21
173.61777785145898
  0
LINE
  8
_0-0_
  6
CONTINUOUS
 62
    7
 10
98.209409629365254
 20
173.61777785145898
 11
98.280497622245534
 21
173.80729100838772
  0
LINE
  8
_0-0_
  6
CONTINUOUS
 62
    7
 10
97.30866052237603
 20
173.83288033341034
 11
97.30866052237603
 21
172.47953585487164
  0
LINE
  8
_0-0_
  6
CONTINUOUS
 62
    7
 10
97.30866052237603
 20
172.47953585487164
 11
98.613671269538301
 21
172.47953585487164
  0
LINE
  8
_0-0_
  6
CONTINUOUS
 62
    7
 10
98.613671269538301
 20
172.47953585487164
 11
98.613671269538301
 21
169.19741481811138
  0
LINE
  8
_0-0_
  6
CONTINUOUS
 62
    7
 10
98.613671269538301
 20
169.19741481811138
 11
98.593526324359786
 21
169.08070666849784
  0
LINE
  8
_0-0_
  6
CONTINUOUS
 62
    7
 10
98.593526324359786
 20
169.08070666849784
 11
98.545418524650913
 21
168.99461902691337
  0
LINE
  8
_0-0_
  6
CONTINUOUS
 62
    7
 10
98.497310724941983
 20
168.93891525882941
 11
98.421351041191016
 21
168.88574348020376
  0
LINE
  8
_0-0_
  6
CONTINUOUS
 62
    7
 10
98.421351041191016
 20
168.88574348020376
 11
98.330199420689937
 21
168.852827617245
  0
LINE
  8
_0-0_
  6
CONTINUOUS
 62
    7
 10
98.330199420689937
 20
168.852827617245
 11
98.269431673689198
 21
168.84776363832827
  0
LINE
  8
_0-0_
  6
CONTINUOUS
 62
    7
 10
98.269431673689198
 20
168.84776363832827
 11
97.299679711135624
 21
168.84776363832827
  0
LINE
  8
_0-0_
  6
CONTINUOUS
 62
    7
 10
97.299679711135624
 20
168.84776363832827
 11
97.217802568875285
 21
169.35199938169967
  0
LINE
  8
_0-0_
  6
CONTINUOUS
 62
    7
 10
97.217802568875285
 20
169.35199938169967
 11
98.052078870746456
 21
169.35199938169967
  0
LINE
  8
_0-0_
  6
CONTINUOUS
 62
    7
 10
98.052078870746456
 20
169.35199938169967
 11
98.070972223824626
 21
169.36002122680179
  0
LINE
  8
_0-0_
  6
CONTINUOUS
 62
    7
 10
98.070972223824626
 20
169.36002122680179
 11
98.086279236474965
 21
169.36920543439203
  0
LINE
  8
_0-0_
  6
CONTINUOUS
 62
    7
 10
98.086279236474965
 20
169.36920543439203
 11
98.100055547860265
 21
169.38451244704231
  0
LINE
  8
_0-0_
  6
CONTINUOUS
 62
    7
 10
98.100055547860265
 20
169.38451244704231
 11
98.106943703552915
 21
169.40211551159018
  0
LINE
  8
_0-0_
  6
CONTINUOUS
 62
    7
 10
98.106943703552915
 20
169.40211551159018
 11
98.110005106082937
 21
169.42890278372829
  0
LINE
  8
_0-0_
  6
CONTINUOUS
 62
    7
 10
98.110005106082937
 20
169.42890278372829
 11
98.110005106082937
 21
170.13247156136538
  0
LINE
  8
_0-0_
  6
CONTINUOUS
 62
    7
 10
98.110005106082937
 20
170.13247156136538
 11
96.025805703392663
 21
170.13247156136538
  0
LINE
  8
_0-0_
  6
CONTINUOUS
 62
    7
 10
96.025805703392663
 20
170.13247156136538
 11
96.025805703392663
 21
168.84582599398516
  0
LINE
  8
_0-0_
  6
CONTINUOUS
 62
    7
 10
96.025805703392663
 20
168.84582599398516
 11
95.518837444413847
 21
168.84582599398516
  0
LINE
  8
_0-0_
  6
CONTINUOUS
 62
    7
 10
95.518837444413847
 20
168.84582599398516
 11
95.518837444413847
 21
172.47953585487164
  0
LINE
  8
_0-0_
  6
CONTINUOUS
 62
    7
 10
96.803518546363691
 20
173.83288033341034
 11
97.30866052237603
 21
173.83288033341034
  0
LINE
  8
_0-0_
  6
CONTINUOUS
 62
    7
 10
96.803518546363691
 20
173.83288033341034
 11
96.803518546363691
 21
172.47953585487164
  0
LINE
  8
_0-0_
  6
CONTINUOUS
 62
    7
 10
98.169797404450932
 20
172.07369095996182
 11
98.169797404450932
 21
171.45000711140824
  0
LINE
  8
_0-0_
  6
CONTINUOUS
 62
    7
 10
98.169797404450932
 20
171.45000711140824
 11
95.951766816285087
 21
171.45000711140824
  0
LINE
  8
_0-0_
  6
CONTINUOUS
 62
    7
 10
95.951766816285087
 20
171.45000711140824
 11
95.951766816285087
 21
172.07369095996182
  0
LINE
  8
_0-0_
  6
CONTINUOUS
 62
    7
 10
95.951766816285087
 20
172.07369095996182
 11
98.169797404450932
 21
172.07369095996182
  0
LINE
  8
_0-0_
  6
CONTINUOUS
 62
    7
 10
95.951766816285087
 20
171.13781973793539
 11
98.169797404450932
 21
171.13781973793539
  0
LINE
  8
_0-0_
  6
CONTINUOUS
 62
    7
 10
95.951766816285087
 20
171.13781973793539
 11
95.951766816285087
 21
170.49931983397437
  0
LINE
  8
_0-0_
  6
CONTINUOUS
 62
    7
 10
95.951766816285087
 20
170.49931983397437
 11
98.169797404450932
 21
170.49931983397437
  0
LINE
  8
_0-0_
  6
CONTINUOUS
 62
    7
 10
98.169797404450932
 20
171.13781973793539
 11
98.169797404450932
 21
170.49931983397437
  0
LINE
  8
_0-0_
  6
CONTINUOUS
 62
    7
 10
101.32592719494833
 20
172.85858187143987
 11
101.81669708648012
 21
173.05903717924866
  0
LINE
  8
_0-0_
  6
CONTINUOUS
 62
    7
 10
102.10666994089114
 20
171.21536094137605
 11
102.63184576088456
 21
171.39803079180848
  0
LINE
  8
_0-0_
  6
CONTINUOUS
 62
    7
 10
101.32592719494833
 20
172.85858187143987
 11
101.45362522559508
 21
172.65845275979262
  0
LINE
  8
_0-0_
  6
CONTINUOUS
 62
    7
 10
101.45362522559508
 20
172.65845275979262
 11
101.58149412089777
 21
172.44381568553445
  0
LINE
  8
_0-0_
  6
CONTINUOUS
 62
    7
 10
101.58149412089777
 20
172.44381568553445
 11
101.71392976246135
 21
172.18351114866823
  0
LINE
  8
_0-0_
  6
CONTINUOUS
 62
    7
 10
101.71392976246135
 20
172.18351114866823
 11
101.82353167272082
 21
171.95060708936671
  0
LINE
  8
_0-0_
  6
CONTINUOUS
 62
    7
 10
101.82353167272082
 20
171.95060708936671
 11
101.91029985167624
 21
171.73597001510859
  0
LINE
  8
_0-0_
  6
CONTINUOUS
 62
    7
 10
101.91029985167624
 20
171.73597001510859
 11
101.98793453811003
 21
171.53046643337206
  0
LINE
  8
_0-0_
  6
CONTINUOUS
 62
    7
 10
101.98793453811003
 20
171.53046643337206
 11
102.10666994089114
 21
171.21536094137605
  0
LINE
  8
_0-0_
  6
CONTINUOUS
 62
    7
 10
102.63184576088456
 20
171.39803079180848
 11
102.45374265671289
 21
171.85927216415052
  0
LINE
  8
_0-0_
  6
CONTINUOUS
 62
    7
 10
102.45374265671289
 20
171.85927216415052
 11
102.31674026888849
 21
172.16067741736413
  0
LINE
  8
_0-0_
  6
CONTINUOUS
 62
    7
 10
102.31674026888849
 20
172.16067741736413
 11
102.15690414976011
 21
172.49404989440336
  0
LINE
  8
_0-0_
  6
CONTINUOUS
 62
    7
 10
102.15690414976011
 20
172.49404989440336
 11
101.99250128437085
 21
172.7908884013562
  0
LINE
  8
_0-0_
  6
CONTINUOUS
 62
    7
 10
101.99250128437085
 20
172.7908884013562
 11
101.81669708648012
 21
173.05903717924866
  0
LINE
  8
_0-0_
  6
CONTINUOUS
 62
    7
 10
105.50380113430388
 20
173.10620876601371
 11
106.05131909844225
 21
172.90358400763182
  0
LINE
  8
_0-0_
  6
CONTINUOUS
 62
    7
 10
106.05131909844225
 20
172.90358400763182
 11
105.93491764149944
 21
172.59318012245103
  0
LINE
  8
_0-0_
  6
CONTINUOUS
 62
    7
 10
105.93491764149944
 20
172.59318012245103
 11
105.83576084484444
 21
172.33451021813369
  0
LINE
  8
_0-0_
  6
CONTINUOUS
 62
    7
 10
105.83576084484444
 20
172.33451021813369
 11
105.73660404818951
 21
172.09739613917611
  0
LINE
  8
_0-0_
  6
CONTINUOUS
 62
    7
 10
105.73660404818951
 20
172.09739613917611
 11
105.59864676588693
 21
171.82148157457095
  0
LINE
  8
_0-0_
  6
CONTINUOUS
 62
    7
 10
105.59864676588693
 20
171.82148157457095
 11
105.45206715344044
 21
171.5541893401097
  0
LINE
  8
_0-0_
  6
CONTINUOUS
 62
    7
 10
105.45206715344044
 20
171.5541893401097
 11
105.21926423955487
 21
171.19636263913742
  0
LINE
  8
_0-0_
  6
CONTINUOUS
 62
    7
 10
105.21926423955487
 20
171.19636263913742
 11
104.75365841178369
 21
171.44209904823896
  0
LINE
  8
_0-0_
  6
CONTINUOUS
 62
    7
 10
104.93472734480581
 20
171.74819176834774
 11
105.11579627782793
 21
172.07584031381634
  0
LINE
  8
_0-0_
  6
CONTINUOUS
 62
    7
 10
105.11579627782793
 20
172.07584031381634
 11
105.24944239505855
 21
172.37331070378133
  0
LINE
  8
_0-0_
  6
CONTINUOUS
 62
    7
 10
105.24944239505855
 20
172.37331070378133
 11
105.34859919171355
 21
172.64491410331448
  0
LINE
  8
_0-0_
  6
CONTINUOUS
 62
    7
 10
105.34859919171355
 20
172.64491410331448
 11
105.43913365822458
 21
172.91651750284768
  0
LINE
  8
_0-0_
  6
CONTINUOUS
 62
    7
 10
105.43913365822458
 20
172.91651750284768
 11
105.50380113430388
 21
173.10620876601371
  0
LINE
  8
_0-0_
  6
CONTINUOUS
 62
    7
 10
103.40413647889726
 20
173.82768931145984
 11
103.94529282201431
 21
173.82768931145984
  0
LINE
  8
_0-0_
  6
CONTINUOUS
 62
    7
 10
103.40413647889726
 20
173.82768931145984
 11
103.40413647889726
 21
172.42970209174092
  0
LINE
  8
_0-0_
  6
CONTINUOUS
 62
    7
 10
103.94529282201431
 20
173.82768931145984
 11
103.94529282201431
 21
172.42970209174092
  0
LINE
  8
_0-0_
  6
CONTINUOUS
 62
    7
 10
103.40413647889726
 20
172.42970209174092
 11
103.3880290004867
 21
172.21112898715904
  0
LINE
  8
_0-0_
  6
CONTINUOUS
 62
    7
 10
103.3880290004867
 20
172.21112898715904
 11
103.36260684626897
 21
172.01930727806189
  0
LINE
  8
_0-0_
  6
CONTINUOUS
 62
    7
 10
103.36260684626897
 20
172.01930727806189
 11
103.3325624821935
 21
171.84135219853812
  0
LINE
  8
_0-0_
  6
CONTINUOUS
 62
    7
 10
103.3325624821935
 20
171.84135219853812
 11
103.28634038361592
 21
171.64259717465438
  0
LINE
  8
_0-0_
  6
CONTINUOUS
 62
    7
 10
103.28634038361592
 20
171.64259717465438
 11
103.23087386532278
 21
171.45077546555729
  0
LINE
  8
_0-0_
  6
CONTINUOUS
 62
    7
 10
103.23087386532278
 20
171.45077546555729
 11
103.1407407730964
 21
171.22428718252689
  0
LINE
  8
_0-0_
  6
CONTINUOUS
 62
    7
 10
103.1407407730964
 20
171.22428718252689
 11
103.04598547101232
 21
171.02322105371422
  0
LINE
  8
_0-0_
  6
CONTINUOUS
 62
    7
 10
103.04598547101232
 20
171.02322105371422
 11
102.90519503614256
 21
170.75155456444497
  0
LINE
  8
_0-0_
  6
CONTINUOUS
 62
    7
 10
102.90519503614256
 20
170.75155456444497
 11
102.80737037897312
 21
170.59330879549441
  0
LINE
  8
_0-0_
  6
CONTINUOUS
 62
    7
 10
102.80737037897312
 20
170.59330879549441
 11
102.68940535120997
 21
170.42930863494564
  0
LINE
  8
_0-0_
  6
CONTINUOUS
 62
    7
 10
102.68940535120997
 20
170.42930863494564
 11
102.56568593184862
 21
170.27681725759328
  0
LINE
  8
_0-0_
  6
CONTINUOUS
 62
    7
 10
102.56568593184862
 20
170.27681725759328
 11
102.44772090408547
 21
170.15309783823193
  0
LINE
  8
_0-0_
  6
CONTINUOUS
 62
    7
 10
102.44772090408547
 20
170.15309783823193
 11
102.30098391833131
 21
170.02362402727238
  0
LINE
  8
_0-0_
  6
CONTINUOUS
 62
    7
 10
102.30098391833131
 20
170.02362402727238
 11
102.18301889056816
 21
169.92867656590204
  0
LINE
  8
_0-0_
  6
CONTINUOUS
 62
    7
 10
102.18301889056816
 20
169.92867656590204
 11
102.04779068801041
 21
169.8337291045317
  0
LINE
  8
_0-0_
  6
CONTINUOUS
 62
    7
 10
102.04779068801041
 20
169.8337291045317
 11
101.85214137367153
 21
169.71288688096945
  0
LINE
  8
_0-0_
  6
CONTINUOUS
 62
    7
 10
101.85214137367153
 20
169.71288688096945
 11
101.56720847104098
 21
169.555003186097
  0
LINE
  8
_0-0_
  6
CONTINUOUS
 62
    7
 10
101.56720847104098
 20
169.555003186097
 11
101.2911011240639
 21
169.43522132233483
  0
LINE
  8
_0-0_
  6
CONTINUOUS
 62
    7
 10
101.2911011240639
 20
169.43522132233483
 11
101.13680584192961
 21
169.36619448559054
  0
LINE
  8
_0-0_
  6
CONTINUOUS
 62
    7
 10
101.13680584192961
 20
169.36619448559054
 11
101.45757761268241
 21
168.85661401433129
  0
LINE
  8
_0-0_
  6
CONTINUOUS
 62
    7
 10
101.45757761268241
 20
168.85661401433129
 11
101.76616817695098
 21
169.0048186932234
  0
LINE
  8
_0-0_
  6
CONTINUOUS
 62
    7
 10
101.76616817695098
 20
169.0048186932234
 11
102.08287954554235
 21
169.17738578508414
  0
LINE
  8
_0-0_
  6
CONTINUOUS
 62
    7
 10
102.08287954554235
 20
169.17738578508414
 11
102.3874097076495
 21
169.38649649639774
  0
LINE
  8
_0-0_
  6
CONTINUOUS
 62
    7
 10
102.3874097076495
 20
169.38649649639774
 11
102.6229130330123
 21
169.57733539798483
  0
LINE
  8
_0-0_
  6
CONTINUOUS
 62
    7
 10
102.6229130330123
 20
169.57733539798483
 11
102.84504896698978
 21
169.78825732239738
  0
LINE
  8
_0-0_
  6
CONTINUOUS
 62
    7
 10
102.84504896698978
 20
169.78825732239738
 11
103.00140638595211
 21
169.96198778791108
  0
LINE
  8
_0-0_
  6
CONTINUOUS
 62
    7
 10
103.00140638595211
 20
169.96198778791108
 11
103.13418609888042
 21
170.13323638963163
  0
LINE
  8
_0-0_
  6
CONTINUOUS
 62
    7
 10
103.13418609888042
 20
170.13323638963163
 11
103.27813419887751
 21
170.33550828876548
  0
LINE
  8
_0-0_
  6
CONTINUOUS
 62
    7
 10
103.27813419887751
 20
170.33550828876548
 11
103.45931025577032
 21
170.64822312669014
  0
LINE
  8
_0-0_
  6
CONTINUOUS
 62
    7
 10
103.45931025577032
 20
170.64822312669014
 11
103.58092158162991
 21
170.9386011904773
  0
LINE
  8
_0-0_
  6
CONTINUOUS
 62
    7
 10
103.58092158162991
 20
170.9386011904773
 11
103.65041376783539
 21
171.15452334047291
  0
LINE
  8
_0-0_
  6
CONTINUOUS
 62
    7
 10
103.65041376783539
 20
171.15452334047291
 11
103.67771426955896
 21
171.3083988956422
  0
LINE
  8
_0-0_
  6
CONTINUOUS
 62
    7
 10
103.67771426955896
 20
171.3083988956422
 11
103.69012358852426
 21
171.31088075943524
  0
LINE
  8
_0-0_
  6
CONTINUOUS
 62
    7
 10
103.69012358852426
 20
171.31088075943524
 11
103.70997849886867
 21
171.19671502495476
  0
LINE
  8
_0-0_
  6
CONTINUOUS
 62
    7
 10
103.70997849886867
 20
171.19671502495476
 11
103.76954322990194
 21
171.01305710426885
  0
LINE
  8
_0-0_
  6
CONTINUOUS
 62
    7
 10
103.76954322990194
 20
171.01305710426885
 11
103.82414423334909
 21
170.87655459565099
  0
LINE
  8
_0-0_
  6
CONTINUOUS
 62
    7
 10
103.82414423334909
 20
170.87655459565099
 11
103.92341878507118
 21
170.66559617324151
  0
LINE
  8
_0-0_
  6
CONTINUOUS
 62
    7
 10
103.92341878507118
 20
170.66559617324151
 11
104.01772960920719
 21
170.48442011634864
  0
LINE
  8
_0-0_
  6
CONTINUOUS
 62
    7
 10
104.01772960920719
 20
170.48442011634864
 11
104.14430466265286
 21
170.2883528766975
  0
LINE
  8
_0-0_
  6
CONTINUOUS
 62
    7
 10
104.14430466265286
 20
170.2883528766975
 11
104.26095226092637
 21
170.12951359394208
  0
LINE
  8
_0-0_
  6
CONTINUOUS
 62
    7
 10
104.26095226092637
 20
170.12951359394208
 11
104.3627086764415
 21
169.99549294911725
  0
LINE
  8
_0-0_
  6
CONTINUOUS
 62
    7
 10
104.3627086764415
 20
169.99549294911725
 11
104.46446509195668
 21
169.8763634870507
  0
LINE
  8
_0-0_
  6
CONTINUOUS
 62
    7
 10
104.46446509195668
 20
169.8763634870507
 11
104.72355494028538
 21
169.61350901386743
  0
LINE
  8
_0-0_
  6
CONTINUOUS
 62
    7
 10
104.72355494028538
 20
169.61350901386743
 11
104.93593555430662
 21
169.43099442369294
  0
LINE
  8
_0-0_
  6
CONTINUOUS
 62
    7
 10
104.93593555430662
 20
169.43099442369294
 11
105.18813753345681
 21
169.24516138642434
  0
LINE
  8
_0-0_
  6
CONTINUOUS
 62
    7
 10
105.18813753345681
 20
169.24516138642434
 11
105.4303841713248
 21
169.09583126719065
  0
LINE
  8
_0-0_
  6
CONTINUOUS
 62
    7
 10
105.4303841713248
 20
169.09583126719065
 11
105.70249683303949
 21
168.95313804214516
  0
LINE
  8
_0-0_
  6
CONTINUOUS
 62
    7
 10
105.70249683303949
 20
168.95313804214516
 11
105.89496676449623
 21
168.85690307641676
  0
LINE
  8
_0-0_
  6
CONTINUOUS
 62
    7
 10
105.89496676449623
 20
168.85690307641676
 11
106.23012992099846
 21
169.36794392890533
  0
LINE
  8
_0-0_
  6
CONTINUOUS
 62
    7
 10
106.23012992099846
 20
169.36794392890533
 11
105.98124638894232
 21
169.46749734172784
  0
LINE
  8
_0-0_
  6
CONTINUOUS
 62
    7
 10
105.98124638894232
 20
169.46749734172784
 11
105.69254149175724
 21
169.60687211967922
  0
LINE
  8
_0-0_
  6
CONTINUOUS
 62
    7
 10
105.69254149175724
 20
169.60687211967922
 11
105.43370261841885
 21
169.75952068600702
  0
LINE
  8
_0-0_
  6
CONTINUOUS
 62
    7
 10
105.43370261841885
 20
169.75952068600702
 11
105.18150063926866
 21
169.92876148780516
  0
LINE
  8
_0-0_
  6
CONTINUOUS
 62
    7
 10
105.18150063926866
 20
169.92876148780516
 11
105.01557828456457
 21
170.07145471285071
  0
LINE
  8
_0-0_
  6
CONTINUOUS
 62
    7
 10
105.01557828456457
 20
170.07145471285071
 11
104.85629282404862
 21
170.22410327917851
  0
LINE
  8
_0-0_
  6
CONTINUOUS
 62
    7
 10
104.85629282404862
 20
170.22410327917851
 11
104.67767727604569
 21
170.43047020657173
  0
LINE
  8
_0-0_
  6
CONTINUOUS
 62
    7
 10
104.67767727604569
 20
170.43047020657173
 11
104.50226119533947
 21
170.68237143735212
  0
LINE
  8
_0-0_
  6
CONTINUOUS
 62
    7
 10
104.50226119533947
 20
170.68237143735212
 11
104.35425738244946
 21
170.93663439795796
  0
LINE
  8
_0-0_
  6
CONTINUOUS
 62
    7
 10
104.35425738244946
 20
170.93663439795796
 11
104.23661332604972
 21
171.18330741944135
  0
LINE
  8
_0-0_
  6
CONTINUOUS
 62
    7
 10
104.23661332604972
 20
171.18330741944135
 11
104.12655920877255
 21
171.47552007566003
  0
LINE
  8
_0-0_
  6
CONTINUOUS
 62
    7
 10
104.12655920877255
 20
171.47552007566003
 11
104.04306987842436
 21
171.78670757968519
  0
LINE
  8
_0-0_
  6
CONTINUOUS
 62
    7
 10
104.04306987842436
 20
171.78670757968519
 11
103.96717048719869
 21
172.14343471844563
  0
LINE
  8
_0-0_
  6
CONTINUOUS
 62
    7
 10
103.96717048719869
 20
172.14343471844563
 11
103.95222779455121
 21
172.29974002725089
  0
LINE
  8
_0-0_
  6
CONTINUOUS
 62
    7
 10
103.95222779455121
 20
172.29974002725089
 11
103.94529282201431
 21
172.42970209174092
  0
LINE
  8
_0-0_
  6
CONTINUOUS
 62
    7
 10
108.87827112086505
 20
172.23096099090708
 11
110.61696817485277
 21
172.23096099090708
  0
LINE
  8
_0-0_
  6
CONTINUOUS
 62
    7
 10
108.87827112086505
 20
173.66756782315952
 11
108.87827112086505
 21
172.23096099090708
  0
LINE
  8
_0-0_
  6
CONTINUOUS
 62
    7
 10
108.87827112086505
 20
173.66756782315952
 11
110.76598426525486
 21
173.66756782315952
  0
LINE
  8
_0-0_
  6
CONTINUOUS
 62
    7
 10
110.76598426525486
 20
172.2336027092781
 11
110.73171325275983
 21
172.2336027092781
  0
LINE
  8
_0-0_
  6
CONTINUOUS
 62
    7
 10
110.73171325275983
 20
172.2336027092781
 11
110.73171325275983
 21
172.22041903417744
  0
LINE
  8
_0-0_
  6
CONTINUOUS
 62
    7
 10
110.73171325275983
 20
172.22041903417744
 11
111.15622759100249
 21
172.13340677851272
  0
LINE
  8
_0-0_
  6
CONTINUOUS
 62
    7
 10
110.61696817485277
 20
172.23096099090708
 11
110.61696817485277
 21
172.20459862405653
  0
LINE
  8
_0-0_
  6
CONTINUOUS
 62
    7
 10
110.61696817485277
 20
172.20459862405653
 11
110.39948464022216
 21
171.76953734573334
  0
LINE
  8
_0-0_
  6
CONTINUOUS
 62
    7
 10
110.76598426525486
 20
173.66756782315952
 11
110.76598426525486
 21
172.2336027092781
  0
LINE
  8
_0-0_
  6
CONTINUOUS
 62
    7
 10
109.25952919995432
 20
173.32439769851112
 11
109.25952919995432
 21
172.57244505625567
  0
LINE
  8
_0-0_
  6
CONTINUOUS
 62
    7
 10
109.25952919995432
 20
172.57244505625567
 11
110.39362170958553
 21
172.57244505625567
  0
LINE
  8
_0-0_
  6
CONTINUOUS
 62
    7
 10
109.25952919995432
 20
173.32439769851112
 11
110.39362170958553
 21
173.32439769851112
  0
LINE
  8
_0-0_
  6
CONTINUOUS
 62
    7
 10
110.39362170958553
 20
172.57244505625567
 11
110.39362170958553
 21
173.32439769851112
  0
LINE
  8
_0-0_
  6
CONTINUOUS
 62
    7
 10
111.28327850048963
 20
173.66304940126633
 11
111.28327850048963
 21
172.22223621276839
  0
LINE
  8
_0-0_
  6
CONTINUOUS
 62
    7
 10
111.28327850048963
 20
172.22223621276839
 11
113.21652151290463
 21
172.22223621276839
  0
LINE
  8
_0-0_
  6
CONTINUOUS
 62
    7
 10
111.28327850048963
 20
173.66304940126633
 11
113.21652151290463
 21
173.66304940126633
  0
LINE
  8
_0-0_
  6
CONTINUOUS
 62
    7
 10
113.21652151290463
 20
172.22223621276839
 11
113.21652151290463
 21
173.66304940126633
  0
LINE
  8
_0-0_
  6
CONTINUOUS
 62
    7
 10
111.67352862363656
 20
173.31437301949569
 11
111.67352862363656
 21
172.57365343885647
  0
LINE
  8
_0-0_
  6
CONTINUOUS
 62
    7
 10
111.67352862363656
 20
173.31437301949569
 11
112.83795199731632
 21
173.31437301949569
  0
LINE
  8
_0-0_
  6
CONTINUOUS
 62
    7
 10
111.67352862363656
 20
172.57365343885647
 11
112.83795199731632
 21
172.57365343885647
  0
LINE
  8
_0-0_
  6
CONTINUOUS
 62
    7
 10
112.83795199731632
 20
173.31437301949569
 11
112.83795199731632
 21
172.57365343885647
  0
LINE
  8
_0-0_
  6
CONTINUOUS
 62
    7
 10
110.39948464022216
 20
171.76953734573334
 11
108.57860866555733
 21
171.76953734573334
  0
LINE
  8
_0-0_
  6
CONTINUOUS
 62
    7
 10
108.57860866555733
 20
171.76953734573334
 11
108.57860866555733
 21
171.30054593368067
  0
LINE
  8
_0-0_
  6
CONTINUOUS
 62
    7
 10
108.57860866555733
 20
171.30054593368067
 11
109.97472995599342
 21
171.30054593368067
  0
LINE
  8
_0-0_
  6
CONTINUOUS
 62
    7
 10
109.97472995599342
 20
171.30054593368067
 11
109.97472995599342
 21
171.28993624947998
  0
LINE
  8
_0-0_
  6
CONTINUOUS
 62
    7
 10
109.97472995599342
 20
171.28993624947998
 11
109.74675767307365
 21
171.12708420968386
  0
LINE
  8
_0-0_
  6
CONTINUOUS
 62
    7
 10
109.74675767307365
 20
171.12708420968386
 11
109.57719008524457
 21
171.00620434509284
  0
LINE
  8
_0-0_
  6
CONTINUOUS
 62
    7
 10
109.57719008524457
 20
171.00620434509284
 11
109.40930138442376
 21
170.90379223759214
  0
LINE
  8
_0-0_
  6
CONTINUOUS
 62
    7
 10
109.40930138442376
 20
170.90379223759214
 11
109.10814678294922
 21
170.74555808026349
  0
LINE
  8
_0-0_
  6
CONTINUOUS
 62
    7
 10
109.10814678294922
 20
170.74555808026349
 11
108.85993560031999
 21
170.64043334409109
  0
LINE
  8
_0-0_
  6
CONTINUOUS
 62
    7
 10
108.85993560031999
 20
170.64043334409109
 11
108.53872112868213
 21
170.52362808167743
  0
LINE
  8
_0-0_
  6
CONTINUOUS
 62
    7
 10
108.53872112868213
 20
170.52362808167743
 11
108.74021020634591
 21
170.04180637422064
  0
LINE
  8
_0-0_
  6
CONTINUOUS
 62
    7
 10
108.74021020634591
 20
170.04180637422064
 11
108.93293888932861
 21
170.13817071571202
  0
LINE
  8
_0-0_
  6
CONTINUOUS
 62
    7
 10
108.93293888932861
 20
170.13817071571202
 11
108.93293888932861
 21
168.8328719082383
  0
LINE
  8
_0-0_
  6
CONTINUOUS
 62
    7
 10
108.93293888932861
 20
168.8328719082383
 11
109.39139954430253
 21
168.8328719082383
  0
LINE
  8
_0-0_
  6
CONTINUOUS
 62
    7
 10
109.39139954430253
 20
168.8328719082383
 11
109.39139954430253
 21
169.07816295930718
  0
LINE
  8
_0-0_
  6
CONTINUOUS
 62
    7
 10
109.39139954430253
 20
169.07816295930718
 11
110.36088322233671
 21
169.07816295930718
  0
LINE
  8
_0-0_
  6
CONTINUOUS
 62
    7
 10
110.36088322233671
 20
169.07816295930718
 11
110.36088322233671
 21
168.89711480256585
  0
LINE
  8
_0-0_
  6
CONTINUOUS
 62
    7
 10
110.36088322233671
 20
168.89711480256585
 11
110.81058348262961
 21
168.89711480256585
  0
LINE
  8
_0-0_
  6
CONTINUOUS
 62
    7
 10
110.81058348262961
 20
168.89711480256585
 11
110.81058348262961
 21
170.69007558061696
  0
LINE
  8
_0-0_
  6
CONTINUOUS
 62
    7
 10
110.81058348262961
 20
170.69007558061696
 11
109.95790506700926
 21
170.69007558061696
  0
LINE
  8
_0-0_
  6
CONTINUOUS
 62
    7
 10
109.95790506700926
 20
170.69007558061696
 11
110.2090363811988
 21
170.86528347423757
  0
LINE
  8
_0-0_
  6
CONTINUOUS
 62
    7
 10
110.2090363811988
 20
170.86528347423757
 11
110.38424427481947
 21
171.01129005225471
  0
LINE
  8
_0-0_
  6
CONTINUOUS
 62
    7
 10
110.38424427481947
 20
171.01129005225471
 11
110.56529243156074
 21
171.19817847211681
  0
LINE
  8
_0-0_
  6
CONTINUOUS
 62
    7
 10
110.56529243156074
 20
171.19817847211681
 11
110.65289637837104
 21
171.30330320828915
  0
LINE
  8
_0-0_
  6
CONTINUOUS
 62
    7
 10
110.65289637837104
 20
171.30330320828915
 11
111.43549163654318
 21
171.30330320828915
  0
LINE
  8
_0-0_
  6
CONTINUOUS
 62
    7
 10
111.43549163654318
 20
171.30330320828915
 11
111.69748977739327
 21
171.00945266610449
  0
LINE
  8
_0-0_
  6
CONTINUOUS
 62
    7
 10
111.69748977739327
 20
171.00945266610449
 11
111.97013163372849
 21
170.78924193598755
  0
LINE
  8
_0-0_
  6
CONTINUOUS
 62
    7
 10
111.97013163372849
 20
170.78924193598755
 11
112.13396417531622
 21
170.67957251512462
  0
LINE
  8
_0-0_
  6
CONTINUOUS
 62
    7
 10
112.13396417531622
 20
170.67957251512462
 11
111.23567170475222
 21
170.67957251512462
  0
LINE
  8
_0-0_
  6
CONTINUOUS
 62
    7
 10
111.23567170475222
 20
170.67957251512462
 11
111.23567170475222
 21
168.84916066087908
  0
LINE
  8
_0-0_
  6
CONTINUOUS
 62
    7
 10
111.69415095850984
 20
169.06403124008222
 11
111.69415095850984
 21
168.84916066087908
  0
LINE
  8
_0-0_
  6
CONTINUOUS
 62
    7
 10
111.23567170475222
 20
168.84916066087908
 11
111.69415095850984
 21
168.84916066087908
  0
LINE
  8
_0-0_
  6
CONTINUOUS
 62
    7
 10
111.69415095850984
 20
169.06403124008222
 11
112.71356151499263
 21
169.06403124008222
  0
LINE
  8
_0-0_
  6
CONTINUOUS
 62
    7
 10
112.71356151499263
 20
169.06403124008222
 11
112.71356151499263
 21
168.84916066087908
  0
LINE
  8
_0-0_
  6
CONTINUOUS
 62
    7
 10
112.71356151499263
 20
168.84916066087908
 11
113.1761709936075
 21
168.84916066087908
  0
LINE
  8
_0-0_
  6
CONTINUOUS
 62
    7
 10
113.1761709936075
 20
168.84916066087908
 11
113.1761709936075
 21
170.14600775404176
  0
LINE
  8
_0-0_
  6
CONTINUOUS
 62
    7
 10
113.1761709936075
 20
170.14600775404176
 11
113.36425783314523
 21
170.07247851788799
  0
LINE
  8
_0-0_
  6
CONTINUOUS
 62
    7
 10
113.36425783314523
 20
170.07247851788799
 11
113.622474956434
 21
170.52489199009653
  0
LINE
  8
_0-0_
  6
CONTINUOUS
 62
    7
 10
113.622474956434
 20
170.52489199009653
 11
113.27060047558494
 21
170.63521393124716
  0
LINE
  8
_0-0_
  6
CONTINUOUS
 62
    7
 10
113.27060047558494
 20
170.63521393124716
 11
112.99523921234338
 21
170.74786172075505
  0
LINE
  8
_0-0_
  6
CONTINUOUS
 62
    7
 10
112.99523921234338
 20
170.74786172075505
 11
112.71153366839751
 21
170.88554235237586
  0
LINE
  8
_0-0_
  6
CONTINUOUS
 62
    7
 10
112.71153366839751
 20
170.88554235237586
 11
112.49458237008592
 21
171.00653442258812
  0
LINE
  8
_0-0_
  6
CONTINUOUS
 62
    7
 10
112.49458237008592
 20
171.00653442258812
 11
112.32262924620163
 21
171.12427316088531
  0
LINE
  8
_0-0_
  6
CONTINUOUS
 62
    7
 10
112.32262924620163
 20
171.12427316088531
 11
112.18851602897182
 21
171.22635934116465
  0
LINE
  8
_0-0_
  6
CONTINUOUS
 62
    7
 10
112.18851602897182
 20
171.22635934116465
 11
112.10444505697699
 21
171.29842017430309
  0
LINE
  8
_0-0_
  6
CONTINUOUS
 62
    7
 10
112.10444505697699
 20
171.29842017430309
 11
113.53365158088864
 21
171.29842017430309
  0
LINE
  8
_0-0_
  6
CONTINUOUS
 62
    7
 10
113.53365158088864
 20
171.29842017430309
 11
113.53365158088864
 21
171.7728206591309
  0
LINE
  8
_0-0_
  6
CONTINUOUS
 62
    7
 10
111.15622759100249
 20
172.13340677851272
 11
110.97982574842722
 21
171.7728206591309
  0
LINE
  8
_0-0_
  6
CONTINUOUS
 62
    7
 10
113.53365158088864
 20
171.7728206591309
 11
110.97982574842722
 21
171.7728206591309
  0
LINE
  8
_0-0_
  6
CONTINUOUS
 62
    7
 10
110.42998137994316
 20
170.35100277204003
 11
110.42998137994316
 21
169.43675354535367
  0
LINE
  8
_0-0_
  6
CONTINUOUS
 62
    7
 10
110.42998137994316
 20
169.43675354535367
 11
109.31875975888936
 21
169.43675354535367
  0
LINE
  8
_0-0_
  6
CONTINUOUS
 62
    7
 10
109.31875975888936
 20
169.43675354535367
 11
109.31875975888936
 21
170.35100277204003
  0
LINE
  8
_0-0_
  6
CONTINUOUS
 62
    7
 10
109.31875975888936
 20
170.35100277204003
 11
110.42998137994316
 21
170.35100277204003
  0
LINE
  8
_0-0_
  6
CONTINUOUS
 62
    7
 10
111.62110689682525
 20
169.44047000562466
 11
111.62110689682525
 21
170.35471923231108
  0
LINE
  8
_0-0_
  6
CONTINUOUS
 62
    7
 10
111.62110689682525
 20
170.35471923231108
 11
112.78823155914397
 21
170.35471923231108
  0
LINE
  8
_0-0_
  6
CONTINUOUS
 62
    7
 10
112.78823155914397
 20
170.35471923231108
 11
112.78823155914397
 21
169.44047000562466
  0
LINE
  8
_0-0_
  6
CONTINUOUS
 62
    7
 10
112.78823155914397
 20
169.44047000562466
 11
111.62110689682525
 21
169.44047000562466
  0
LINE
  8
_0-0_
  6
CONTINUOUS
 62
    7
 10
93.794727203811348
 20
166.63267885428127
 11
93.794727203811348
 21
164.73287190823828
  0
LINE
  8
_0-0_
  6
CONTINUOUS
 62
    7
 10
93.794727203811348
 20
164.73287190823828
 11
94.055398389431204
 21
164.73287190823828
  0
LINE
  8
_0-0_
  6
CONTINUOUS
 62
    7
 10
94.055398389431204
 20
164.73287190823828
 11
94.055398389431204
 21
165.53930770796859
  0
LINE
  8
_0-0_
  6
CONTINUOUS
 62
    7
 10
94.055398389431204
 20
165.53930770796859
 11
94.851051931096308
 21
165.53930770796859
  0
LINE
  8
_0-0_
  6
CONTINUOUS
 62
    7
 10
94.851051931096308
 20
165.53930770796859
 11
94.851051931096308
 21
165.815644376362
  0
LINE
  8
_0-0_
  6
CONTINUOUS
 62
    7
 10
93.794727203811348
 20
166.63267885428127
 11
94.901410554487299
 21
166.63267885428127
  0
LINE
  8
_0-0_
  6
CONTINUOUS
 62
    7
 10
94.901410554487299
 20
166.63267885428127
 11
94.901410554487299
 21
166.34765817605421
  0
LINE
  8
_0-0_
  6
CONTINUOUS
 62
    7
 10
94.851051931096308
 20
165.815644376362
 11
94.055398389431204
 21
165.815644376362
  0
LINE
  8
_0-0_
  6
CONTINUOUS
 62
    7
 10
94.055398389431204
 20
165.815644376362
 11
94.055398389431204
 21
166.34765817605421
  0
LINE
  8
_0-0_
  6
CONTINUOUS
 62
    7
 10
94.901410554487299
 20
166.34765817605421
 11
94.055398389431204
 21
166.34765817605421
  0
LINE
  8
_0-0_
  6
CONTINUOUS
 62
    7
 10
95.158733683796001
 20
166.63267885428127
 11
95.442949915451877
 21
166.63267885428127
  0
LINE
  8
_0-0_
  6
CONTINUOUS
 62
    7
 10
95.158733683796001
 20
166.63267885428127
 11
95.158733683796001
 21
166.32087173252512
  0
LINE
  8
_0-0_
  6
CONTINUOUS
 62
    7
 10
95.442949915451877
 20
166.32087173252512
 11
95.158733683796001
 21
166.32087173252512
  0
LINE
  8
_0-0_
  6
CONTINUOUS
 62
    7
 10
95.442949915451877
 20
166.63267885428127
 11
95.442949915451877
 21
166.32087173252512
  0
LINE
  8
_0-0_
  6
CONTINUOUS
 62
    7
 10
95.184015673131839
 20
164.73287190823828
 11
95.428597261785669
 21
164.73287190823828
  0
LINE
  8
_0-0_
  6
CONTINUOUS
 62
    7
 10
95.184015673131839
 20
166.15914418159753
 11
95.184015673131839
 21
164.73287190823828
  0
LINE
  8
_0-0_
  6
CONTINUOUS
 62
    7
 10
95.184015673131839
 20
166.15914418159753
 11
95.428597261785669
 21
166.15914418159753
  0
LINE
  8
_0-0_
  6
CONTINUOUS
 62
    7
 10
95.428597261785669
 20
166.15914418159753
 11
95.428597261785669
 21
164.73287190823828
  0
LINE
  8
_0-0_
  6
CONTINUOUS
 62
    7
 10
95.785243484504392
 20
166.16931935783043
 11
96.012477177891284
 21
166.16931935783043
  0
LINE
  8
_0-0_
  6
CONTINUOUS
 62
    7
 10
95.785243484504392
 20
164.73287190823828
 11
95.785243484504392
 21
166.16931935783043
  0
LINE
  8
_0-0_
  6
CONTINUOUS
 62
    7
 10
96.027882852019204
 20
164.73287190823828
 11
96.027882852019204
 21
165.67248636720495
  0
LINE
  8
_0-0_
  6
CONTINUOUS
 62
    7
 10
95.785243484504392
 20
164.73287190823828
 11
96.027882852019204
 21
164.73287190823828
  0
LINE
  8
_0-0_
  6
CONTINUOUS
 62
    7
 10
96.248389650158614
 20
166.19098008379831
 11
96.172131861729255
 21
166.17763497082308
  0
LINE
  8
_0-0_
  6
CONTINUOUS
 62
    7
 10
96.172131861729255
 20
166.17763497082308
 11
96.10921918627507
 21
166.15475763429436
  0
LINE
  8
_0-0_
  6
CONTINUOUS
 62
    7
 10
96.10921918627507
 20
166.15475763429436
 11
96.065370957928209
 21
166.1223480742118
  0
LINE
  8
_0-0_
  6
CONTINUOUS
 62
    7
 10
96.012477177891284
 20
166.16931935783043
 11
96.012477177891284
 21
166.06693554274466
  0
LINE
  8
_0-0_
  6
CONTINUOUS
 62
    7
 10
96.065370957928209
 20
166.1223480742118
 11
96.012477177891284
 21
166.06693554274466
  0
LINE
  8
_0-0_
  6
CONTINUOUS
 62
    7
 10
96.448566344785647
 20
166.19098008379831
 11
96.248389650158614
 21
166.19098008379831
  0
LINE
  8
_0-0_
  6
CONTINUOUS
 62
    7
 10
96.448566344785647
 20
165.91244900545769
 11
96.2614013822582
 21
165.91244900545769
  0
LINE
  8
_0-0_
  6
CONTINUOUS
 62
    7
 10
96.448566344785647
 20
166.19098008379831
 11
96.448566344785647
 21
165.91244900545769
  0
LINE
  8
_0-0_
  6
CONTINUOUS
 62
    7
 10
96.027882852019204
 20
165.67248636720495
 11
96.047375799110668
 21
165.73599174275626
  0
LINE
  8
_0-0_
  6
CONTINUOUS
 62
    7
 10
96.047375799110668
 20
165.73599174275626
 11
96.089497855368435
 21
165.80429777993106
  0
LINE
  8
_0-0_
  6
CONTINUOUS
 62
    7
 10
96.089497855368435
 20
165.80429777993106
 11
96.132758345579063
 21
165.8521120059533
  0
LINE
  8
_0-0_
  6
CONTINUOUS
 62
    7
 10
96.132758345579063
 20
165.8521120059533
 11
96.18854160927178
 21
165.88968032639946
  0
LINE
  8
_0-0_
  6
CONTINUOUS
 62
    7
 10
96.18854160927178
 20
165.88968032639946
 11
96.242048005058663
 21
165.90789526964602
  0
LINE
  8
_0-0_
  6
CONTINUOUS
 62
    7
 10
96.242048005058663
 20
165.90789526964602
 11
96.2614013822582
 21
165.91244900545769
  0
LINE
  8
_0-0_
  6
CONTINUOUS
 62
    7
 10
97.744603864257257
 20
165.23752283278321
 11
97.502170519880664
 21
165.23752283278321
  0
LINE
  8
_0-0_
  6
CONTINUOUS
 62
    7
 10
97.74603585395981
 20
165.353890838084
 11
97.74603585395981
 21
165.65207129035406
  0
LINE
  8
_0-0_
  6
CONTINUOUS
 62
    7
 10
97.74603585395981
 20
165.65207129035406
 11
97.738345779519804
 21
165.78119935066849
  0
LINE
  8
_0-0_
  6
CONTINUOUS
 62
    7
 10
97.738345779519804
 20
165.78119935066849
 11
97.714995993550573
 21
165.88009256183227
  0
LINE
  8
_0-0_
  6
CONTINUOUS
 62
    7
 10
97.714995993550573
 20
165.88009256183227
 11
97.664175871146981
 21
165.98860039074799
  0
LINE
  8
_0-0_
  6
CONTINUOUS
 62
    7
 10
97.664175871146981
 20
165.98860039074799
 11
97.584511895487296
 21
166.07787898415972
  0
LINE
  8
_0-0_
  6
CONTINUOUS
 62
    7
 10
97.584511895487296
 20
166.07787898415972
 11
97.506221436649341
 21
166.12732558974153
  0
LINE
  8
_0-0_
  6
CONTINUOUS
 62
    7
 10
97.506221436649341
 20
166.12732558974153
 11
97.430678011454845
 21
166.15891647664108
  0
LINE
  8
_0-0_
  6
CONTINUOUS
 62
    7
 10
97.430678011454845
 20
166.15891647664108
 11
97.340025901221438
 21
166.17814571214512
  0
LINE
  8
_0-0_
  6
CONTINUOUS
 62
    7
 10
97.340025901221438
 20
166.17814571214512
 11
97.204047735871299
 21
166.18638681307544
  0
LINE
  8
_0-0_
  6
CONTINUOUS
 62
    7
 10
97.204047735871299
 20
166.18638681307544
 11
97.099660457420654
 21
166.18501329625371
  0
LINE
  8
_0-0_
  6
CONTINUOUS
 62
    7
 10
97.099660457420654
 20
166.18501329625371
 11
97.004887796722116
 21
166.17265164485821
  0
LINE
  8
_0-0_
  6
CONTINUOUS
 62
    7
 10
97.004887796722116
 20
166.17265164485821
 11
96.915609203310382
 21
166.14792834206736
  0
LINE
  8
_0-0_
  6
CONTINUOUS
 62
    7
 10
96.915609203310382
 20
166.14792834206736
 11
96.812595441681466
 21
166.09298766919858
  0
LINE
  8
_0-0_
  6
CONTINUOUS
 62
    7
 10
96.812595441681466
 20
166.09298766919858
 11
96.749413667882479
 21
166.03117941222126
  0
LINE
  8
_0-0_
  6
CONTINUOUS
 62
    7
 10
96.749413667882479
 20
166.03117941222126
 11
96.697220028657156
 21
165.95288895338331
  0
LINE
  8
_0-0_
  6
CONTINUOUS
 62
    7
 10
96.697220028657156
 20
165.95288895338331
 11
96.657388040827286
 21
165.85674277586304
  0
LINE
  8
_0-0_
  6
CONTINUOUS
 62
    7
 10
96.657388040827286
 20
165.85674277586304
 11
96.634038254858112
 21
165.77570528338163
  0
LINE
  8
_0-0_
  6
CONTINUOUS
 62
    7
 10
96.634038254858112
 20
165.77570528338163
 11
96.625797153927792
 21
165.69054724043508
  0
LINE
  8
_0-0_
  6
CONTINUOUS
 62
    7
 10
96.625797153927792
 20
165.69054724043508
 11
96.622491461887918
 21
165.63273855057588
  0
LINE
  8
_0-0_
  6
CONTINUOUS
 62
    7
 10
96.622491461887918
 20
165.63273855057588
 11
96.626259737313305
 21
165.16672848963617
  0
LINE
  8
_0-0_
  6
CONTINUOUS
 62
    7
 10
96.626259737313305
 20
165.16672848963617
 11
96.642104066368788
 21
165.06506315212323
  0
LINE
  8
_0-0_
  6
CONTINUOUS
 62
    7
 10
96.642104066368788
 20
165.06506315212323
 11
96.678215078800164
 21
164.96876711897295
  0
LINE
  8
_0-0_
  6
CONTINUOUS
 62
    7
 10
96.678215078800164
 20
164.96876711897295
 11
96.712988646326707
 21
164.90323231863454
  0
LINE
  8
_0-0_
  6
CONTINUOUS
 62
    7
 10
96.712988646326707
 20
164.90323231863454
 11
96.774511111950503
 21
164.82967284886695
  0
LINE
  8
_0-0_
  6
CONTINUOUS
 62
    7
 10
96.774511111950503
 20
164.82967284886695
 11
96.834696132669464
 21
164.78018738738689
  0
LINE
  8
_0-0_
  6
CONTINUOUS
 62
    7
 10
96.834696132669464
 20
164.78018738738689
 11
96.900230933007933
 21
164.74808870967007
  0
LINE
  8
_0-0_
  6
CONTINUOUS
 62
    7
 10
96.900230933007933
 20
164.74808870967007
 11
96.95968980635466
 21
164.73003135103761
  0
LINE
  8
_0-0_
  6
CONTINUOUS
 62
    7
 10
96.95968980635466
 20
164.73003135103761
 11
97.018507743500535
 21
164.71623455096636
  0
LINE
  8
_0-0_
  6
CONTINUOUS
 62
    7
 10
97.018507743500535
 20
164.71623455096636
 11
97.10927616502191
 21
164.71332996147771
  0
LINE
  8
_0-0_
  6
CONTINUOUS
 62
    7
 10
97.10927616502191
 20
164.71332996147771
 11
97.223281302452719
 21
164.710425371989
  0
LINE
  8
_0-0_
  6
CONTINUOUS
 62
    7
 10
97.223281302452719
 20
164.710425371989
 11
97.327846524045341
 21
164.710425371989
  0
LINE
  8
_0-0_
  6
CONTINUOUS
 62
    7
 10
97.327846524045341
 20
164.710425371989
 11
97.396104377029403
 21
164.71550840359419
  0
LINE
  8
_0-0_
  6
CONTINUOUS
 62
    7
 10
97.396104377029403
 20
164.71550840359419
 11
97.480337472201242
 21
164.74673274059762
  0
LINE
  8
_0-0_
  6
CONTINUOUS
 62
    7
 10
97.480337472201242
 20
164.74673274059762
 11
97.568201304233909
 21
164.78231396183395
  0
LINE
  8
_0-0_
  6
CONTINUOUS
 62
    7
 10
97.568201304233909
 20
164.78231396183395
 11
97.63355456772932
 21
164.84548878321277
  0
LINE
  8
_0-0_
  6
CONTINUOUS
 62
    7
 10
97.63355456772932
 20
164.84548878321277
 11
97.681480294292598
 21
164.90938975196383
  0
LINE
  8
_0-0_
  6
CONTINUOUS
 62
    7
 10
97.681480294292598
 20
164.90938975196383
 11
97.714883073412452
 21
164.9805521944366
  0
LINE
  8
_0-0_
  6
CONTINUOUS
 62
    7
 10
97.714883073412452
 20
164.9805521944366
 11
97.735215199833235
 21
165.07495135281886
  0
LINE
  8
_0-0_
  6
CONTINUOUS
 62
    7
 10
97.735215199833235
 20
165.07495135281886
 11
97.746833557787951
 21
165.13594773208115
  0
LINE
  8
_0-0_
  6
CONTINUOUS
 62
    7
 10
97.746833557787951
 20
165.13594773208115
 11
97.744603864257257
 21
165.23752283278321
  0
LINE
  8
_0-0_
  6
CONTINUOUS
 62
    7
 10
96.873781561658333
 20
165.22921955351006
 11
96.874746500239311
 21
165.15781409851775
  0
LINE
  8
_0-0_
  6
CONTINUOUS
 62
    7
 10
96.874746500239311
 20
165.15781409851775
 11
96.890185517534903
 21
165.10281259940211
  0
LINE
  8
_0-0_
  6
CONTINUOUS
 62
    7
 10
96.890185517534903
 20
165.10281259940211
 11
96.928783060773966
 21
165.05070591602947
  0
LINE
  8
_0-0_
  6
CONTINUOUS
 62
    7
 10
96.928783060773966
 20
165.05070591602947
 11
96.967380604012973
 21
165.01500318853334
  0
LINE
  8
_0-0_
  6
CONTINUOUS
 62
    7
 10
96.967380604012973
 20
165.01500318853334
 11
97.025276918871597
 21
164.98605503110406
  0
LINE
  8
_0-0_
  6
CONTINUOUS
 62
    7
 10
97.025276918871597
 20
164.98605503110406
 11
97.098612251025756
 21
164.97640564529434
  0
LINE
  8
_0-0_
  6
CONTINUOUS
 62
    7
 10
97.098612251025756
 20
164.97640564529434
 11
97.259756994048743
 21
164.97447576813238
  0
LINE
  8
_0-0_
  6
CONTINUOUS
 62
    7
 10
97.259756994048743
 20
164.97447576813238
 11
97.333092326202959
 21
164.9754407067133
  0
LINE
  8
_0-0_
  6
CONTINUOUS
 62
    7
 10
97.333092326202959
 20
164.9754407067133
 11
97.390023702480491
 21
164.98123033819923
  0
LINE
  8
_0-0_
  6
CONTINUOUS
 62
    7
 10
97.390023702480491
 20
164.98123033819923
 11
97.440200508691291
 21
165.01403824995236
  0
LINE
  8
_0-0_
  6
CONTINUOUS
 62
    7
 10
97.440200508691291
 20
165.01403824995236
 11
97.476868174768342
 21
165.06807481048702
  0
LINE
  8
_0-0_
  6
CONTINUOUS
 62
    7
 10
97.476868174768342
 20
165.06807481048702
 11
97.493272130644968
 21
165.12790100250754
  0
LINE
  8
_0-0_
  6
CONTINUOUS
 62
    7
 10
97.493272130644968
 20
165.12790100250754
 11
97.500991639292735
 21
165.19930645749974
  0
LINE
  8
_0-0_
  6
CONTINUOUS
 62
    7
 10
97.500991639292735
 20
165.19930645749974
 11
97.502170519880664
 21
165.23752283278321
  0
LINE
  8
_0-0_
  6
CONTINUOUS
 62
    7
 10
96.872851178937637
 20
165.353890838084
 11
96.873781561658333
 21
165.22921955351006
  0
LINE
  8
_0-0_
  6
CONTINUOUS
 62
    7
 10
97.74603585395981
 20
165.353890838084
 11
96.872851178937637
 21
165.353890838084
  0
LINE
  8
_0-0_
  6
CONTINUOUS
 62
    7
 10
96.857488297176801
 20
165.59225123042313
 11
96.861200584305877
 21
165.65793520921943
  0
LINE
  8
_0-0_
  6
CONTINUOUS
 62
    7
 10
96.861200584305877
 20
165.65793520921943
 11
96.886277487399624
 21
165.76964141390982
  0
LINE
  8
_0-0_
  6
CONTINUOUS
 62
    7
 10
96.886277487399624
 20
165.76964141390982
 11
96.923712829437463
 21
165.84867158043409
  0
LINE
  8
_0-0_
  6
CONTINUOUS
 62
    7
 10
96.923712829437463
 20
165.84867158043409
 11
96.985564028522603
 21
165.90852757954872
  0
LINE
  8
_0-0_
  6
CONTINUOUS
 62
    7
 10
96.985564028522603
 20
165.90852757954872
 11
97.038188740036034
 21
165.93211796746857
  0
LINE
  8
_0-0_
  6
CONTINUOUS
 62
    7
 10
97.038188740036034
 20
165.93211796746857
 11
97.095331718903523
 21
165.93619960881625
  0
LINE
  8
_0-0_
  6
CONTINUOUS
 62
    7
 10
97.095331718903523
 20
165.93619960881625
 11
97.276629780516757
 21
165.93619960881625
  0
LINE
  8
_0-0_
  6
CONTINUOUS
 62
    7
 10
97.276629780516757
 20
165.93619960881625
 11
97.342423142841184
 21
165.9238633533804
  0
LINE
  8
_0-0_
  6
CONTINUOUS
 62
    7
 10
97.342423142841184
 20
165.9238633533804
 11
97.411576772891109
 21
165.88829862935472
  0
LINE
  8
_0-0_
  6
CONTINUOUS
 62
    7
 10
97.411576772891109
 20
165.88829862935472
 11
97.464555458179277
 21
165.82747124994984
  0
LINE
  8
_0-0_
  6
CONTINUOUS
 62
    7
 10
97.464555458179277
 20
165.82747124994984
 11
97.497370334905426
 21
165.74543405813438
  0
LINE
  8
_0-0_
  6
CONTINUOUS
 62
    7
 10
97.497370334905426
 20
165.74543405813438
 11
97.506403997815809
 21
165.63703010321012
  0
LINE
  8
_0-0_
  6
CONTINUOUS
 62
    7
 10
97.506403997815809
 20
165.63703010321012
 11
97.505486752455269
 21
165.59225123042313
  0
LINE
  8
_0-0_
  6
CONTINUOUS
 62
    7
 10
97.505486752455269
 20
165.59225123042313
 11
96.857488297176801
 21
165.59225123042313
  0
LINE
  8
_0-0_
  6
CONTINUOUS
 62
    7
 10
112.75896941773094
 20
166.16931935783043
 11
112.98620311111777
 21
166.16931935783043
  0
LINE
  8
_0-0_
  6
CONTINUOUS
 62
    7
 10
112.75896941773094
 20
164.73287190823828
 11
112.75896941773094
 21
166.16931935783043
  0
LINE
  8
_0-0_
  6
CONTINUOUS
 62
    7
 10
113.00160878524569
 20
164.73287190823828
 11
113.00160878524569
 21
165.67248636720495
  0
LINE
  8
_0-0_
  6
CONTINUOUS
 62
    7
 10
112.75896941773094
 20
164.73287190823828
 11
113.00160878524569
 21
164.73287190823828
  0
LINE
  8
_0-0_
  6
CONTINUOUS
 62
    7
 10
113.2221155833851
 20
166.19098008379831
 11
113.14585779495575
 21
166.17763497082308
  0
LINE
  8
_0-0_
  6
CONTINUOUS
 62
    7
 10
113.14585779495575
 20
166.17763497082308
 11
113.08294511950156
 21
166.15475763429436
  0
LINE
  8
_0-0_
  6
CONTINUOUS
 62
    7
 10
113.08294511950156
 20
166.15475763429436
 11
113.0390968911547
 21
166.1223480742118
  0
LINE
  8
_0-0_
  6
CONTINUOUS
 62
    7
 10
112.98620311111777
 20
166.16931935783043
 11
112.98620311111777
 21
166.06693554274466
  0
LINE
  8
_0-0_
  6
CONTINUOUS
 62
    7
 10
113.42229227801214
 20
166.19098008379831
 11
113.2221155833851
 21
166.19098008379831
  0
LINE
  8
_0-0_
  6
CONTINUOUS
 62
    7
 10
113.42229227801214
 20
165.91244900545769
 11
113.23512731548469
 21
165.91244900545769
  0
LINE
  8
_0-0_
  6
CONTINUOUS
 62
    7
 10
113.42229227801214
 20
166.19098008379831
 11
113.42229227801214
 21
165.91244900545769
  0
LINE
  8
_0-0_
  6
CONTINUOUS
 62
    7
 10
113.00160878524569
 20
165.67248636720495
 11
113.02110173233716
 21
165.73599174275626
  0
LINE
  8
_0-0_
  6
CONTINUOUS
 62
    7
 10
113.02110173233716
 20
165.73599174275626
 11
113.06322378859493
 21
165.80429777993106
  0
LINE
  8
_0-0_
  6
CONTINUOUS
 62
    7
 10
113.06322378859493
 20
165.80429777993106
 11
113.10648427880561
 21
165.8521120059533
  0
LINE
  8
_0-0_
  6
CONTINUOUS
 62
    7
 10
113.10648427880561
 20
165.8521120059533
 11
113.16226754249827
 21
165.88968032639946
  0
LINE
  8
_0-0_
  6
CONTINUOUS
 62
    7
 10
113.16226754249827
 20
165.88968032639946
 11
113.21577393828515
 21
165.90789526964602
  0
LINE
  8
_0-0_
  6
CONTINUOUS
 62
    7
 10
113.21577393828515
 20
165.90789526964602
 11
113.23512731548469
 21
165.91244900545769
  0
LINE
  8
_0-0_
  6
CONTINUOUS
 62
    7
 10
103.10424842805229
 20
166.63267885428127
 11
103.38846465970816
 21
166.63267885428127
  0
LINE
  8
_0-0_
  6
CONTINUOUS
 62
    7
 10
103.10424842805229
 20
166.63267885428127
 11
103.10424842805229
 21
166.32087173252512
  0
LINE
  8
_0-0_
  6
CONTINUOUS
 62
    7
 10
103.38846465970816
 20
166.32087173252512
 11
103.10424842805229
 21
166.32087173252512
  0
LINE
  8
_0-0_
  6
CONTINUOUS
 62
    7
 10
103.38846465970816
 20
166.63267885428127
 11
103.38846465970816
 21
166.32087173252512
  0
LINE
  8
_0-0_
  6
CONTINUOUS
 62
    7
 10
103.12953041738812
 20
164.73287190823828
 11
103.37411200604195
 21
164.73287190823828
  0
LINE
  8
_0-0_
  6
CONTINUOUS
 62
    7
 10
103.12953041738812
 20
166.15914418159753
 11
103.12953041738812
 21
164.73287190823828
  0
LINE
  8
_0-0_
  6
CONTINUOUS
 62
    7
 10
103.12953041738812
 20
166.15914418159753
 11
103.37411200604195
 21
166.15914418159753
  0
LINE
  8
_0-0_
  6
CONTINUOUS
 62
    7
 10
103.37411200604195
 20
166.15914418159753
 11
103.37411200604195
 21
164.73287190823828
  0
LINE
  8
_0-0_
  6
CONTINUOUS
 62
    7
 10
107.9867758334431
 20
166.63267885428127
 11
108.27099206509898
 21
166.63267885428127
  0
LINE
  8
_0-0_
  6
CONTINUOUS
 62
    7
 10
107.9867758334431
 20
166.63267885428127
 11
107.9867758334431
 21
166.32087173252512
  0
LINE
  8
_0-0_
  6
CONTINUOUS
 62
    7
 10
108.27099206509898
 20
166.32087173252512
 11
107.9867758334431
 21
166.32087173252512
  0
LINE
  8
_0-0_
  6
CONTINUOUS
 62
    7
 10
108.27099206509898
 20
166.63267885428127
 11
108.27099206509898
 21
166.32087173252512
  0
LINE
  8
_0-0_
  6
CONTINUOUS
 62
    7
 10
108.01205782277894
 20
164.73287190823828
 11
108.25663941143277
 21
164.73287190823828
  0
LINE
  8
_0-0_
  6
CONTINUOUS
 62
    7
 10
108.01205782277894
 20
166.15914418159753
 11
108.01205782277894
 21
164.73287190823828
  0
LINE
  8
_0-0_
  6
CONTINUOUS
 62
    7
 10
108.01205782277894
 20
166.15914418159753
 11
108.25663941143277
 21
166.15914418159753
  0
LINE
  8
_0-0_
  6
CONTINUOUS
 62
    7
 10
108.25663941143277
 20
166.15914418159753
 11
108.25663941143277
 21
164.73287190823828
  0
LINE
  8
_0-0_
  6
CONTINUOUS
 62
    7
 10
100.75737278552218
 20
166.16396650572318
 11
101.11482917399756
 21
165.48628876923863
  0
LINE
  8
_0-0_
  6
CONTINUOUS
 62
    7
 10
101.11482917399756
 20
165.48628876923863
 11
100.72183651739509
 21
164.73287190823828
  0
LINE
  8
_0-0_
  6
CONTINUOUS
 62
    7
 10
100.75737278552218
 20
166.16396650572318
 11
101.05442576061198
 21
166.16396650572318
  0
LINE
  8
_0-0_
  6
CONTINUOUS
 62
    7
 10
101.05442576061198
 20
166.16396650572318
 11
101.28273196839136
 21
165.68357219352083
  0
LINE
  8
_0-0_
  6
CONTINUOUS
 62
    7
 10
101.54515893738316
 20
166.16396650572318
 11
101.8280933288281
 21
166.16396650572318
  0
LINE
  8
_0-0_
  6
CONTINUOUS
 62
    7
 10
101.8280933288281
 20
166.16396650572318
 11
101.47063694035278
 21
165.48628876923863
  0
LINE
  8
_0-0_
  6
CONTINUOUS
 62
    7
 10
101.30861960599417
 20
165.68357219352083
 11
101.54515893738316
 21
166.16396650572318
  0
LINE
  8
_0-0_
  6
CONTINUOUS
 62
    7
 10
101.28273196839136
 20
165.68357219352083
 11
101.30861960599417
 21
165.68357219352083
  0
LINE
  8
_0-0_
  6
CONTINUOUS
 62
    7
 10
101.28379410703444
 20
165.28115630284987
 11
101.31950609417719
 21
165.28115630284987
  0
LINE
  8
_0-0_
  6
CONTINUOUS
 62
    7
 10
100.72183651739509
 20
164.73287190823828
 11
101.01585422188491
 21
164.73287190823828
  0
LINE
  8
_0-0_
  6
CONTINUOUS
 62
    7
 10
101.01585422188491
 20
164.73287190823828
 11
101.28379410703444
 21
165.28115630284987
  0
LINE
  8
_0-0_
  6
CONTINUOUS
 62
    7
 10
101.57236784694332
 20
164.73287190823828
 11
101.31950609417719
 21
165.28115630284987
  0
LINE
  8
_0-0_
  6
CONTINUOUS
 62
    7
 10
101.57236784694332
 20
164.73287190823828
 11
101.86362959695525
 21
164.73287190823828
  0
LINE
  8
_0-0_
  6
CONTINUOUS
 62
    7
 10
101.47063694035278
 20
165.48628876923863
 11
101.86362959695525
 21
164.73287190823828
  0
LINE
  8
_0-0_
  6
CONTINUOUS
 62
    7
 10
102.25326173501587
 20
166.49640055423913
 11
102.49848527533463
 21
166.49640055423913
  0
LINE
  8
_0-0_
  6
CONTINUOUS
 62
    7
 10
101.99972553231343
 20
166.16396650572318
 11
102.25326173501587
 21
166.16396650572318
  0
LINE
  8
_0-0_
  6
CONTINUOUS
 62
    7
 10
102.25326173501587
 20
166.49640055423913
 11
102.25326173501587
 21
166.16396650572318
  0
LINE
  8
_0-0_
  6
CONTINUOUS
 62
    7
 10
102.49848527533463
 20
166.49640055423913
 11
102.49848527533463
 21
166.16396650572318
  0
LINE
  8
_0-0_
  6
CONTINUOUS
 62
    7
 10
102.49848527533463
 20
166.16396650572318
 11
102.82267910829835
 21
166.16396650572318
  0
LINE
  8
_0-0_
  6
CONTINUOUS
 62
    7
 10
102.82267910829835
 20
166.16396650572318
 11
102.82267910829835
 21
165.90204519380552
  0
LINE
  8
_0-0_
  6
CONTINUOUS
 62
    7
 10
101.99972553231343
 20
166.16396650572318
 11
101.99972553231343
 21
165.90204519380552
  0
LINE
  8
_0-0_
  6
CONTINUOUS
 62
    7
 10
101.99972553231343
 20
165.90204519380552
 11
102.25326173501587
 21
165.90204519380552
  0
LINE
  8
_0-0_
  6
CONTINUOUS
 62
    7
 10
102.49848527533463
 20
165.90204519380552
 11
102.82267910829835
 21
165.90204519380552
  0
LINE
  8
_0-0_
  6
CONTINUOUS
 62
    7
 10
102.59287056175144
 20
164.98267680541812
 11
102.55449397764458
 21
164.99973306502119
  0
LINE
  8
_0-0_
  6
CONTINUOUS
 62
    7
 10
102.55449397764458
 20
164.99973306502119
 11
102.52677755578962
 21
165.02425143820062
  0
LINE
  8
_0-0_
  6
CONTINUOUS
 62
    7
 10
102.49848527533463
 20
165.90204519380552
 11
102.49848527533463
 21
165.06574678286802
  0
LINE
  8
_0-0_
  6
CONTINUOUS
 62
    7
 10
102.52677755578962
 20
165.02425143820062
 11
102.49848527533463
 21
165.06574678286802
  0
LINE
  8
_0-0_
  6
CONTINUOUS
 62
    7
 10
102.83980052964766
 20
164.98267680541812
 11
102.59287056175144
 21
164.98267680541812
  0
LINE
  8
_0-0_
  6
CONTINUOUS
 62
    7
 10
102.83980052964766
 20
164.98267680541812
 11
102.83980052964766
 21
164.73287190823828
  0
LINE
  8
_0-0_
  6
CONTINUOUS
 62
    7
 10
102.26877577959361
 20
164.92095269135348
 11
102.30979807275939
 21
164.84147199834479
  0
LINE
  8
_0-0_
  6
CONTINUOUS
 62
    7
 10
102.30979807275939
 20
164.84147199834479
 11
102.35594815257092
 21
164.79147607854895
  0
LINE
  8
_0-0_
  6
CONTINUOUS
 62
    7
 10
102.35594815257092
 20
164.79147607854895
 11
102.40466212570531
 21
164.75301767870599
  0
LINE
  8
_0-0_
  6
CONTINUOUS
 62
    7
 10
102.25326173501587
 20
164.9796844315407
 11
102.26877577959361
 21
164.92095269135348
  0
LINE
  8
_0-0_
  6
CONTINUOUS
 62
    7
 10
102.25326173501587
 20
165.90204519380552
 11
102.25326173501587
 21
164.9796844315407
  0
LINE
  8
_0-0_
  6
CONTINUOUS
 62
    7
 10
102.40466212570531
 20
164.75301767870599
 11
102.45680411985715
 21
164.73287190823828
  0
LINE
  8
_0-0_
  6
CONTINUOUS
 62
    7
 10
102.45680411985715
 20
164.73287190823828
 11
102.83980052964766
 21
164.73287190823828
  0
LINE
  8
_0-0_
  6
CONTINUOUS
 62
    7
 10
103.73490430099763
 20
166.15914418159753
 11
103.73490430099763
 21
164.73287190823828
  0
LINE
  8
_0-0_
  6
CONTINUOUS
 62
    7
 10
103.73490430099763
 20
164.73287190823828
 11
103.97824833150632
 21
164.73287190823828
  0
LINE
  8
_0-0_
  6
CONTINUOUS
 62
    7
 10
103.97824833150632
 20
164.73287190823828
 11
103.97824833150632
 21
165.67196752642087
  0
LINE
  8
_0-0_
  6
CONTINUOUS
 62
    7
 10
104.53348400675155
 20
164.73287190823828
 11
104.53348400675155
 21
165.72680561780305
  0
LINE
  8
_0-0_
  6
CONTINUOUS
 62
    7
 10
104.53348400675155
 20
164.73287190823828
 11
104.77682803726024
 21
164.73287190823828
  0
LINE
  8
_0-0_
  6
CONTINUOUS
 62
    7
 10
104.77682803726024
 20
164.73287190823828
 11
104.77682803726024
 21
165.83648180056758
  0
LINE
  8
_0-0_
  6
CONTINUOUS
 62
    7
 10
103.73490430099763
 20
166.15914418159753
 11
103.97824833150632
 21
166.15914418159753
  0
LINE
  8
_0-0_
  6
CONTINUOUS
 62
    7
 10
103.97824833150632
 20
166.06309221914216
 11
103.97824833150632
 21
166.15914418159753
  0
LINE
  8
_0-0_
  6
CONTINUOUS
 62
    7
 10
103.97824833150632
 20
166.06309221914216
 11
104.03543718428243
 21
166.10972607762466
  0
LINE
  8
_0-0_
  6
CONTINUOUS
 62
    7
 10
104.03543718428243
 20
166.10972607762466
 11
104.08828445947152
 21
166.14275562461785
  0
LINE
  8
_0-0_
  6
CONTINUOUS
 62
    7
 10
104.08828445947152
 20
166.14275562461785
 11
104.15566473533765
 21
166.16917926221242
  0
LINE
  8
_0-0_
  6
CONTINUOUS
 62
    7
 10
104.15566473533765
 20
166.16917926221242
 11
104.20454846488751
 21
166.18106989912997
  0
LINE
  8
_0-0_
  6
CONTINUOUS
 62
    7
 10
104.20454846488751
 20
166.18106989912997
 11
104.3829080186507
 21
166.18106989912997
  0
LINE
  8
_0-0_
  6
CONTINUOUS
 62
    7
 10
104.3829080186507
 20
166.18106989912997
 11
104.45557302203569
 21
166.17578517161104
  0
LINE
  8
_0-0_
  6
CONTINUOUS
 62
    7
 10
104.45557302203569
 20
166.17578517161104
 11
104.53484393481936
 21
166.15464626153539
  0
LINE
  8
_0-0_
  6
CONTINUOUS
 62
    7
 10
104.53484393481936
 20
166.15464626153539
 11
104.60222421068543
 21
166.12293789642194
  0
LINE
  8
_0-0_
  6
CONTINUOUS
 62
    7
 10
104.60222421068543
 20
166.12293789642194
 11
104.64714439459617
 21
166.08726598566932
  0
LINE
  8
_0-0_
  6
CONTINUOUS
 62
    7
 10
104.64714439459617
 20
166.08726598566932
 11
104.6920645785069
 21
166.03573989235997
  0
LINE
  8
_0-0_
  6
CONTINUOUS
 62
    7
 10
104.6920645785069
 20
166.03573989235997
 11
104.73037885301896
 21
165.9789290715317
  0
LINE
  8
_0-0_
  6
CONTINUOUS
 62
    7
 10
104.73037885301896
 20
165.9789290715317
 11
104.76076603625272
 21
165.90097934062783
  0
LINE
  8
_0-0_
  6
CONTINUOUS
 62
    7
 10
104.76076603625272
 20
165.90097934062783
 11
104.77682803726024
 21
165.83648180056758
  0
LINE
  8
_0-0_
  6
CONTINUOUS
 62
    7
 10
104.53348400675155
 20
165.72680561780305
 11
104.5228750669787
 21
165.79583318577562
  0
LINE
  8
_0-0_
  6
CONTINUOUS
 62
    7
 10
104.5228750669787
 20
165.79583318577562
 11
104.48892567960705
 21
165.84939777473977
  0
LINE
  8
_0-0_
  6
CONTINUOUS
 62
    7
 10
104.48892567960705
 20
165.84939777473977
 11
104.43762438313432
 21
165.88561045460284
  0
LINE
  8
_0-0_
  6
CONTINUOUS
 62
    7
 10
104.43762438313432
 20
165.88561045460284
 11
104.39462182579693
 21
165.90598008702585
  0
LINE
  8
_0-0_
  6
CONTINUOUS
 62
    7
 10
104.39462182579693
 20
165.90598008702585
 11
104.33692772070803
 21
165.92198196200923
  0
LINE
  8
_0-0_
  6
CONTINUOUS
 62
    7
 10
104.33692772070803
 20
165.92198196200923
 11
104.2045846702873
 21
165.92329228924109
  0
LINE
  8
_0-0_
  6
CONTINUOUS
 62
    7
 10
104.2045846702873
 20
165.92329228924109
 11
104.13513732699725
 21
165.8997063990671
  0
LINE
  8
_0-0_
  6
CONTINUOUS
 62
    7
 10
104.13513732699725
 20
165.8997063990671
 11
104.08796554664927
 21
165.86432756380611
  0
LINE
  8
_0-0_
  6
CONTINUOUS
 62
    7
 10
104.08796554664927
 20
165.86432756380611
 11
104.03948343906937
 21
165.80798349283492
  0
LINE
  8
_0-0_
  6
CONTINUOUS
 62
    7
 10
104.03948343906937
 20
165.80798349283492
 11
104.01327689443166
 21
165.75163942186373
  0
LINE
  8
_0-0_
  6
CONTINUOUS
 62
    7
 10
104.01327689443166
 20
165.75163942186373
 11
103.99362198595331
 21
165.70708829597947
  0
LINE
  8
_0-0_
  6
CONTINUOUS
 62
    7
 10
103.99362198595331
 20
165.70708829597947
 11
103.97824833150632
 21
165.67196752642087
  0
LINE
  8
_0-0_
  6
CONTINUOUS
 62
    7
 10
110.01082940328187
 20
164.73287190823828
 11
110.25417343379063
 21
164.73287190823828
  0
LINE
  8
_0-0_
  6
CONTINUOUS
 62
    7
 10
110.25417343379063
 20
164.73287190823828
 11
110.25417343379063
 21
165.67196752642087
  0
LINE
  8
_0-0_
  6
CONTINUOUS
 62
    7
 10
110.80940910903585
 20
164.73287190823828
 11
110.80940910903585
 21
165.72680561780305
  0
LINE
  8
_0-0_
  6
CONTINUOUS
 62
    7
 10
110.80940910903585
 20
164.73287190823828
 11
111.05275313954455
 21
164.73287190823828
  0
LINE
  8
_0-0_
  6
CONTINUOUS
 62
    7
 10
111.05275313954455
 20
164.73287190823828
 11
111.05275313954455
 21
165.83648180056758
  0
LINE
  8
_0-0_
  6
CONTINUOUS
 62
    7
 10
110.25417343379063
 20
166.06309221914216
 11
110.31136228656673
 21
166.10972607762466
  0
LINE
  8
_0-0_
  6
CONTINUOUS
 62
    7
 10
110.31136228656673
 20
166.10972607762466
 11
110.36420956175583
 21
166.14275562461785
  0
LINE
  8
_0-0_
  6
CONTINUOUS
 62
    7
 10
110.36420956175583
 20
166.14275562461785
 11
110.4315898376219
 21
166.16917926221242
  0
LINE
  8
_0-0_
  6
CONTINUOUS
 62
    7
 10
110.4315898376219
 20
166.16917926221242
 11
110.48047356717181
 21
166.18106989912997
  0
LINE
  8
_0-0_
  6
CONTINUOUS
 62
    7
 10
110.48047356717181
 20
166.18106989912997
 11
110.658833120935
 21
166.18106989912997
  0
LINE
  8
_0-0_
  6
CONTINUOUS
 62
    7
 10
110.658833120935
 20
166.18106989912997
 11
110.73149812432
 21
166.17578517161104
  0
LINE
  8
_0-0_
  6
CONTINUOUS
 62
    7
 10
110.73149812432
 20
166.17578517161104
 11
110.81076903710361
 21
166.15464626153539
  0
LINE
  8
_0-0_
  6
CONTINUOUS
 62
    7
 10
110.81076903710361
 20
166.15464626153539
 11
110.87814931296968
 21
166.12293789642194
  0
LINE
  8
_0-0_
  6
CONTINUOUS
 62
    7
 10
110.87814931296968
 20
166.12293789642194
 11
110.92306949688047
 21
166.08726598566932
  0
LINE
  8
_0-0_
  6
CONTINUOUS
 62
    7
 10
110.92306949688047
 20
166.08726598566932
 11
110.96798968079115
 21
166.03573989235997
  0
LINE
  8
_0-0_
  6
CONTINUOUS
 62
    7
 10
110.96798968079115
 20
166.03573989235997
 11
111.00630395530327
 21
165.9789290715317
  0
LINE
  8
_0-0_
  6
CONTINUOUS
 62
    7
 10
111.00630395530327
 20
165.9789290715317
 11
111.03669113853697
 21
165.90097934062783
  0
LINE
  8
_0-0_
  6
CONTINUOUS
 62
    7
 10
111.03669113853697
 20
165.90097934062783
 11
111.05275313954455
 21
165.83648180056758
  0
LINE
  8
_0-0_
  6
CONTINUOUS
 62
    7
 10
110.80940910903585
 20
165.72680561780305
 11
110.798800169263
 21
165.79583318577562
  0
LINE
  8
_0-0_
  6
CONTINUOUS
 62
    7
 10
110.798800169263
 20
165.79583318577562
 11
110.76485078189135
 21
165.84939777473977
  0
LINE
  8
_0-0_
  6
CONTINUOUS
 62
    7
 10
110.76485078189135
 20
165.84939777473977
 11
110.71354948541862
 21
165.88561045460284
  0
LINE
  8
_0-0_
  6
CONTINUOUS
 62
    7
 10
110.71354948541862
 20
165.88561045460284
 11
110.67054692808118
 21
165.90598008702585
  0
LINE
  8
_0-0_
  6
CONTINUOUS
 62
    7
 10
110.67054692808118
 20
165.90598008702585
 11
110.61285282299228
 21
165.92198196200923
  0
LINE
  8
_0-0_
  6
CONTINUOUS
 62
    7
 10
110.61285282299228
 20
165.92198196200923
 11
110.48050977257161
 21
165.92329228924109
  0
LINE
  8
_0-0_
  6
CONTINUOUS
 62
    7
 10
110.48050977257161
 20
165.92329228924109
 11
110.4110624292815
 21
165.8997063990671
  0
LINE
  8
_0-0_
  6
CONTINUOUS
 62
    7
 10
110.4110624292815
 20
165.8997063990671
 11
110.36389064893358
 21
165.86432756380611
  0
LINE
  8
_0-0_
  6
CONTINUOUS
 62
    7
 10
110.36389064893358
 20
165.86432756380611
 11
110.31540854135368
 21
165.80798349283492
  0
LINE
  8
_0-0_
  6
CONTINUOUS
 62
    7
 10
110.31540854135368
 20
165.80798349283492
 11
110.2892019967159
 21
165.75163942186373
  0
LINE
  8
_0-0_
  6
CONTINUOUS
 62
    7
 10
110.2892019967159
 20
165.75163942186373
 11
110.26954708823756
 21
165.70708829597947
  0
LINE
  8
_0-0_
  6
CONTINUOUS
 62
    7
 10
110.26954708823756
 20
165.70708829597947
 11
110.25417343379063
 21
165.67196752642087
  0
LINE
  8
_0-0_
  6
CONTINUOUS
 62
    7
 10
110.01082940328187
 20
166.63267885428127
 11
110.01082940328187
 21
164.73287190823828
  0
LINE
  8
_0-0_
  6
CONTINUOUS
 62
    7
 10
110.01082940328187
 20
166.63267885428127
 11
110.25417343379063
 21
166.63267885428127
  0
LINE
  8
_0-0_
  6
CONTINUOUS
 62
    7
 10
110.25417343379063
 20
166.06309221914216
 11
110.25417343379063
 21
166.63267885428127
  0
LINE
  8
_0-0_
  6
CONTINUOUS
 62
    7
 10
109.42049724910724
 20
165.70273984008418
 11
109.42049724910724
 21
165.78773045431052
  0
LINE
  8
_0-0_
  6
CONTINUOUS
 62
    7
 10
109.66297047204721
 20
165.70273984008418
 11
109.42049724910724
 21
165.70273984008418
  0
LINE
  8
_0-0_
  6
CONTINUOUS
 62
    7
 10
109.66297047204721
 20
165.70273984008418
 11
109.66297047204721
 21
165.88521968827604
  0
LINE
  8
_0-0_
  6
CONTINUOUS
 62
    7
 10
108.85555963689664
 20
165.25028980552611
 11
108.85555963689664
 21
165.1253036081344
  0
LINE
  8
_0-0_
  6
CONTINUOUS
 62
    7
 10
108.61308641395668
 20
165.25028980552611
 11
108.61308641395668
 21
165.04531244180373
  0
LINE
  8
_0-0_
  6
CONTINUOUS
 62
    7
 10
108.61308641395668
 20
165.25028980552611
 11
108.85555963689664
 21
165.25028980552611
  0
LINE
  8
_0-0_
  6
CONTINUOUS
 62
    7
 10
108.61308641395668
 20
165.04531244180373
 11
108.62648521129482
 21
164.97408069595502
  0
LINE
  8
_0-0_
  6
CONTINUOUS
 62
    7
 10
108.62648521129482
 20
164.97408069595502
 11
108.6561876098384
 21
164.91209308160319
  0
LINE
  8
_0-0_
  6
CONTINUOUS
 62
    7
 10
108.6561876098384
 20
164.91209308160319
 11
108.70396972923463
 21
164.84493983272199
  0
LINE
  8
_0-0_
  6
CONTINUOUS
 62
    7
 10
108.70396972923463
 20
164.84493983272199
 11
108.74529480546919
 21
164.80619757375212
  0
LINE
  8
_0-0_
  6
CONTINUOUS
 62
    7
 10
108.74529480546919
 20
164.80619757375212
 11
108.80340819392403
 21
164.76874672341455
  0
LINE
  8
_0-0_
  6
CONTINUOUS
 62
    7
 10
108.80340819392403
 20
164.76874672341455
 11
108.86668721690818
 21
164.7416271421356
  0
LINE
  8
_0-0_
  6
CONTINUOUS
 62
    7
 10
108.86668721690818
 20
164.7416271421356
 11
108.93771469168637
 21
164.723547421283
  0
LINE
  8
_0-0_
  6
CONTINUOUS
 62
    7
 10
108.93771469168637
 20
164.723547421283
 11
109.05265005996374
 21
164.71063333495965
  0
LINE
  8
_0-0_
  6
CONTINUOUS
 62
    7
 10
109.05265005996374
 20
164.71063333495965
 11
109.26056684976889
 21
164.7093419263274
  0
LINE
  8
_0-0_
  6
CONTINUOUS
 62
    7
 10
109.26056684976889
 20
164.7093419263274
 11
109.35742249719361
 21
164.71450756085665
  0
LINE
  8
_0-0_
  6
CONTINUOUS
 62
    7
 10
109.35742249719361
 20
164.71450756085665
 11
109.44911251008902
 21
164.73646150760629
  0
LINE
  8
_0-0_
  6
CONTINUOUS
 62
    7
 10
109.44911251008902
 20
164.73646150760629
 11
109.54984238341079
 21
164.78682644426715
  0
LINE
  8
_0-0_
  6
CONTINUOUS
 62
    7
 10
109.54984238341079
 20
164.78682644426715
 11
109.63894957904158
 21
164.87851645716256
  0
LINE
  8
_0-0_
  6
CONTINUOUS
 62
    7
 10
109.63894957904158
 20
164.87851645716256
 11
109.68931451570243
 21
164.98312055638132
  0
LINE
  8
_0-0_
  6
CONTINUOUS
 62
    7
 10
109.68931451570243
 20
164.98312055638132
 11
109.70222860202573
 21
165.09676451602638
  0
LINE
  8
_0-0_
  6
CONTINUOUS
 62
    7
 10
109.70222860202573
 20
165.09676451602638
 11
109.70222860202573
 21
165.24785932600901
  0
LINE
  8
_0-0_
  6
CONTINUOUS
 62
    7
 10
109.70222860202573
 20
165.24785932600901
 11
109.68673169843775
 21
165.33438370437506
  0
LINE
  8
_0-0_
  6
CONTINUOUS
 62
    7
 10
109.68673169843775
 20
165.33438370437506
 11
109.6505722567325
 21
165.41315963094723
  0
LINE
  8
_0-0_
  6
CONTINUOUS
 62
    7
 10
109.6505722567325
 20
165.41315963094723
 11
109.60192696783592
 21
165.47360826091858
  0
LINE
  8
_0-0_
  6
CONTINUOUS
 62
    7
 10
109.60192696783592
 20
165.47360826091858
 11
109.54594808380448
 21
165.51172154366338
  0
LINE
  8
_0-0_
  6
CONTINUOUS
 62
    7
 10
109.54594808380448
 20
165.51172154366338
 11
109.48282295925837
 21
165.54387962597934
  0
LINE
  8
_0-0_
  6
CONTINUOUS
 62
    7
 10
109.48282295925837
 20
165.54387962597934
 11
109.41374263428337
 21
165.56174522726599
  0
LINE
  8
_0-0_
  6
CONTINUOUS
 62
    7
 10
109.41374263428337
 20
165.56174522726599
 11
109.30893110673507
 21
165.57365562812367
  0
LINE
  8
_0-0_
  6
CONTINUOUS
 62
    7
 10
109.30893110673507
 20
165.57365562812367
 11
109.18387189772862
 21
165.58794810915299
  0
LINE
  8
_0-0_
  6
CONTINUOUS
 62
    7
 10
109.18387189772862
 20
165.58794810915299
 11
109.04213812752128
 21
165.60462267035388
  0
LINE
  8
_0-0_
  6
CONTINUOUS
 62
    7
 10
109.04213812752128
 20
165.60462267035388
 11
108.94089972023038
 21
165.62367931172628
  0
LINE
  8
_0-0_
  6
CONTINUOUS
 62
    7
 10
108.94089972023038
 20
165.62367931172628
 11
108.89683123705662
 21
165.64273595309874
  0
LINE
  8
_0-0_
  6
CONTINUOUS
 62
    7
 10
108.89683123705662
 20
165.64273595309874
 11
108.87181939525537
 21
165.68918651644395
  0
LINE
  8
_0-0_
  6
CONTINUOUS
 62
    7
 10
108.87181939525537
 20
165.68918651644395
 11
108.8694373150838
 21
165.76779516210513
  0
LINE
  8
_0-0_
  6
CONTINUOUS
 62
    7
 10
108.8694373150838
 20
165.76779516210513
 11
108.88611187628469
 21
165.82734716639396
  0
LINE
  8
_0-0_
  6
CONTINUOUS
 62
    7
 10
108.88611187628469
 20
165.82734716639396
 11
108.9194609986864
 21
165.87260668965348
  0
LINE
  8
_0-0_
  6
CONTINUOUS
 62
    7
 10
108.9194609986864
 20
165.87260668965348
 11
108.96114740168854
 21
165.9000006116263
  0
LINE
  8
_0-0_
  6
CONTINUOUS
 62
    7
 10
108.96114740168854
 20
165.9000006116263
 11
109.0123621253769
 21
165.91429309265561
  0
LINE
  8
_0-0_
  6
CONTINUOUS
 62
    7
 10
109.0123621253769
 20
165.91429309265561
 11
109.08501557060923
 21
165.92143933317027
  0
LINE
  8
_0-0_
  6
CONTINUOUS
 62
    7
 10
109.08501557060923
 20
165.92143933317027
 11
109.21722102013034
 21
165.9250124534276
  0
LINE
  8
_0-0_
  6
CONTINUOUS
 62
    7
 10
109.21722102013034
 20
165.9250124534276
 11
109.26962678390446
 21
165.92024829308446
  0
LINE
  8
_0-0_
  6
CONTINUOUS
 62
    7
 10
109.26962678390446
 20
165.92024829308446
 11
109.32203254767863
 21
165.90357373188363
  0
LINE
  8
_0-0_
  6
CONTINUOUS
 62
    7
 10
109.32203254767863
 20
165.90357373188363
 11
109.37443831145275
 21
165.87022460948191
  0
LINE
  8
_0-0_
  6
CONTINUOUS
 62
    7
 10
109.37443831145275
 20
165.87022460948191
 11
109.40778743385447
 21
165.82020092587936
  0
LINE
  8
_0-0_
  6
CONTINUOUS
 62
    7
 10
109.40778743385447
 20
165.82020092587936
 11
109.42049724910724
 21
165.78773045431052
  0
LINE
  8
_0-0_
  6
CONTINUOUS
 62
    7
 10
108.85555963689664
 20
165.1253036081344
 11
108.86332166365888
 21
165.07759051799417
  0
LINE
  8
_0-0_
  6
CONTINUOUS
 62
    7
 10
108.86332166365888
 20
165.07759051799417
 11
108.89014783595353
 21
165.03884160245741
  0
LINE
  8
_0-0_
  6
CONTINUOUS
 62
    7
 10
108.89014783595353
 20
165.03884160245741
 11
108.92690962761661
 21
165.00804118241541
  0
LINE
  8
_0-0_
  6
CONTINUOUS
 62
    7
 10
108.92690962761661
 20
165.00804118241541
 11
108.96764566702699
 21
164.9911506294892
  0
LINE
  8
_0-0_
  6
CONTINUOUS
 62
    7
 10
108.96764566702699
 20
164.9911506294892
 11
109.01235595418471
 21
164.97624720043666
  0
LINE
  8
_0-0_
  6
CONTINUOUS
 62
    7
 10
109.01235595418471
 20
164.97624720043666
 11
109.12065420530017
 21
164.96929226687871
  0
LINE
  8
_0-0_
  6
CONTINUOUS
 62
    7
 10
109.12065420530017
 20
164.96929226687871
 11
109.30545672555222
 21
164.96929226687871
  0
LINE
  8
_0-0_
  6
CONTINUOUS
 62
    7
 10
109.30545672555222
 20
164.96929226687871
 11
109.37798674694146
 21
164.98916350561547
  0
LINE
  8
_0-0_
  6
CONTINUOUS
 62
    7
 10
109.37798674694146
 20
164.98916350561547
 11
109.42865840572027
 21
165.03884160245741
  0
LINE
  8
_0-0_
  6
CONTINUOUS
 62
    7
 10
109.42865840572027
 20
165.03884160245741
 11
109.45449101607805
 21
165.07560339412044
  0
LINE
  8
_0-0_
  6
CONTINUOUS
 62
    7
 10
109.45449101607805
 20
165.07560339412044
 11
109.45747170188859
 21
165.16403040649919
  0
LINE
  8
_0-0_
  6
CONTINUOUS
 62
    7
 10
109.45747170188859
 20
165.16403040649919
 11
109.45449101607805
 21
165.23059905626735
  0
LINE
  8
_0-0_
  6
CONTINUOUS
 62
    7
 10
109.45449101607805
 20
165.23059905626735
 11
109.41077429085713
 21
165.28723208666719
  0
LINE
  8
_0-0_
  6
CONTINUOUS
 62
    7
 10
109.41077429085713
 20
165.28723208666719
 11
109.32234727847849
 21
165.31405825896184
  0
LINE
  8
_0-0_
  6
CONTINUOUS
 62
    7
 10
109.32234727847849
 20
165.31405825896184
 11
109.23392026609984
 21
165.32001963058286
  0
LINE
  8
_0-0_
  6
CONTINUOUS
 62
    7
 10
109.23392026609984
 20
165.32001963058286
 11
109.14052544403698
 21
165.32995524995124
  0
LINE
  8
_0-0_
  6
CONTINUOUS
 62
    7
 10
108.86332166365888
 20
165.36771060355113
 11
108.77787533709078
 21
165.39950458553
  0
LINE
  8
_0-0_
  6
CONTINUOUS
 62
    7
 10
108.77787533709078
 20
165.39950458553
 11
108.71075070447704
 21
165.4623718309843
  0
LINE
  8
_0-0_
  6
CONTINUOUS
 62
    7
 10
108.71075070447704
 20
165.4623718309843
 11
108.67933767370714
 21
165.5147268822675
  0
LINE
  8
_0-0_
  6
CONTINUOUS
 62
    7
 10
108.67933767370714
 20
165.5147268822675
 11
108.64966981131339
 21
165.58104328055947
  0
LINE
  8
_0-0_
  6
CONTINUOUS
 62
    7
 10
108.64966981131339
 20
165.58104328055947
 11
108.63396329592841
 21
165.66830169936475
  0
LINE
  8
_0-0_
  6
CONTINUOUS
 62
    7
 10
108.63396329592841
 20
165.66830169936475
 11
108.63047295917617
 21
165.77824730705947
  0
LINE
  8
_0-0_
  6
CONTINUOUS
 62
    7
 10
108.63047295917617
 20
165.77824730705947
 11
108.64792464293724
 21
165.88470257800185
  0
LINE
  8
_0-0_
  6
CONTINUOUS
 62
    7
 10
108.64792464293724
 20
165.88470257800185
 11
108.68457317883546
 21
165.9789416703116
  0
LINE
  8
_0-0_
  6
CONTINUOUS
 62
    7
 10
108.68457317883546
 20
165.9789416703116
 11
108.74041856687084
 21
166.05572907886022
  0
LINE
  8
_0-0_
  6
CONTINUOUS
 62
    7
 10
108.74041856687084
 20
166.05572907886022
 11
108.81546080704344
 21
166.12204547715226
  0
LINE
  8
_0-0_
  6
CONTINUOUS
 62
    7
 10
108.81546080704344
 20
166.12204547715226
 11
108.90097405747257
 21
166.16741985493098
  0
LINE
  8
_0-0_
  6
CONTINUOUS
 62
    7
 10
108.90097405747257
 20
166.16741985493098
 11
108.9760162976451
 21
166.18138120193987
  0
LINE
  8
_0-0_
  6
CONTINUOUS
 62
    7
 10
108.9760162976451
 20
166.18138120193987
 11
109.09294257884419
 21
166.1866167070682
  0
LINE
  8
_0-0_
  6
CONTINUOUS
 62
    7
 10
109.09294257884419
 20
166.1866167070682
 11
109.30061761560079
 21
166.1866167070682
  0
LINE
  8
_0-0_
  6
CONTINUOUS
 62
    7
 10
109.30061761560079
 20
166.1866167070682
 11
109.35820817201225
 21
166.17614569681155
  0
LINE
  8
_0-0_
  6
CONTINUOUS
 62
    7
 10
109.35820817201225
 20
166.17614569681155
 11
109.44197625406535
 21
166.14822300279383
  0
LINE
  8
_0-0_
  6
CONTINUOUS
 62
    7
 10
109.44197625406535
 20
166.14822300279383
 11
109.49956681047682
 21
166.12030030877611
  0
LINE
  8
_0-0_
  6
CONTINUOUS
 62
    7
 10
109.49956681047682
 20
166.12030030877611
 11
109.55017669338388
 21
166.08190660450185
  0
LINE
  8
_0-0_
  6
CONTINUOUS
 62
    7
 10
109.55017669338388
 20
166.08190660450185
 11
109.59031556603433
 21
166.03478705834698
  0
LINE
  8
_0-0_
  6
CONTINUOUS
 62
    7
 10
109.59031556603433
 20
166.03478705834698
 11
109.62521893355641
 21
165.97196099680718
  0
LINE
  8
_0-0_
  6
CONTINUOUS
 62
    7
 10
109.62521893355641
 20
165.97196099680718
 11
109.65314162757413
 21
165.91786077714789
  0
LINE
  8
_0-0_
  6
CONTINUOUS
 62
    7
 10
109.65314162757413
 20
165.91786077714789
 11
109.66297047204721
 21
165.88521968827604
  0
LINE
  8
_0-0_
  6
CONTINUOUS
 62
    7
 10
108.86332166365888
 20
165.36771060355113
 11
109.01820029750307
 21
165.34192443855915
  0
LINE
  8
_0-0_
  6
CONTINUOUS
 62
    7
 10
109.01820029750307
 20
165.34192443855915
 11
109.14052544403698
 21
165.32995524995124
  0
LINE
  8
_0-0_
  6
CONTINUOUS
 62
    7
 10
107.64310956443317
 20
164.73627799713574
 11
107.64310956443317
 21
166.16255027049499
  0
LINE
  8
_0-0_
  6
CONTINUOUS
 62
    7
 10
107.64310956443317
 20
166.16255027049499
 11
107.39976553392448
 21
166.16255027049499
  0
LINE
  8
_0-0_
  6
CONTINUOUS
 62
    7
 10
107.39976553392448
 20
166.16255027049499
 11
107.39976553392448
 21
165.2234546523124
  0
LINE
  8
_0-0_
  6
CONTINUOUS
 62
    7
 10
106.84452985867925
 20
166.16255027049499
 11
106.84452985867925
 21
165.16861656093016
  0
LINE
  8
_0-0_
  6
CONTINUOUS
 62
    7
 10
106.84452985867925
 20
166.16255027049499
 11
106.60118582817056
 21
166.16255027049499
  0
LINE
  8
_0-0_
  6
CONTINUOUS
 62
    7
 10
106.60118582817056
 20
166.16255027049499
 11
106.60118582817056
 21
165.05894037816563
  0
LINE
  8
_0-0_
  6
CONTINUOUS
 62
    7
 10
107.64310956443317
 20
164.73627799713574
 11
107.39976553392448
 21
164.73627799713574
  0
LINE
  8
_0-0_
  6
CONTINUOUS
 62
    7
 10
107.39976553392448
 20
164.83232995959111
 11
107.39976553392448
 21
164.73627799713574
  0
LINE
  8
_0-0_
  6
CONTINUOUS
 62
    7
 10
107.39976553392448
 20
164.83232995959111
 11
107.34257668114837
 21
164.78569610110856
  0
LINE
  8
_0-0_
  6
CONTINUOUS
 62
    7
 10
107.34257668114837
 20
164.78569610110856
 11
107.28972940595928
 21
164.75266655411542
  0
LINE
  8
_0-0_
  6
CONTINUOUS
 62
    7
 10
107.28972940595928
 20
164.75266655411542
 11
107.22234913009321
 21
164.72624291652085
  0
LINE
  8
_0-0_
  6
CONTINUOUS
 62
    7
 10
107.22234913009321
 20
164.72624291652085
 11
107.17346540054329
 21
164.7143522796033
  0
LINE
  8
_0-0_
  6
CONTINUOUS
 62
    7
 10
107.17346540054329
 20
164.7143522796033
 11
106.99510584678011
 21
164.7143522796033
  0
LINE
  8
_0-0_
  6
CONTINUOUS
 62
    7
 10
106.99510584678011
 20
164.7143522796033
 11
106.92244084339511
 21
164.71963700712217
  0
LINE
  8
_0-0_
  6
CONTINUOUS
 62
    7
 10
106.92244084339511
 20
164.71963700712217
 11
106.8431699306115
 21
164.74077591719788
  0
LINE
  8
_0-0_
  6
CONTINUOUS
 62
    7
 10
106.8431699306115
 20
164.74077591719788
 11
106.77578965474542
 21
164.77248428231132
  0
LINE
  8
_0-0_
  6
CONTINUOUS
 62
    7
 10
106.77578965474542
 20
164.77248428231132
 11
106.73086947083469
 21
164.80815619306395
  0
LINE
  8
_0-0_
  6
CONTINUOUS
 62
    7
 10
106.73086947083469
 20
164.80815619306395
 11
106.68594928692396
 21
164.8596822863733
  0
LINE
  8
_0-0_
  6
CONTINUOUS
 62
    7
 10
106.68594928692396
 20
164.8596822863733
 11
106.64763501241184
 21
164.91649310720163
  0
LINE
  8
_0-0_
  6
CONTINUOUS
 62
    7
 10
106.64763501241184
 20
164.91649310720163
 11
106.61724782917814
 21
164.9944428381055
  0
LINE
  8
_0-0_
  6
CONTINUOUS
 62
    7
 10
106.61724782917814
 20
164.9944428381055
 11
106.60118582817056
 21
165.05894037816563
  0
LINE
  8
_0-0_
  6
CONTINUOUS
 62
    7
 10
106.84452985867925
 20
165.16861656093016
 11
106.8551387984521
 21
165.09958899295771
  0
LINE
  8
_0-0_
  6
CONTINUOUS
 62
    7
 10
106.8551387984521
 20
165.09958899295771
 11
106.88908818582375
 21
165.04602440399356
  0
LINE
  8
_0-0_
  6
CONTINUOUS
 62
    7
 10
106.88908818582375
 20
165.04602440399356
 11
106.94038948229648
 21
165.00981172413037
  0
LINE
  8
_0-0_
  6
CONTINUOUS
 62
    7
 10
106.94038948229648
 20
165.00981172413037
 11
106.98339203963393
 21
164.98944209170742
  0
LINE
  8
_0-0_
  6
CONTINUOUS
 62
    7
 10
106.98339203963393
 20
164.98944209170742
 11
107.04108614472283
 21
164.97344021672404
  0
LINE
  8
_0-0_
  6
CONTINUOUS
 62
    7
 10
107.04108614472283
 20
164.97344021672404
 11
107.1734291951435
 21
164.97212988949218
  0
LINE
  8
_0-0_
  6
CONTINUOUS
 62
    7
 10
107.1734291951435
 20
164.97212988949218
 11
107.24287653843361
 21
164.99571577966617
  0
LINE
  8
_0-0_
  6
CONTINUOUS
 62
    7
 10
107.24287653843361
 20
164.99571577966617
 11
107.29004831878153
 21
165.03109461492716
  0
LINE
  8
_0-0_
  6
CONTINUOUS
 62
    7
 10
107.29004831878153
 20
165.03109461492716
 11
107.33853042636143
 21
165.08743868589829
  0
LINE
  8
_0-0_
  6
CONTINUOUS
 62
    7
 10
107.33853042636143
 20
165.08743868589829
 11
107.3647369709992
 21
165.14378275686954
  0
LINE
  8
_0-0_
  6
CONTINUOUS
 62
    7
 10
107.3647369709992
 20
165.14378275686954
 11
107.38439187947755
 21
165.18833388275374
  0
LINE
  8
_0-0_
  6
CONTINUOUS
 62
    7
 10
107.38439187947755
 20
165.18833388275374
 11
107.39976553392448
 21
165.2234546523124
  0
LINE
  8
_0-0_
  6
CONTINUOUS
 62
    7
 10
106.35360879550937
 20
166.22590201312642
 11
106.20653494055135
 21
166.22590201312642
  0
LINE
  8
_0-0_
  6
CONTINUOUS
 62
    7
 10
106.35360879550937
 20
166.22590201312642
 11
106.35360879550937
 21
165.98189311740055
  0
LINE
  8
_0-0_
  6
CONTINUOUS
 62
    7
 10
106.35360879550937
 20
165.98189311740055
 11
106.25333116712891
 21
165.98189311740055
  0
LINE
  8
_0-0_
  6
CONTINUOUS
 62
    7
 10
106.20653494055135
 20
166.22590201312642
 11
106.1398736984725
 21
166.20499785121706
  0
LINE
  8
_0-0_
  6
CONTINUOUS
 62
    7
 10
106.1398736984725
 20
166.20499785121706
 11
106.08812420734971
 21
166.16187327528144
  0
LINE
  8
_0-0_
  6
CONTINUOUS
 62
    7
 10
106.08812420734971
 20
166.16187327528144
 11
106.04715586021085
 21
166.12306115693934
  0
LINE
  8
_0-0_
  6
CONTINUOUS
 62
    7
 10
106.04715586021085
 20
166.12306115693934
 11
105.9803127675106
 21
166.15540458889109
  0
LINE
  8
_0-0_
  6
CONTINUOUS
 62
    7
 10
105.9803127675106
 20
166.15540458889109
 11
105.87250132767149
 21
166.1769668768589
  0
LINE
  8
_0-0_
  6
CONTINUOUS
 62
    7
 10
105.87250132767149
 20
166.1769668768589
 11
105.72803399828705
 21
166.18990424963954
  0
LINE
  8
_0-0_
  6
CONTINUOUS
 62
    7
 10
105.72803399828705
 20
166.18990424963954
 11
105.58141044010584
 21
166.18774802084278
  0
LINE
  8
_0-0_
  6
CONTINUOUS
 62
    7
 10
105.58141044010584
 20
166.18774802084278
 11
105.41753705155035
 21
166.15324836009427
  0
LINE
  8
_0-0_
  6
CONTINUOUS
 62
    7
 10
105.41753705155035
 20
166.15324836009427
 11
105.33560035727264
 21
166.11874869934576
  0
LINE
  8
_0-0_
  6
CONTINUOUS
 62
    7
 10
105.33560035727264
 20
166.11874869934576
 11
105.28600709494661
 21
166.07993658100372
  0
LINE
  8
_0-0_
  6
CONTINUOUS
 62
    7
 10
105.28600709494661
 20
166.07993658100372
 11
105.22347645983994
 21
166.00231234431953
  0
LINE
  8
_0-0_
  6
CONTINUOUS
 62
    7
 10
105.22347645983994
 20
166.00231234431953
 11
105.17819565510756
 21
165.90743827726112
  0
LINE
  8
_0-0_
  6
CONTINUOUS
 62
    7
 10
105.17819565510756
 20
165.90743827726112
 11
105.17172696871715
 21
165.71553391434742
  0
LINE
  8
_0-0_
  6
CONTINUOUS
 62
    7
 10
105.17172696871715
 20
165.71553391434742
 11
105.18466434149785
 21
165.61850361849224
  0
LINE
  8
_0-0_
  6
CONTINUOUS
 62
    7
 10
105.18466434149785
 20
165.61850361849224
 11
105.2040704006689
 21
165.55166052579199
  0
LINE
  8
_0-0_
  6
CONTINUOUS
 62
    7
 10
105.2040704006689
 20
165.55166052579199
 11
105.21485154465283
 21
165.52578578023065
  0
LINE
  8
_0-0_
  6
CONTINUOUS
 62
    7
 10
105.21485154465283
 20
165.52578578023065
 11
105.21700777344959
 21
165.5063797210596
  0
LINE
  8
_0-0_
  6
CONTINUOUS
 62
    7
 10
105.21700777344959
 20
165.5063797210596
 11
105.18250811270109
 21
165.49344234827879
  0
LINE
  8
_0-0_
  6
CONTINUOUS
 62
    7
 10
105.18250811270109
 20
165.49344234827879
 11
105.15447713834293
 21
165.46325514512392
  0
LINE
  8
_0-0_
  6
CONTINUOUS
 62
    7
 10
105.15447713834293
 20
165.46325514512392
 11
105.12860239278153
 21
165.42659925557859
  0
LINE
  8
_0-0_
  6
CONTINUOUS
 62
    7
 10
105.12860239278153
 20
165.42659925557859
 11
105.10704010481372
 21
165.37053730686227
  0
LINE
  8
_0-0_
  6
CONTINUOUS
 62
    7
 10
105.10704010481372
 20
165.37053730686227
 11
105.10057141842331
 21
165.29291307017809
  0
LINE
  8
_0-0_
  6
CONTINUOUS
 62
    7
 10
105.10057141842331
 20
165.29291307017809
 11
105.10057141842331
 21
165.18941408793251
  0
LINE
  8
_0-0_
  6
CONTINUOUS
 62
    7
 10
105.10057141842331
 20
165.18941408793251
 11
105.11350879120401
 21
165.13766459680971
  0
LINE
  8
_0-0_
  6
CONTINUOUS
 62
    7
 10
105.11350879120401
 20
165.13766459680971
 11
105.13938353676541
 21
165.09022756328056
  0
LINE
  8
_0-0_
  6
CONTINUOUS
 62
    7
 10
105.13938353676541
 20
165.09022756328056
 11
105.17172696871715
 21
165.05357167373529
  0
LINE
  8
_0-0_
  6
CONTINUOUS
 62
    7
 10
105.17172696871715
 20
165.05357167373529
 11
105.18035188390427
 21
165.04063430095448
  0
LINE
  8
_0-0_
  6
CONTINUOUS
 62
    7
 10
105.18035188390427
 20
165.04063430095448
 11
105.12860239278153
 21
164.99535349622204
  0
LINE
  8
_0-0_
  6
CONTINUOUS
 62
    7
 10
105.12860239278153
 20
164.99535349622204
 11
105.09841518962655
 21
164.93929154750572
  0
LINE
  8
_0-0_
  6
CONTINUOUS
 62
    7
 10
105.09841518962655
 20
164.93929154750572
 11
105.08116535925232
 21
164.86813599721194
  0
LINE
  8
_0-0_
  6
CONTINUOUS
 62
    7
 10
105.08116535925232
 20
164.86813599721194
 11
105.08280766823223
 21
164.74734808199742
  0
LINE
  8
_0-0_
  6
CONTINUOUS
 62
    7
 10
105.08280766823223
 20
164.74734808199742
 11
105.08663972251877
 21
164.67645507769691
  0
LINE
  8
_0-0_
  6
CONTINUOUS
 62
    7
 10
105.08663972251877
 20
164.67645507769691
 11
105.10388396680803
 21
164.62089029054255
  0
LINE
  8
_0-0_
  6
CONTINUOUS
 62
    7
 10
105.10388396680803
 20
164.62089029054255
 11
105.14412053681637
 21
164.56149344910165
  0
LINE
  8
_0-0_
  6
CONTINUOUS
 62
    7
 10
105.14412053681637
 20
164.56149344910165
 11
105.18627313396802
 21
164.52317290623648
  0
LINE
  8
_0-0_
  6
CONTINUOUS
 62
    7
 10
105.18627313396802
 20
164.52317290623648
 11
105.24758600255215
 21
164.47910428194172
  0
LINE
  8
_0-0_
  6
CONTINUOUS
 62
    7
 10
105.24758600255215
 20
164.47910428194172
 11
105.32231106113908
 21
164.45036387479286
  0
LINE
  8
_0-0_
  6
CONTINUOUS
 62
    7
 10
105.32231106113908
 20
164.45036387479286
 11
105.39895214686929
 21
164.42737154907377
  0
LINE
  8
_0-0_
  6
CONTINUOUS
 62
    7
 10
105.39895214686929
 20
164.42737154907377
 11
105.47942528688598
 21
164.41970744050082
  0
LINE
  8
_0-0_
  6
CONTINUOUS
 62
    7
 10
105.47942528688598
 20
164.41970744050082
 11
105.90095125840206
 21
164.41779141335752
  0
LINE
  8
_0-0_
  6
CONTINUOUS
 62
    7
 10
105.90095125840206
 20
164.41779141335752
 11
105.9718442627025
 21
164.42353949478729
  0
LINE
  8
_0-0_
  6
CONTINUOUS
 62
    7
 10
105.9718442627025
 20
164.42353949478729
 11
106.04465329414619
 21
164.44461579336308
  0
LINE
  8
_0-0_
  6
CONTINUOUS
 62
    7
 10
106.04465329414619
 20
164.44461579336308
 11
106.10021808130055
 21
164.45994401050916
  0
LINE
  8
_0-0_
  6
CONTINUOUS
 62
    7
 10
106.10021808130055
 20
164.45994401050916
 11
106.15961492274145
 21
164.48676839051473
  0
LINE
  8
_0-0_
  6
CONTINUOUS
 62
    7
 10
106.15961492274145
 20
164.48676839051473
 11
106.20559957417957
 21
164.5212568790933
  0
LINE
  8
_0-0_
  6
CONTINUOUS
 62
    7
 10
106.20559957417957
 20
164.5212568790933
 11
106.24583614418798
 21
164.56532550338818
  0
LINE
  8
_0-0_
  6
CONTINUOUS
 62
    7
 10
106.24583614418798
 20
164.56532550338818
 11
106.28415668705303
 21
164.63238645340203
  0
LINE
  8
_0-0_
  6
CONTINUOUS
 62
    7
 10
106.28415668705303
 20
164.63238645340203
 11
106.31098106705865
 21
164.73010383770804
  0
LINE
  8
_0-0_
  6
CONTINUOUS
 62
    7
 10
106.31098106705865
 20
164.73010383770804
 11
106.31481312134513
 21
164.85847765630615
  0
LINE
  8
_0-0_
  6
CONTINUOUS
 62
    7
 10
106.31481312134513
 20
164.85847765630615
 11
106.30331695848564
 21
164.96577517632841
  0
LINE
  8
_0-0_
  6
CONTINUOUS
 62
    7
 10
106.30331695848564
 20
164.96577517632841
 11
106.26691244276377
 21
165.05582845206141
  0
LINE
  8
_0-0_
  6
CONTINUOUS
 62
    7
 10
106.26691244276377
 20
165.05582845206141
 11
106.20368354703633
 21
165.11522529350225
  0
LINE
  8
_0-0_
  6
CONTINUOUS
 62
    7
 10
106.20368354703633
 20
165.11522529350225
 11
106.12321040701964
 21
165.1650419992269
  0
LINE
  8
_0-0_
  6
CONTINUOUS
 62
    7
 10
106.12321040701964
 20
165.1650419992269
 11
106.02357699557039
 21
165.18995035208923
  0
LINE
  8
_0-0_
  6
CONTINUOUS
 62
    7
 10
106.02357699557039
 20
165.18995035208923
 11
105.92183893254411
 21
165.20133731132921
  0
LINE
  8
_0-0_
  6
CONTINUOUS
 62
    7
 10
105.92183893254411
 20
165.20133731132921
 11
105.73962772950107
 21
165.20773068687458
  0
LINE
  8
_0-0_
  6
CONTINUOUS
 62
    7
 10
105.73962772950107
 20
165.20773068687458
 11
105.60057181138932
 21
165.21572240630627
  0
LINE
  8
_0-0_
  6
CONTINUOUS
 62
    7
 10
105.60057181138932
 20
165.21572240630627
 11
105.42954901555071
 21
165.22850915739696
  0
LINE
  8
_0-0_
  6
CONTINUOUS
 62
    7
 10
105.42954901555071
 20
165.22850915739696
 11
105.36401691621067
 21
165.23809922071507
  0
LINE
  8
_0-0_
  6
CONTINUOUS
 62
    7
 10
105.36401691621067
 20
165.23809922071507
 11
105.33364838237019
 21
165.26686941066919
  0
LINE
  8
_0-0_
  6
CONTINUOUS
 62
    7
 10
105.33364838237019
 20
165.26686941066919
 11
105.32565666293844
 21
165.30203297616879
  0
LINE
  8
_0-0_
  6
CONTINUOUS
 62
    7
 10
105.32565666293844
 20
165.30203297616879
 11
105.3352467262565
 21
165.34199157332728
  0
LINE
  8
_0-0_
  6
CONTINUOUS
 62
    7
 10
105.3352467262565
 20
165.34199157332728
 11
105.35442685289262
 21
165.36436838773614
  0
LINE
  8
_0-0_
  6
CONTINUOUS
 62
    7
 10
105.35442685289262
 20
165.36436838773614
 11
105.3847953867331
 21
165.36596673162239
  0
LINE
  8
_0-0_
  6
CONTINUOUS
 62
    7
 10
105.3847953867331
 20
165.36596673162239
 11
105.41676226445996
 21
165.34678660498628
  0
LINE
  8
_0-0_
  6
CONTINUOUS
 62
    7
 10
105.41676226445996
 20
165.34678660498628
 11
105.45831920550488
 21
165.32920482223653
  0
LINE
  8
_0-0_
  6
CONTINUOUS
 62
    7
 10
105.45831920550488
 20
165.32920482223653
 11
105.51585958541317
 21
165.31162303948679
  0
LINE
  8
_0-0_
  6
CONTINUOUS
 62
    7
 10
105.51585958541317
 20
165.31162303948679
 11
105.58938340418494
 21
165.3036313200551
  0
LINE
  8
_0-0_
  6
CONTINUOUS
 62
    7
 10
105.58938340418494
 20
165.3036313200551
 11
105.70925919566058
 21
165.2988362883961
  0
LINE
  8
_0-0_
  6
CONTINUOUS
 62
    7
 10
105.70925919566058
 20
165.2988362883961
 11
105.8003647971821
 21
165.30043463228242
  0
LINE
  8
_0-0_
  6
CONTINUOUS
 62
    7
 10
105.8003647971821
 20
165.30043463228242
 11
105.90106046202162
 21
165.31162303948679
  0
LINE
  8
_0-0_
  6
CONTINUOUS
 62
    7
 10
105.90106046202162
 20
165.31162303948679
 11
105.98577268799777
 21
165.33240151000928
  0
LINE
  8
_0-0_
  6
CONTINUOUS
 62
    7
 10
105.98577268799777
 20
165.33240151000928
 11
106.05450147511048
 21
165.35957335607702
  0
LINE
  8
_0-0_
  6
CONTINUOUS
 62
    7
 10
106.05450147511048
 20
165.35957335607702
 11
106.10405013558709
 21
165.39473692157662
  0
LINE
  8
_0-0_
  6
CONTINUOUS
 62
    7
 10
106.10405013558709
 20
165.39473692157662
 11
106.15519713995006
 21
165.44428558205323
  0
LINE
  8
_0-0_
  6
CONTINUOUS
 62
    7
 10
106.15519713995006
 20
165.44428558205323
 11
106.19036070544955
 21
165.50022761807514
  0
LINE
  8
_0-0_
  6
CONTINUOUS
 62
    7
 10
106.19036070544955
 20
165.50022761807514
 11
106.21273751985835
 21
165.56416137352886
  0
LINE
  8
_0-0_
  6
CONTINUOUS
 62
    7
 10
106.21273751985835
 20
165.56416137352886
 11
106.22712261483541
 21
165.64088188007327
  0
LINE
  8
_0-0_
  6
CONTINUOUS
 62
    7
 10
106.22712261483541
 20
165.64088188007327
 11
106.22872095872178
 21
165.80710964425293
  0
LINE
  8
_0-0_
  6
CONTINUOUS
 62
    7
 10
106.22872095872178
 20
165.80710964425293
 11
106.21273751985835
 21
165.9030102774334
  0
LINE
  8
_0-0_
  6
CONTINUOUS
 62
    7
 10
106.21273751985835
 20
165.9030102774334
 11
106.19995076876761
 21
165.95415728179637
  0
LINE
  8
_0-0_
  6
CONTINUOUS
 62
    7
 10
106.25333116712891
 20
165.98189311740055
 11
106.19995076876761
 21
165.95415728179637
  0
LINE
  8
_0-0_
  6
CONTINUOUS
 62
    7
 10
105.54569301981876
 20
166.00137931924968
 11
105.88450812743069
 21
165.99835418436021
  0
LINE
  8
_0-0_
  6
CONTINUOUS
 62
    7
 10
105.88450812743069
 20
165.99835418436021
 11
105.9450108252186
 21
165.97717824013449
  0
LINE
  8
_0-0_
  6
CONTINUOUS
 62
    7
 10
105.9450108252186
 20
165.97717824013449
 11
106.00853865789581
 21
165.93785148657241
  0
LINE
  8
_0-0_
  6
CONTINUOUS
 62
    7
 10
106.00853865789581
 20
165.93785148657241
 11
106.05694081612613
 21
165.83499690033307
  0
LINE
  8
_0-0_
  6
CONTINUOUS
 62
    7
 10
106.05694081612613
 20
165.83499690033307
 11
106.05391568123672
 21
165.64743853719074
  0
LINE
  8
_0-0_
  6
CONTINUOUS
 62
    7
 10
106.05391568123672
 20
165.64743853719074
 11
106.03576487190035
 21
165.59298610918165
  0
LINE
  8
_0-0_
  6
CONTINUOUS
 62
    7
 10
106.03576487190035
 20
165.59298610918165
 11
106.00248838811704
 21
165.54760908584075
  0
LINE
  8
_0-0_
  6
CONTINUOUS
 62
    7
 10
106.00248838811704
 20
165.54760908584075
 11
105.92686001588224
 21
165.50525719738926
  0
LINE
  8
_0-0_
  6
CONTINUOUS
 62
    7
 10
105.92686001588224
 20
165.50525719738926
 11
105.8421562389792
 21
165.48408125316348
  0
LINE
  8
_0-0_
  6
CONTINUOUS
 62
    7
 10
105.8421562389792
 20
165.48408125316348
 11
105.56989409893389
 21
165.47500584849536
  0
LINE
  8
_0-0_
  6
CONTINUOUS
 62
    7
 10
105.56989409893389
 20
165.47500584849536
 11
105.47308978247331
 21
165.49618179272107
  0
LINE
  8
_0-0_
  6
CONTINUOUS
 62
    7
 10
105.47308978247331
 20
165.49618179272107
 11
105.39443627534909
 21
165.55063422073016
  0
LINE
  8
_0-0_
  6
CONTINUOUS
 62
    7
 10
105.39443627534909
 20
165.55063422073016
 11
105.3520843868976
 21
165.61416205340743
  0
LINE
  8
_0-0_
  6
CONTINUOUS
 62
    7
 10
105.3520843868976
 20
165.61416205340743
 11
105.3369587124506
 21
165.67768988608464
  0
LINE
  8
_0-0_
  6
CONTINUOUS
 62
    7
 10
105.3369587124506
 20
165.67768988608464
 11
105.34603411711878
 21
165.83197176544365
  0
LINE
  8
_0-0_
  6
CONTINUOUS
 62
    7
 10
105.54569301981876
 20
166.00137931924968
 11
105.50127549216988
 21
165.98975643256938
  0
LINE
  8
_0-0_
  6
CONTINUOUS
 62
    7
 10
105.50127549216988
 20
165.98975643256938
 11
105.431827277777
 21
165.95827324204458
  0
LINE
  8
_0-0_
  6
CONTINUOUS
 62
    7
 10
105.431827277777
 20
165.95827324204458
 11
105.37904663483833
 21
165.90827052768168
  0
LINE
  8
_0-0_
  6
CONTINUOUS
 62
    7
 10
105.37904663483833
 20
165.90827052768168
 11
105.35311930146501
 21
165.85734183712685
  0
LINE
  8
_0-0_
  6
CONTINUOUS
 62
    7
 10
105.35311930146501
 20
165.85734183712685
 11
105.34603411711878
 21
165.83197176544365
  0
LINE
  8
_0-0_
  6
CONTINUOUS
 62
    7
 10
105.39342565373549
 20
165.06378598311329
 11
105.97333210907298
 21
165.02388416279189
  0
LINE
  8
_0-0_
  6
CONTINUOUS
 62
    7
 10
105.97333210907298
 20
165.02388416279189
 11
106.05047562836101
 21
165.00260319195388
  0
LINE
  8
_0-0_
  6
CONTINUOUS
 62
    7
 10
106.05047562836101
 20
165.00260319195388
 11
106.12229890493954
 21
164.93876027943963
  0
LINE
  8
_0-0_
  6
CONTINUOUS
 62
    7
 10
106.12229890493954
 20
164.93876027943963
 11
106.14623999713233
 21
164.86161676015161
  0
LINE
  8
_0-0_
  6
CONTINUOUS
 62
    7
 10
106.14623999713233
 20
164.86161676015161
 11
106.1382596330681
 21
164.73127081376839
  0
LINE
  8
_0-0_
  6
CONTINUOUS
 62
    7
 10
106.1382596330681
 20
164.73127081376839
 11
106.0983578127467
 21
164.68072850802793
  0
LINE
  8
_0-0_
  6
CONTINUOUS
 62
    7
 10
106.0983578127467
 20
164.68072850802793
 11
106.03451490023245
 21
164.64082668770652
  0
LINE
  8
_0-0_
  6
CONTINUOUS
 62
    7
 10
106.03451490023245
 20
164.64082668770652
 11
105.93609041010636
 21
164.60890523144951
  0
LINE
  8
_0-0_
  6
CONTINUOUS
 62
    7
 10
105.93609041010636
 20
164.60890523144951
 11
105.69933960953277
 21
164.59560462467567
  0
LINE
  8
_0-0_
  6
CONTINUOUS
 62
    7
 10
105.69933960953277
 20
164.59560462467567
 11
105.49185014386158
 21
164.60092486738517
  0
LINE
  8
_0-0_
  6
CONTINUOUS
 62
    7
 10
105.49185014386158
 20
164.60092486738517
 11
105.38278516831643
 21
164.62220583822329
  0
LINE
  8
_0-0_
  6
CONTINUOUS
 62
    7
 10
105.38278516831643
 20
164.62220583822329
 11
105.32160237715696
 21
164.65146717312564
  0
LINE
  8
_0-0_
  6
CONTINUOUS
 62
    7
 10
105.32160237715696
 20
164.65146717312564
 11
105.26307970735228
 21
164.72329044970411
  0
LINE
  8
_0-0_
  6
CONTINUOUS
 62
    7
 10
105.26307970735228
 20
164.72329044970411
 11
105.24179873651416
 21
164.8270351825397
  0
LINE
  8
_0-0_
  6
CONTINUOUS
 62
    7
 10
105.24179873651416
 20
164.8270351825397
 11
105.25243922193322
 21
164.93344003673008
  0
LINE
  8
_0-0_
  6
CONTINUOUS
 62
    7
 10
105.25243922193322
 20
164.93344003673008
 11
105.28968092089984
 21
164.98398234247054
  0
LINE
  8
_0-0_
  6
CONTINUOUS
 62
    7
 10
105.28968092089984
 20
164.98398234247054
 11
105.33490298393075
 21
165.02920440550145
  0
LINE
  8
_0-0_
  6
CONTINUOUS
 62
    7
 10
105.33490298393075
 20
165.02920440550145
 11
105.39342565373549
 21
165.06378598311329
  0
LINE
  8
_0-0_
  6
CONTINUOUS
 62
    7
 10
100.55714041486515
 20
165.23752283278321
 11
100.31470707048855
 21
165.23752283278321
  0
LINE
  8
_0-0_
  6
CONTINUOUS
 62
    7
 10
100.5585724045677
 20
165.353890838084
 11
100.5585724045677
 21
165.65207129035406
  0
LINE
  8
_0-0_
  6
CONTINUOUS
 62
    7
 10
100.5585724045677
 20
165.65207129035406
 11
100.55088233012769
 21
165.78119935066849
  0
LINE
  8
_0-0_
  6
CONTINUOUS
 62
    7
 10
100.55088233012769
 20
165.78119935066849
 11
100.52753254415846
 21
165.88009256183227
  0
LINE
  8
_0-0_
  6
CONTINUOUS
 62
    7
 10
100.52753254415846
 20
165.88009256183227
 11
100.47671242175487
 21
165.98860039074799
  0
LINE
  8
_0-0_
  6
CONTINUOUS
 62
    7
 10
100.47671242175487
 20
165.98860039074799
 11
100.39704844609518
 21
166.07787898415972
  0
LINE
  8
_0-0_
  6
CONTINUOUS
 62
    7
 10
100.39704844609518
 20
166.07787898415972
 11
100.31875798725723
 21
166.12732558974153
  0
LINE
  8
_0-0_
  6
CONTINUOUS
 62
    7
 10
100.31875798725723
 20
166.12732558974153
 11
100.24321456206273
 21
166.15891647664108
  0
LINE
  8
_0-0_
  6
CONTINUOUS
 62
    7
 10
100.24321456206273
 20
166.15891647664108
 11
100.15256245182933
 21
166.17814571214512
  0
LINE
  8
_0-0_
  6
CONTINUOUS
 62
    7
 10
100.15256245182933
 20
166.17814571214512
 11
100.01658428647919
 21
166.18638681307544
  0
LINE
  8
_0-0_
  6
CONTINUOUS
 62
    7
 10
100.01658428647919
 20
166.18638681307544
 11
99.912197008028542
 21
166.18501329625371
  0
LINE
  8
_0-0_
  6
CONTINUOUS
 62
    7
 10
99.912197008028542
 20
166.18501329625371
 11
99.817424347330004
 21
166.17265164485821
  0
LINE
  8
_0-0_
  6
CONTINUOUS
 62
    7
 10
99.817424347330004
 20
166.17265164485821
 11
99.72814575391827
 21
166.14792834206736
  0
LINE
  8
_0-0_
  6
CONTINUOUS
 62
    7
 10
99.72814575391827
 20
166.14792834206736
 11
99.625131992289354
 21
166.09298766919858
  0
LINE
  8
_0-0_
  6
CONTINUOUS
 62
    7
 10
99.625131992289354
 20
166.09298766919858
 11
99.561950218490367
 21
166.03117941222126
  0
LINE
  8
_0-0_
  6
CONTINUOUS
 62
    7
 10
99.561950218490367
 20
166.03117941222126
 11
99.509756579265044
 21
165.95288895338331
  0
LINE
  8
_0-0_
  6
CONTINUOUS
 62
    7
 10
99.509756579265044
 20
165.95288895338331
 11
99.469924591435174
 21
165.85674277586304
  0
LINE
  8
_0-0_
  6
CONTINUOUS
 62
    7
 10
99.469924591435174
 20
165.85674277586304
 11
99.446574805466
 21
165.77570528338163
  0
LINE
  8
_0-0_
  6
CONTINUOUS
 62
    7
 10
99.446574805466
 20
165.77570528338163
 11
99.43833370453568
 21
165.69054724043508
  0
LINE
  8
_0-0_
  6
CONTINUOUS
 62
    7
 10
99.43833370453568
 20
165.69054724043508
 11
99.435028012495806
 21
165.63273855057588
  0
LINE
  8
_0-0_
  6
CONTINUOUS
 62
    7
 10
99.435028012495806
 20
165.63273855057588
 11
99.438796287921193
 21
165.16672848963617
  0
LINE
  8
_0-0_
  6
CONTINUOUS
 62
    7
 10
99.438796287921193
 20
165.16672848963617
 11
99.454640616976675
 21
165.06506315212323
  0
LINE
  8
_0-0_
  6
CONTINUOUS
 62
    7
 10
99.454640616976675
 20
165.06506315212323
 11
99.490751629408052
 21
164.96876711897295
  0
LINE
  8
_0-0_
  6
CONTINUOUS
 62
    7
 10
99.490751629408052
 20
164.96876711897295
 11
99.525525196934595
 21
164.90323231863454
  0
LINE
  8
_0-0_
  6
CONTINUOUS
 62
    7
 10
99.525525196934595
 20
164.90323231863454
 11
99.58704766255839
 21
164.82967284886695
  0
LINE
  8
_0-0_
  6
CONTINUOUS
 62
    7
 10
99.58704766255839
 20
164.82967284886695
 11
99.647232683277352
 21
164.78018738738689
  0
LINE
  8
_0-0_
  6
CONTINUOUS
 62
    7
 10
99.647232683277352
 20
164.78018738738689
 11
99.712767483615821
 21
164.74808870967007
  0
LINE
  8
_0-0_
  6
CONTINUOUS
 62
    7
 10
99.712767483615821
 20
164.74808870967007
 11
99.772226356962548
 21
164.73003135103761
  0
LINE
  8
_0-0_
  6
CONTINUOUS
 62
    7
 10
99.772226356962548
 20
164.73003135103761
 11
99.831044294108423
 21
164.71623455096636
  0
LINE
  8
_0-0_
  6
CONTINUOUS
 62
    7
 10
99.831044294108423
 20
164.71623455096636
 11
99.921812715629798
 21
164.71332996147771
  0
LINE
  8
_0-0_
  6
CONTINUOUS
 62
    7
 10
99.921812715629798
 20
164.71332996147771
 11
100.03581785306061
 21
164.710425371989
  0
LINE
  8
_0-0_
  6
CONTINUOUS
 62
    7
 10
100.03581785306061
 20
164.710425371989
 11
100.14038307465323
 21
164.710425371989
  0
LINE
  8
_0-0_
  6
CONTINUOUS
 62
    7
 10
100.14038307465323
 20
164.710425371989
 11
100.20864092763729
 21
164.71550840359419
  0
LINE
  8
_0-0_
  6
CONTINUOUS
 62
    7
 10
100.20864092763729
 20
164.71550840359419
 11
100.29287402280913
 21
164.74673274059762
  0
LINE
  8
_0-0_
  6
CONTINUOUS
 62
    7
 10
100.29287402280913
 20
164.74673274059762
 11
100.3807378548418
 21
164.78231396183395
  0
LINE
  8
_0-0_
  6
CONTINUOUS
 62
    7
 10
100.3807378548418
 20
164.78231396183395
 11
100.44609111833721
 21
164.84548878321277
  0
LINE
  8
_0-0_
  6
CONTINUOUS
 62
    7
 10
100.44609111833721
 20
164.84548878321277
 11
100.49401684490049
 21
164.90938975196383
  0
LINE
  8
_0-0_
  6
CONTINUOUS
 62
    7
 10
100.49401684490049
 20
164.90938975196383
 11
100.52741962402034
 21
164.9805521944366
  0
LINE
  8
_0-0_
  6
CONTINUOUS
 62
    7
 10
100.52741962402034
 20
164.9805521944366
 11
100.54775175044112
 21
165.07495135281886
  0
LINE
  8
_0-0_
  6
CONTINUOUS
 62
    7
 10
100.54775175044112
 20
165.07495135281886
 11
100.55937010839584
 21
165.13594773208115
  0
LINE
  8
_0-0_
  6
CONTINUOUS
 62
    7
 10
100.55937010839584
 20
165.13594773208115
 11
100.55714041486515
 21
165.23752283278321
  0
LINE
  8
_0-0_
  6
CONTINUOUS
 62
    7
 10
99.686318112266221
 20
165.22921955351006
 11
99.687283050847199
 21
165.15781409851775
  0
LINE
  8
_0-0_
  6
CONTINUOUS
 62
    7
 10
99.687283050847199
 20
165.15781409851775
 11
99.702722068142791
 21
165.10281259940211
  0
LINE
  8
_0-0_
  6
CONTINUOUS
 62
    7
 10
99.702722068142791
 20
165.10281259940211
 11
99.741319611381854
 21
165.05070591602947
  0
LINE
  8
_0-0_
  6
CONTINUOUS
 62
    7
 10
99.741319611381854
 20
165.05070591602947
 11
99.779917154620861
 21
165.01500318853334
  0
LINE
  8
_0-0_
  6
CONTINUOUS
 62
    7
 10
99.779917154620861
 20
165.01500318853334
 11
99.837813469479485
 21
164.98605503110406
  0
LINE
  8
_0-0_
  6
CONTINUOUS
 62
    7
 10
99.837813469479485
 20
164.98605503110406
 11
99.911148801633644
 21
164.97640564529434
  0
LINE
  8
_0-0_
  6
CONTINUOUS
 62
    7
 10
99.911148801633644
 20
164.97640564529434
 11
100.07229354465663
 21
164.97447576813238
  0
LINE
  8
_0-0_
  6
CONTINUOUS
 62
    7
 10
100.07229354465663
 20
164.97447576813238
 11
100.14562887681085
 21
164.9754407067133
  0
LINE
  8
_0-0_
  6
CONTINUOUS
 62
    7
 10
100.14562887681085
 20
164.9754407067133
 11
100.20256025308838
 21
164.98123033819923
  0
LINE
  8
_0-0_
  6
CONTINUOUS
 62
    7
 10
100.20256025308838
 20
164.98123033819923
 11
100.25273705929918
 21
165.01403824995236
  0
LINE
  8
_0-0_
  6
CONTINUOUS
 62
    7
 10
100.25273705929918
 20
165.01403824995236
 11
100.28940472537623
 21
165.06807481048702
  0
LINE
  8
_0-0_
  6
CONTINUOUS
 62
    7
 10
100.28940472537623
 20
165.06807481048702
 11
100.30580868125286
 21
165.12790100250754
  0
LINE
  8
_0-0_
  6
CONTINUOUS
 62
    7
 10
100.30580868125286
 20
165.12790100250754
 11
100.31352818990062
 21
165.19930645749974
  0
LINE
  8
_0-0_
  6
CONTINUOUS
 62
    7
 10
100.31352818990062
 20
165.19930645749974
 11
100.31470707048855
 21
165.23752283278321
  0
LINE
  8
_0-0_
  6
CONTINUOUS
 62
    7
 10
99.685387729545525
 20
165.353890838084
 11
99.686318112266221
 21
165.22921955351006
  0
LINE
  8
_0-0_
  6
CONTINUOUS
 62
    7
 10
100.5585724045677
 20
165.353890838084
 11
99.685387729545525
 21
165.353890838084
  0
LINE
  8
_0-0_
  6
CONTINUOUS
 62
    7
 10
99.670024847784688
 20
165.59225123042313
 11
99.673737134913765
 21
165.65793520921943
  0
LINE
  8
_0-0_
  6
CONTINUOUS
 62
    7
 10
99.673737134913765
 20
165.65793520921943
 11
99.698814038007512
 21
165.76964141390982
  0
LINE
  8
_0-0_
  6
CONTINUOUS
 62
    7
 10
99.698814038007512
 20
165.76964141390982
 11
99.736249380045351
 21
165.84867158043409
  0
LINE
  8
_0-0_
  6
CONTINUOUS
 62
    7
 10
99.736249380045351
 20
165.84867158043409
 11
99.798100579130491
 21
165.90852757954872
  0
LINE
  8
_0-0_
  6
CONTINUOUS
 62
    7
 10
99.798100579130491
 20
165.90852757954872
 11
99.850725290643922
 21
165.93211796746857
  0
LINE
  8
_0-0_
  6
CONTINUOUS
 62
    7
 10
99.850725290643922
 20
165.93211796746857
 11
99.907868269511411
 21
165.93619960881625
  0
LINE
  8
_0-0_
  6
CONTINUOUS
 62
    7
 10
99.907868269511411
 20
165.93619960881625
 11
100.08916633112464
 21
165.93619960881625
  0
LINE
  8
_0-0_
  6
CONTINUOUS
 62
    7
 10
100.08916633112464
 20
165.93619960881625
 11
100.15495969344907
 21
165.9238633533804
  0
LINE
  8
_0-0_
  6
CONTINUOUS
 62
    7
 10
100.15495969344907
 20
165.9238633533804
 11
100.224113323499
 21
165.88829862935472
  0
LINE
  8
_0-0_
  6
CONTINUOUS
 62
    7
 10
100.224113323499
 20
165.88829862935472
 11
100.27709200878716
 21
165.82747124994984
  0
LINE
  8
_0-0_
  6
CONTINUOUS
 62
    7
 10
100.27709200878716
 20
165.82747124994984
 11
100.30990688551331
 21
165.74543405813438
  0
LINE
  8
_0-0_
  6
CONTINUOUS
 62
    7
 10
100.30990688551331
 20
165.74543405813438
 11
100.3189405484237
 21
165.63703010321012
  0
LINE
  8
_0-0_
  6
CONTINUOUS
 62
    7
 10
100.3189405484237
 20
165.63703010321012
 11
100.31802330306316
 21
165.59225123042313
  0
LINE
  8
_0-0_
  6
CONTINUOUS
 62
    7
 10
100.31802330306316
 20
165.59225123042313
 11
99.670024847784688
 21
165.59225123042313
  0
LINE
  8
_0-0_
  6
CONTINUOUS
 62
    7
 10
112.46416386123222
 20
165.23752283278321
 11
112.22173051685563
 21
165.23752283278321
  0
LINE
  8
_0-0_
  6
CONTINUOUS
 62
    7
 10
112.46559585093478
 20
165.353890838084
 11
112.46559585093478
 21
165.65207129035406
  0
LINE
  8
_0-0_
  6
CONTINUOUS
 62
    7
 10
112.46559585093478
 20
165.65207129035406
 11
112.45790577649477
 21
165.78119935066849
  0
LINE
  8
_0-0_
  6
CONTINUOUS
 62
    7
 10
112.45790577649477
 20
165.78119935066849
 11
112.43455599052554
 21
165.88009256183227
  0
LINE
  8
_0-0_
  6
CONTINUOUS
 62
    7
 10
112.43455599052554
 20
165.88009256183227
 11
112.38373586812195
 21
165.98860039074799
  0
LINE
  8
_0-0_
  6
CONTINUOUS
 62
    7
 10
112.38373586812195
 20
165.98860039074799
 11
112.30407189246226
 21
166.07787898415972
  0
LINE
  8
_0-0_
  6
CONTINUOUS
 62
    7
 10
112.30407189246226
 20
166.07787898415972
 11
112.22578143362431
 21
166.12732558974153
  0
LINE
  8
_0-0_
  6
CONTINUOUS
 62
    7
 10
112.22578143362431
 20
166.12732558974153
 11
112.15023800842981
 21
166.15891647664108
  0
LINE
  8
_0-0_
  6
CONTINUOUS
 62
    7
 10
112.15023800842981
 20
166.15891647664108
 11
112.0595858981964
 21
166.17814571214512
  0
LINE
  8
_0-0_
  6
CONTINUOUS
 62
    7
 10
112.0595858981964
 20
166.17814571214512
 11
111.92360773284626
 21
166.18638681307544
  0
LINE
  8
_0-0_
  6
CONTINUOUS
 62
    7
 10
111.92360773284626
 20
166.18638681307544
 11
111.81922045439562
 21
166.18501329625371
  0
LINE
  8
_0-0_
  6
CONTINUOUS
 62
    7
 10
111.81922045439562
 20
166.18501329625371
 11
111.72444779369708
 21
166.17265164485821
  0
LINE
  8
_0-0_
  6
CONTINUOUS
 62
    7
 10
111.72444779369708
 20
166.17265164485821
 11
111.63516920028535
 21
166.14792834206736
  0
LINE
  8
_0-0_
  6
CONTINUOUS
 62
    7
 10
111.63516920028535
 20
166.14792834206736
 11
111.53215543865643
 21
166.09298766919858
  0
LINE
  8
_0-0_
  6
CONTINUOUS
 62
    7
 10
111.53215543865643
 20
166.09298766919858
 11
111.46897366485744
 21
166.03117941222126
  0
LINE
  8
_0-0_
  6
CONTINUOUS
 62
    7
 10
111.46897366485744
 20
166.03117941222126
 11
111.41678002563212
 21
165.95288895338331
  0
LINE
  8
_0-0_
  6
CONTINUOUS
 62
    7
 10
111.41678002563212
 20
165.95288895338331
 11
111.37694803780225
 21
165.85674277586304
  0
LINE
  8
_0-0_
  6
CONTINUOUS
 62
    7
 10
111.37694803780225
 20
165.85674277586304
 11
111.35359825183308
 21
165.77570528338163
  0
LINE
  8
_0-0_
  6
CONTINUOUS
 62
    7
 10
111.35359825183308
 20
165.77570528338163
 11
111.34535715090276
 21
165.69054724043508
  0
LINE
  8
_0-0_
  6
CONTINUOUS
 62
    7
 10
111.34535715090276
 20
165.69054724043508
 11
111.34205145886288
 21
165.63273855057588
  0
LINE
  8
_0-0_
  6
CONTINUOUS
 62
    7
 10
111.34205145886288
 20
165.63273855057588
 11
111.34581973428827
 21
165.16672848963617
  0
LINE
  8
_0-0_
  6
CONTINUOUS
 62
    7
 10
111.34581973428827
 20
165.16672848963617
 11
111.36166406334375
 21
165.06506315212323
  0
LINE
  8
_0-0_
  6
CONTINUOUS
 62
    7
 10
111.36166406334375
 20
165.06506315212323
 11
111.39777507577513
 21
164.96876711897295
  0
LINE
  8
_0-0_
  6
CONTINUOUS
 62
    7
 10
111.39777507577513
 20
164.96876711897295
 11
111.43254864330167
 21
164.90323231863454
  0
LINE
  8
_0-0_
  6
CONTINUOUS
 62
    7
 10
111.43254864330167
 20
164.90323231863454
 11
111.49407110892547
 21
164.82967284886695
  0
LINE
  8
_0-0_
  6
CONTINUOUS
 62
    7
 10
111.49407110892547
 20
164.82967284886695
 11
111.55425612964443
 21
164.78018738738689
  0
LINE
  8
_0-0_
  6
CONTINUOUS
 62
    7
 10
111.55425612964443
 20
164.78018738738689
 11
111.6197909299829
 21
164.74808870967007
  0
LINE
  8
_0-0_
  6
CONTINUOUS
 62
    7
 10
111.6197909299829
 20
164.74808870967007
 11
111.67924980332963
 21
164.73003135103761
  0
LINE
  8
_0-0_
  6
CONTINUOUS
 62
    7
 10
111.67924980332963
 20
164.73003135103761
 11
111.7380677404755
 21
164.71623455096636
  0
LINE
  8
_0-0_
  6
CONTINUOUS
 62
    7
 10
111.7380677404755
 20
164.71623455096636
 11
111.82883616199688
 21
164.71332996147771
  0
LINE
  8
_0-0_
  6
CONTINUOUS
 62
    7
 10
111.82883616199688
 20
164.71332996147771
 11
111.94284129942768
 21
164.710425371989
  0
LINE
  8
_0-0_
  6
CONTINUOUS
 62
    7
 10
111.94284129942768
 20
164.710425371989
 11
112.04740652102031
 21
164.710425371989
  0
LINE
  8
_0-0_
  6
CONTINUOUS
 62
    7
 10
112.04740652102031
 20
164.710425371989
 11
112.11566437400437
 21
164.71550840359419
  0
LINE
  8
_0-0_
  6
CONTINUOUS
 62
    7
 10
112.11566437400437
 20
164.71550840359419
 11
112.19989746917621
 21
164.74673274059762
  0
LINE
  8
_0-0_
  6
CONTINUOUS
 62
    7
 10
112.19989746917621
 20
164.74673274059762
 11
112.28776130120887
 21
164.78231396183395
  0
LINE
  8
_0-0_
  6
CONTINUOUS
 62
    7
 10
112.28776130120887
 20
164.78231396183395
 11
112.35311456470428
 21
164.84548878321277
  0
LINE
  8
_0-0_
  6
CONTINUOUS
 62
    7
 10
112.35311456470428
 20
164.84548878321277
 11
112.40104029126756
 21
164.90938975196383
  0
LINE
  8
_0-0_
  6
CONTINUOUS
 62
    7
 10
112.40104029126756
 20
164.90938975196383
 11
112.43444307038742
 21
164.9805521944366
  0
LINE
  8
_0-0_
  6
CONTINUOUS
 62
    7
 10
112.43444307038742
 20
164.9805521944366
 11
112.4547751968082
 21
165.07495135281886
  0
LINE
  8
_0-0_
  6
CONTINUOUS
 62
    7
 10
112.4547751968082
 20
165.07495135281886
 11
112.46639355476292
 21
165.13594773208115
  0
LINE
  8
_0-0_
  6
CONTINUOUS
 62
    7
 10
112.46639355476292
 20
165.13594773208115
 11
112.46416386123222
 21
165.23752283278321
  0
LINE
  8
_0-0_
  6
CONTINUOUS
 62
    7
 10
111.5933415586333
 20
165.22921955351006
 11
111.59430649721428
 21
165.15781409851775
  0
LINE
  8
_0-0_
  6
CONTINUOUS
 62
    7
 10
111.59430649721428
 20
165.15781409851775
 11
111.60974551450987
 21
165.10281259940211
  0
LINE
  8
_0-0_
  6
CONTINUOUS
 62
    7
 10
111.60974551450987
 20
165.10281259940211
 11
111.64834305774893
 21
165.05070591602947
  0
LINE
  8
_0-0_
  6
CONTINUOUS
 62
    7
 10
111.64834305774893
 20
165.05070591602947
 11
111.68694060098794
 21
165.01500318853334
  0
LINE
  8
_0-0_
  6
CONTINUOUS
 62
    7
 10
111.68694060098794
 20
165.01500318853334
 11
111.74483691584656
 21
164.98605503110406
  0
LINE
  8
_0-0_
  6
CONTINUOUS
 62
    7
 10
111.74483691584656
 20
164.98605503110406
 11
111.81817224800072
 21
164.97640564529434
  0
LINE
  8
_0-0_
  6
CONTINUOUS
 62
    7
 10
111.81817224800072
 20
164.97640564529434
 11
111.97931699102371
 21
164.97447576813238
  0
LINE
  8
_0-0_
  6
CONTINUOUS
 62
    7
 10
111.97931699102371
 20
164.97447576813238
 11
112.05265232317792
 21
164.9754407067133
  0
LINE
  8
_0-0_
  6
CONTINUOUS
 62
    7
 10
112.05265232317792
 20
164.9754407067133
 11
112.10958369945546
 21
164.98123033819923
  0
LINE
  8
_0-0_
  6
CONTINUOUS
 62
    7
 10
112.10958369945546
 20
164.98123033819923
 11
112.15976050566626
 21
165.01403824995236
  0
LINE
  8
_0-0_
  6
CONTINUOUS
 62
    7
 10
112.15976050566626
 20
165.01403824995236
 11
112.19642817174331
 21
165.06807481048702
  0
LINE
  8
_0-0_
  6
CONTINUOUS
 62
    7
 10
112.19642817174331
 20
165.06807481048702
 11
112.21283212761993
 21
165.12790100250754
  0
LINE
  8
_0-0_
  6
CONTINUOUS
 62
    7
 10
112.21283212761993
 20
165.12790100250754
 11
112.2205516362677
 21
165.19930645749974
  0
LINE
  8
_0-0_
  6
CONTINUOUS
 62
    7
 10
112.2205516362677
 20
165.19930645749974
 11
112.22173051685563
 21
165.23752283278321
  0
LINE
  8
_0-0_
  6
CONTINUOUS
 62
    7
 10
111.5924111759126
 20
165.353890838084
 11
111.5933415586333
 21
165.22921955351006
  0
LINE
  8
_0-0_
  6
CONTINUOUS
 62
    7
 10
112.46559585093478
 20
165.353890838084
 11
111.5924111759126
 21
165.353890838084
  0
LINE
  8
_0-0_
  6
CONTINUOUS
 62
    7
 10
111.57704829415177
 20
165.59225123042313
 11
111.58076058128084
 21
165.65793520921943
  0
LINE
  8
_0-0_
  6
CONTINUOUS
 62
    7
 10
111.58076058128084
 20
165.65793520921943
 11
111.60583748437459
 21
165.76964141390982
  0
LINE
  8
_0-0_
  6
CONTINUOUS
 62
    7
 10
111.60583748437459
 20
165.76964141390982
 11
111.64327282641243
 21
165.84867158043409
  0
LINE
  8
_0-0_
  6
CONTINUOUS
 62
    7
 10
111.64327282641243
 20
165.84867158043409
 11
111.70512402549757
 21
165.90852757954872
  0
LINE
  8
_0-0_
  6
CONTINUOUS
 62
    7
 10
111.70512402549757
 20
165.90852757954872
 11
111.757748737011
 21
165.93211796746857
  0
LINE
  8
_0-0_
  6
CONTINUOUS
 62
    7
 10
111.757748737011
 20
165.93211796746857
 11
111.81489171587849
 21
165.93619960881625
  0
LINE
  8
_0-0_
  6
CONTINUOUS
 62
    7
 10
111.81489171587849
 20
165.93619960881625
 11
111.99618977749172
 21
165.93619960881625
  0
LINE
  8
_0-0_
  6
CONTINUOUS
 62
    7
 10
111.99618977749172
 20
165.93619960881625
 11
112.06198313981615
 21
165.9238633533804
  0
LINE
  8
_0-0_
  6
CONTINUOUS
 62
    7
 10
112.06198313981615
 20
165.9238633533804
 11
112.13113676986607
 21
165.88829862935472
  0
LINE
  8
_0-0_
  6
CONTINUOUS
 62
    7
 10
112.13113676986607
 20
165.88829862935472
 11
112.18411545515424
 21
165.82747124994984
  0
LINE
  8
_0-0_
  6
CONTINUOUS
 62
    7
 10
112.18411545515424
 20
165.82747124994984
 11
112.21693033188039
 21
165.74543405813438
  0
LINE
  8
_0-0_
  6
CONTINUOUS
 62
    7
 10
112.21693033188039
 20
165.74543405813438
 11
112.22596399479077
 21
165.63703010321012
  0
LINE
  8
_0-0_
  6
CONTINUOUS
 62
    7
 10
112.22596399479077
 20
165.63703010321012
 11
112.22504674943023
 21
165.59225123042313
  0
LINE
  8
_0-0_
  6
CONTINUOUS
 62
    7
 10
112.22504674943023
 20
165.59225123042313
 11
111.57704829415177
 21
165.59225123042313
  0
ENDSEC
  0
EOF
