  0
SECTION
  2
HEADER
  9
$ACADVER
  1
AC1009
  9
$INSBASE
 10
0
 20
0
 30
0
  9
$EXTMIN
 10
0
 20
0
  9
$EXTMAX
 10
420
 20
297
  9
$LIMMIN
 10
0
 20
0
  9
$LIMMAX
 10
420
 20
297
  9
$LTSCALE
 40
1
  0
ENDSEC
  0
SECTION
  2
TABLES
  0
TABLE
  2
LTYPE
 70
     9
  0
LTYPE
  2
CONTINUOUS
 70
    64
  3
実線
 72
    65
 73
     0
 40
0.0
  0
LTYPE
  2
DASHED1
 70
    64
  3
--  --  --  --  --  --  --  --  
 72
    65
 73
     2
 40
2.5
 49
1.25
 49
-1.25
  0
LTYPE
  2
DASHED2
 70
    64
  3
----    ----    ----    ----    
 72
    65
 73
     2
 40
5.0
 49
2.5
 49
-2.5
  0
LTYPE
  2
DASHED3
 70
    64
  3
------  ------  ------  ------  
 72
    65
 73
     2
 40
5.0
 49
3.75
 49
-1.25
  0
LTYPE
  2
CENTER1
 70
    64
  3
----- - ----- - ----- - ----- - 
 72
    65
 73
     4
 40
10.0
 49
6.25
 49
-1.25
 49
1.25
 49
-1.25
  0
LTYPE
  2
CENTER2
 70
    64
  3
----------  --  ----------  --  
 72
    65
 73
     4
 40
20.0
 49
12.5
 49
-2.5
 49
2.5
 49
-2.5
  0
LTYPE
  2
PHANTOM1
 70
    64
  3
--- - - --- - - --- - - --- - - 
 72
    65
 73
     6
 40
10.0
 49
3.25
 49
-1.25
 49
1.25
 49
-1.25
 49
1.25
 49
-1.25
  0
LTYPE
  2
PHANTOM2
 70
    64
  3
--------  -  -  --------  -  -  
 72
    65
 73
     6
 40
20.0
 49
10.0
 49
-2.5
 49
1.25
 49
-2.5
 49
1.25
 49
-2.5
  0
LTYPE
  2
DOT
 70
    64
  3
-   -   -   -   -   -   -   -   
 72
    65
 73
     2
 40
2.5
 49
0.625
 49
-1.875
  0
LTYPE
  2
DUMMY
 70
    64
  3
ダミー
 72
    65
 73
     0
 40
0.0
  0
LTYPE
  2
RAND1
 70
    64
  3
ランダム線1
 72
    65
 73
     4
 40
10.0
 49
1.0
 49
-2.0
 49
3.0
 49
-4.0
  0
LTYPE
  2
RAND2
 70
    64
  3
ランダム線2
 72
    65
 73
     4
 40
14.0
 49
2.0
 49
-3.0
 49
4.0
 49
-5.0
  0
LTYPE
  2
RAND3
 70
    64
  3
ランダム線3
 72
    65
 73
     4
 40
18.0
 49
3.0
 49
-4.0
 49
5.0
 49
-6.0
  0
LTYPE
  2
RAND4
 70
    64
  3
ランダム線4
 72
    65
 73
     4
 40
22.0
 49
4.0
 49
-5.0
 49
6.0
 49
-7.0
  0
LTYPE
  2
RAND5
 70
    64
  3
ランダム線5
 72
    65
 73
     4
 40
26.0
 49
5.0
 49
-6.0
 49
7.0
 49
-8.0
  0
LTYPE
  2
LONG1
 70
    64
  3
----------  --  ----------  --  
 72
    65
 73
     4
 40
40.0
 49
32.5
 49
-2.5
 49
2.5
 49
-2.5
  0
LTYPE
  2
LONG2
 70
    64
  3
--------  -  -  --------  -  -  
 72
    65
 73
     6
 40
40.0
 49
30.0
 49
-2.5
 49
1.25
 49
-2.5
 49
1.25
 49
-2.5
  0
LTYPE
  2
LONG3
 70
    64
  3
+++++++++++++++..+++++++++++++++
 72
    65
 73
     2
 40
40.0
 49
37.5
 49
-2.5
  0
LTYPE
  2
LONG4
 70
    64
  3
+++++++++++++++..+++++++++++++++
 72
    65
 73
     2
 40
80.0
 49
75.0
 49
-5.0
  0
LTYPE
  2
LONG5
 70
    64
  3
----------  --  ----------  --  
 72
    65
 73
     4
 40
60.0
 49
37.5
 49
-7.5
 49
7.5
 49
-7.5
  0
LTYPE
  2
dashed
 70
   64
  3
-------   -------------   ------
 72
   65
 73
    2
 40
7.5
 49
6
 49
-1.5
  0
LTYPE
  2
dashed_spaced
 70
   64
  3
----        --------        ----
 72
   65
 73
    2
 40
12
 49
6
 49
-6
  0
LTYPE
  2
long_dashed_dotted
 70
   64
  3
------------- --- --------------
 72
   65
 73
    4
 40
15.25
 49
12
 49
-1.5
 49
0.25
 49
-1.5
  0
LTYPE
  2
long_dashed_double-dotted
 70
   64
  3
----------- --- --- ------------
 72
   65
 73
    6
 40
17
 49
12
 49
-1.5
 49
0.25
 49
-1.5
 49
0.25
 49
-1.5
  0
LTYPE
  2
long_dashed_triplicate-dotted
 70
   64
  3
--------- --- --- --- ----------
 72
   65
 73
    8
 40
18.75
 49
12
 49
-1.5
 49
0.25
 49
-1.5
 49
0.25
 49
-1.5
 49
0.25
 49
-1.5
  0
LTYPE
  2
dotted
 70
   64
  3
   -       -       -       -    
 72
   65
 73
    2
 40
1.75
 49
0.25
 49
-1.5
  0
LTYPE
  2
chain
 70
   64
  3
-------------- -- --------------
 72
   65
 73
    4
 40
18.5
 49
12
 49
-1.5
 49
3.5
 49
-1.5
  0
LTYPE
  2
chain_double_dash
 70
   64
  3
------------ -- -- -------------
 72
   65
 73
    6
 40
23.5
 49
12
 49
-1.5
 49
3.5
 49
-1.5
 49
3.5
 49
-1.5
  0
LTYPE
  2
dashed_dotted
 70
   64
  3
-----------     -     ----------
 72
   65
 73
    4
 40
9.25
 49
6
 49
-1.5
 49
0.25
 49
-1.5
  0
LTYPE
  2
double-dashed_dotted
 70
   64
  3
------   -----------   -   -----
 72
   65
 73
    6
 40
16.75
 49
6
 49
-1.5
 49
6
 49
-1.5
 49
0.25
 49
-1.5
  0
LTYPE
  2
dashed_double-dotted
 70
   64
  3
---------    -    -    ---------
 72
   65
 73
    6
 40
11
 49
6
 49
-1.5
 49
0.25
 49
-1.5
 49
0.25
 49
-1.5
  0
LTYPE
  2
double-dashed_double-dotted
 70
   64
  3
-----   ---------   -   -   ----
 72
   65
 73
    8
 40
18.5
 49
6
 49
-1.5
 49
6
 49
-1.5
 49
0.25
 49
-1.5
 49
0.25
 49
-1.5
  0
LTYPE
  2
dashed_triplicate-dotted
 70
   64
  3
-------    -    -    -    ------
 72
   65
 73
    8
 40
12.75
 49
6
 49
-1.5
 49
0.25
 49
-1.5
 49
0.25
 49
-1.5
 49
0.25
 49
-1.5
  0
LTYPE
  2
double-dashed_triplicate-dotted
 70
   64
  3
-----  ---------  -  -  -  -----
 72
   65
 73
   10
 40
20.25
 49
6
 49
-1.5
 49
6
 49
-1.5
 49
0.25
 49
-1.5
 49
0.25
 49
-1.5
 49
0.25
 49
-1.5
  0
LTYPE
  2
undefined
 70
   64
  3
--------------------------------
 72
   65
 73
    0
 40
0
  0
LTYPE
  2
_
 70
   64
  3
                                
 72
   65
 73
    0
 40
0
  0
LTYPE
  2
__18
 70
   64
  3
                                
 72
   65
 73
    0
 40
0
  0
LTYPE
  2
__19
 70
   64
  3
                                
 72
   65
 73
    0
 40
0
  0
LTYPE
  2
__20
 70
   64
  3
                                
 72
   65
 73
    0
 40
0
  0
LTYPE
  2
__21
 70
   64
  3
                                
 72
   65
 73
    0
 40
0
  0
LTYPE
  2
__22
 70
   64
  3
                                
 72
   65
 73
    0
 40
0
  0
LTYPE
  2
__23
 70
   64
  3
                                
 72
   65
 73
    0
 40
0
  0
LTYPE
  2
__24
 70
   64
  3
                                
 72
   65
 73
    0
 40
0
  0
LTYPE
  2
__25
 70
   64
  3
                                
 72
   65
 73
    0
 40
0
  0
LTYPE
  2
__26
 70
   64
  3
                                
 72
   65
 73
    0
 40
0
  0
LTYPE
  2
__27
 70
   64
  3
                                
 72
   65
 73
    0
 40
0
  0
LTYPE
  2
__28
 70
   64
  3
                                
 72
   65
 73
    0
 40
0
  0
LTYPE
  2
__29
 70
   64
  3
                                
 72
   65
 73
    0
 40
0
  0
LTYPE
  2
__30
 70
   64
  3
                                
 72
   65
 73
    0
 40
0
  0
LTYPE
  2
__31
 70
   64
  3
                                
 72
   65
 73
    0
 40
0
  0
LTYPE
  2
__32
 70
   64
  3
                                
 72
   65
 73
    0
 40
0
  0
ENDTAB
  0
TABLE
  2
STYLE
  5
3
100
AcDbSymbolTable
 70
     1
  0
STYLE
  5
10
100
AcDbSymbolTableRecord
100
AcDbTextStyleTableRecord
  2
STANDARD
 70
     0
 40
0.0
 41
1.0
 50
0.0
 71
     0
 42
0.2
  3
txt
  4
bigfont.shx
  0
STYLE
  5
26
100
AcDbSymbolTableRecord
100
AcDbTextStyleTableRecord
  2
TATEGAKI
 70
    68
 40
0.0
 41
1.0
 50
0.0
 71
     0
 42
1.0
  3
txt
  4
bigfont.shx
  0
ENDTAB
  0
TABLE
  2
LAYER
 70
    5
  0
LAYER
  2
_0-0_
 70
   64
 62
    7
  6
CONTINUOUS
  0
LAYER
  2
_0-1_
 70
   64
 62
    7
  6
CONTINUOUS
  0
LAYER
  2
_0-f_
 70
   64
 62
    7
  6
CONTINUOUS
  0
LAYER
  2
_1-1_ADD_LINE
 70
   64
 62
    7
  6
CONTINUOUS
  0
LAYER
  2
ADD_LINE
 70
   64
 62
    7
  6
CONTINUOUS
  0
ENDTAB
  0
ENDSEC
  0
SECTION
  2
BLOCKS
  0
ENDSEC
  0
SECTION
  2
ENTITIES
  0
LINE
  8
ADD_LINE
  6
DOT
 62
    9
 10
71.941698569233637
 20
-14.973549552641003
 11
71.941698569233637
 21
112.31477363805516
  0
LINE
  8
_0-f_
  6
CONTINUOUS
 62
    7
 10
354.17000929840799
 20
38.27889478919522
 11
354.17000929840799
 21
12.278927919197116
  0
LINE
  8
_0-f_
  6
CONTINUOUS
 62
    7
 10
389.67000929840799
 20
12.278894789195164
 11
389.67000929840799
 21
289.27889478919519
  0
LINE
  8
_0-f_
  6
CONTINUOUS
 62
    7
 10
318.67000929840799
 20
289.27889478919519
 11
318.67000929840799
 21
12.278894789195164
  0
LINE
  8
_0-f_
  6
CONTINUOUS
 62
    7
 10
318.67000929840799
 20
274.27889478919508
 11
389.67000929840799
 21
274.27889478919508
  0
LINE
  8
_0-f_
  6
CONTINUOUS
 62
    7
 10
318.67000929840799
 20
259.27889478919508
 11
389.67000929840799
 21
259.27889478919508
  0
LINE
  8
_0-f_
  6
CONTINUOUS
 62
    7
 10
318.67000929840799
 20
244.27889478919514
 11
389.67000929840799
 21
244.27889478919514
  0
LINE
  8
_0-f_
  6
CONTINUOUS
 62
    7
 10
318.67000929840799
 20
25.27889478919522
 11
389.67000929840799
 21
25.27889478919522
  0
LINE
  8
_0-f_
  6
CONTINUOUS
 62
    7
 10
318.67000929840799
 20
38.27889478919522
 11
389.67000929840799
 21
38.27889478919522
  0
LINE
  8
_0-f_
  6
CONTINUOUS
 62
    7
 10
318.67000929840799
 20
58.27889478919522
 11
389.67000929840799
 21
58.27889478919522
  0
LINE
  8
ADD_LINE
  6
DOT
 62
    9
 10
319.67000929840799
 20
289.27889478919519
 11
319.67000929840799
 21
12.278894789195164
  0
LINE
  8
ADD_LINE
  6
DOT
 62
    9
 10
318.67000929840799
 20
273.27889478919508
 11
389.67000929840799
 21
273.27889478919508
  0
LINE
  8
ADD_LINE
  6
DOT
 62
    9
 10
318.67000929840799
 20
258.27889478919508
 11
389.67000929840799
 21
258.27889478919508
  0
LINE
  8
ADD_LINE
  6
DOT
 62
    9
 10
318.67000929840799
 20
243.27889478919514
 11
389.67000929840799
 21
243.27889478919514
  0
TEXT
  8
_0-f_
 62
    7
 10
319.67000929840799
 20
271.27889478919508
 40
2
 41
1
 50
0
  1
品　名　：
  0
TEXT
  8
_0-f_
 62
    7
 10
319.67000929840799
 20
256.27889478919508
 40
2
 41
1
 50
0
  1
形　式　：
  0
TEXT
  8
_0-f_
 62
    7
 10
319.67000929840799
 20
241.27889478919514
 40
2
 41
1
 50
0
  1
仕　様　：
  0
LINE
  8
ADD_LINE
  6
DOT
 62
    9
 10
318.67000929840799
 20
57.27889478919522
 11
389.67000929840799
 21
57.27889478919522
  0
LINE
  8
ADD_LINE
  6
DOT
 62
    9
 10
318.67000929840799
 20
37.27889478919522
 11
389.67000929840799
 21
37.27889478919522
  0
LINE
  8
ADD_LINE
  6
DOT
 62
    9
 10
318.67000929840799
 20
24.27889478919522
 11
389.67000929840799
 21
24.27889478919522
  0
LINE
  8
ADD_LINE
  6
DOT
 62
    9
 10
355.17000929840799
 20
38.27889478919522
 11
355.17000929840799
 21
12.278927919197116
  0
TEXT
  8
_0-f_
 62
    7
 10
319.67000929840799
 20
55.27889478919522
 40
2
 41
1
 50
0
  1
図面名称　：
  0
TEXT
  8
_0-f_
 62
    7
 10
319.67000929840799
 20
35.27889478919522
 40
2
 41
1
 50
0
  1
尺　度　：
  0
TEXT
  8
_0-f_
 62
    7
 10
319.67000929840799
 20
22.278894789195164
 40
2
 41
1
 50
0
  1
サイズ　：
  0
TEXT
  8
_0-f_
 62
    7
 10
355.17000929840799
 20
35.27889478919522
 40
2
 41
1
 50
0
  1
作成日
  0
TEXT
  8
_0-f_
 62
    7
 10
355.17000929840799
 20
22.278894789195164
 40
2
 41
1
 50
0
  1
File Name ：
  0
LINE
  8
ADD_LINE
  6
DOT
 62
    9
 10
336.42000929840799
 20
40.542599585527597
 11
336.42000929840799
 21
8.4838341366099428
  0
LINE
  8
ADD_LINE
  6
DOT
 62
    9
 10
314.53196658190529
 20
31.77889478919522
 11
391.2909665053387
 21
31.77889478919522
  0
LINE
  8
ADD_LINE
  6
DOT
 62
    9
 10
316.55460162600093
 20
18.778894789195164
 11
390.78530774431476
 21
18.778894789195164
  0
TEXT
  8
_0-f_
 62
    7
 10
335.17000929840799
 20
17.528894789195164
 40
2.5
 41
1
 50
0
  1
A3
  0
LINE
  8
ADD_LINE
  6
DOT
 62
    9
 10
371.92000929840799
 20
40.542599585527597
 11
371.92000929840799
 21
8.4838341366099428
  0
TEXT
  8
_0-f_
 62
    7
 10
334.54500929840799
 20
30.52889478919522
 40
2.5
 41
1
 50
0
  1
1/5
  0
LINE
  8
ADD_LINE
  6
DOT
 62
    9
 10
318.67000929840799
 20
240.27889478919514
 11
389.67000929840799
 21
240.27889478919514
  0
LINE
  8
ADD_LINE
  6
DOT
 62
    9
 10
318.67000929840799
 20
236.27889478919514
 11
389.67000929840799
 21
236.27889478919514
  0
LINE
  8
ADD_LINE
  6
DOT
 62
    9
 10
318.67000929840799
 20
232.27889478919514
 11
389.67000929840799
 21
232.27889478919514
  0
LINE
  8
ADD_LINE
  6
DOT
 62
    9
 10
318.67000929840799
 20
228.27889478919514
 11
389.67000929840799
 21
228.27889478919514
  0
LINE
  8
ADD_LINE
  6
DOT
 62
    9
 10
318.67000929840799
 20
224.27889478919514
 11
389.67000929840799
 21
224.27889478919514
  0
LINE
  8
ADD_LINE
  6
DOT
 62
    9
 10
318.67000929840799
 20
220.27889478919519
 11
389.67000929840799
 21
220.27889478919519
  0
TEXT
  8
_0-f_
 62
    7
 10
319.67000929840799
 20
229.27889478919514
 40
3
 41
1
 50
0
  1
③ｱｸﾘﾙﾌﾟﾚｰﾄ　透明
  0
LINE
  8
_0-f_
  6
CONTINUOUS
 62
    7
 10
-10.32999070159201
 20
12.278894789195164
 11
389.67000929840799
 21
12.278894789195164
  0
LINE
  8
_0-f_
  6
CONTINUOUS
 62
    7
 10
389.67000929840799
 20
289.27889478919519
 11
-10.32999070159201
 21
289.27889478919519
  0
LINE
  8
_0-f_
  6
CONTINUOUS
 62
    7
 10
-10.32999070159201
 20
289.27889478919519
 11
-10.32999070159201
 21
12.278894789195164
  0
TEXT
  8
_0-f_
 62
    7
 10
331.29229635223408
 20
263.6715901824
 40
5
 41
1
 50
0
  1
NDX-110
  0
TEXT
  8
_0-f_
 62
    7
 10
319.67000929840799
 20
237.27889478919514
 40
3
 41
1
 50
0
  1
①本体　ｽﾁｰﾙ　t1.2　ﾎﾟﾘｯｼｭﾎﾜｲﾄ　焼付塗装
  0
TEXT
  8
_0-f_
 62
    7
 10
319.67000929840799
 20
233.27889478919514
 40
3
 41
1
 50
0
  1
②扉　ｽﾁｰﾙ　t1.6　ﾎﾟﾘｯｼｭﾎﾜｲﾄ　焼付塗装
  0
TEXT
  8
_0-f_
 62
    7
 10
319.67000929840799
 20
225.27889478919514
 40
3
 41
1
 50
0
  1
④平面ﾊﾝﾄﾞﾙ　亜鉛ﾀﾞｲｶｽﾄ
  0
TEXT
  8
_0-f_
 62
    7
 10
319.67000929840799
 20
221.27889478919514
 40
3
 41
1
 50
0
  1
⑤ﾗｯﾁ受け金具　ｽﾃﾝﾚｽ　t1.0　HL仕上げ
  0
TEXT
  8
_0-1_
 62
    7
 10
172.79706914640485
 20
21.672635378070524
 40
5
 41
1
 50
0
  1
※ご発注前にご収納されますＡＥＤ機器寸法をご確認下さい
  0
TEXT
  8
_0-1_
 62
    7
 10
307.47618833804825
 20
243.48772001253417
 40
5
 41
1
 50
90
  1
166.2
  0
POINT
  8
_0-1_
 62
    7
 10
307.47618833804825
 20
88.627737547769584
  0
LINE
  8
_0-1_
  6
CONTINUOUS
 62
    4
 10
307.47618833804825
 20
88.627737547769584
 11
297.88160783796513
 21
88.627737547769584
  0
LINE
  8
_0-1_
  6
CONTINUOUS
 62
    4
 10
307.47618833804825
 20
88.627737547769584
 11
307.47618833804825
 21
105.86774427813276
  0
POINT
  8
_0-1_
 62
    7
 10
307.47618833804825
 20
105.86774427813276
  0
LINE
  8
_0-1_
  6
CONTINUOUS
 62
    4
 10
307.47618833804825
 20
105.86774427813276
 11
297.88160783796513
 21
105.86774427813276
  0
LINE
  8
_0-1_
  6
CONTINUOUS
 62
    4
 10
307.47618833804825
 20
105.86774427813276
 11
307.47618833804825
 21
185.8677442781327
  0
POINT
  8
_0-1_
 62
    7
 10
307.47618833804825
 20
185.8677442781327
  0
LINE
  8
_0-1_
  6
CONTINUOUS
 62
    4
 10
307.47618833804825
 20
185.8677442781327
 11
297.88160783796513
 21
185.8677442781327
  0
LINE
  8
_0-1_
  6
CONTINUOUS
 62
    4
 10
307.47618833804825
 20
185.8677442781327
 11
307.47618833804825
 21
231.8677442781327
  0
POINT
  8
_0-1_
 62
    7
 10
307.47618833804825
 20
231.8677442781327
  0
LINE
  8
_0-1_
  6
CONTINUOUS
 62
    4
 10
307.47618833804825
 20
231.8677442781327
 11
297.88160783796513
 21
231.8677442781327
  0
LINE
  8
_0-1_
  6
CONTINUOUS
 62
    4
 10
307.47618833804825
 20
231.8677442781327
 11
307.47618833804825
 21
265.10769574693552
  0
POINT
  8
_0-1_
 62
    7
 10
307.47618833804825
 20
265.10769574693552
  0
LINE
  8
_0-1_
  6
CONTINUOUS
 62
    4
 10
307.47618833804825
 20
265.10769574693552
 11
297.88160783796513
 21
265.10769574693552
  0
TEXT
  8
_0-1_
 62
    7
 10
307.47618833804825
 20
92.247740912951173
 40
5
 41
1
 50
90
  1
86.2
  0
TEXT
  8
_0-1_
 62
    7
 10
307.47618833804825
 20
143.86774427813276
 40
5
 41
1
 50
90
  1
400
  0
TEXT
  8
_0-1_
 62
    7
 10
307.47618833804825
 20
206.8677442781327
 40
5
 41
1
 50
90
  1
230
  0
LINE
  8
_0-1_
  6
CONTINUOUS
 62
    7
 10
314.47616194446721
 20
264.86772860694396
 11
314.47616194446721
 21
88.867729431743413
  0
LINE
  8
_0-1_
  6
CONTINUOUS
 62
    7
 10
314.47616194446721
 20
267.86778799250146
 11
314.47616194446721
 21
265.10772049091781
  0
LINE
  8
_0-1_
  6
CONTINUOUS
 62
    7
 10
307.47618833804825
 20
265.10769574693552
 11
314.47616194446721
 21
265.10769574693552
  0
LINE
  8
_0-1_
  6
CONTINUOUS
 62
    7
 10
307.47618833804825
 20
88.627737547769584
 11
314.47616194446721
 21
88.627737547769584
  0
LINE
  8
_0-1_
  6
CONTINUOUS
 62
    7
 10
314.47616194446721
 20
88.627737547769584
 11
314.47616194446721
 21
85.867744278132761
  0
POINT
  8
_0-1_
 62
    7
 10
314.47616194446721
 20
265.10772049091781
  0
POINT
  8
_0-1_
 62
    7
 10
314.47616194446721
 20
267.86778799250146
  0
POINT
  8
_0-1_
 62
    7
 10
314.47616194446721
 20
88.627737547769584
  0
POINT
  8
_0-1_
 62
    7
 10
314.47616194446721
 20
88.627737547769584
  0
POINT
  8
_0-1_
 62
    7
 10
314.47616194446721
 20
85.867744278132761
  0
TEXT
  8
_0-1_
 62
    7
 10
313.39855782783184
 20
267.67229306779802
 40
5
 41
1
 50
90
  1
13.8
  0
TEXT
  8
_0-1_
 62
    7
 10
314.17471488607555
 20
175.30960313679202
 40
5
 41
1
 50
90
  1
882.4
  0
TEXT
  8
_0-1_
 62
    7
 10
313.12393936180365
 20
75.005663778014451
 40
5
 41
1
 50
90
  1
13.8
  0
LINE
  8
_0-1_
  6
CONTINUOUS
 62
    7
 10
297.88160783796513
 20
267.86778799250146
 11
314.47616194446721
 21
267.86778799250146
  0
LINE
  8
_0-1_
  6
CONTINUOUS
 62
    7
 10
297.88160783796513
 20
85.867744278132761
 11
314.47616194446721
 21
85.867744278132761
  0
LINE
  8
_0-1_
  6
CONTINUOUS
 62
    7
 10
259.58252982047895
 20
275.92602072138345
 11
261.58243744294521
 21
275.92602072138345
  0
LINE
  8
_0-1_
  6
CONTINUOUS
 62
    4
 10
259.58252982047895
 20
275.92602072138345
 11
259.58252982047895
 21
268.92602237098231
  0
LINE
  8
_0-1_
  6
CONTINUOUS
 62
    4
 10
261.58243744294521
 20
275.92602072138345
 11
261.58243744294521
 21
268.92602237098231
  0
LINE
  8
_0-1_
  6
CONTINUOUS
 62
    7
 10
261.58243744294521
 20
275.92602072138345
 11
292.58249023010728
 21
275.92602072138345
  0
LINE
  8
_0-1_
  6
CONTINUOUS
 62
    4
 10
292.58249023010728
 20
275.92602072138345
 11
292.58249023010728
 21
268.92602237098231
  0
POINT
  8
_0-1_
 62
    7
 10
259.58252982047895
 20
275.92602072138345
  0
POINT
  8
_0-1_
 62
    7
 10
261.58243744294521
 20
275.92602072138345
  0
POINT
  8
_0-1_
 62
    7
 10
292.58249023010728
 20
275.92602072138345
  0
POINT
  8
_0-1_
 62
    7
 10
259.58252982047895
 20
281.14923780164702
  0
POINT
  8
_0-1_
 62
    7
 10
292.58249023010728
 20
281.14923780164702
  0
TEXT
  8
_0-1_
 62
    7
 10
272.26957093567137
 20
281.32066755270955
 40
5
 41
1
 50
0
  1
165
  0
TEXT
  8
_0-1_
 62
    7
 10
271.31411972909706
 20
275.67175087867577
 40
5
 41
1
 50
0
  1
155
  0
TEXT
  8
_0-1_
 62
    7
 10
254.13171625468283
 20
275.47039458796002
 40
5
 41
1
 50
0
  1
10
  0
LINE
  8
_0-1_
  6
CONTINUOUS
 62
    4
 10
259.58252982047895
 20
281.14923780164702
 11
259.58252982047895
 21
268.92602237098231
  0
LINE
  8
_0-1_
  6
CONTINUOUS
 62
    7
 10
259.58252982047895
 20
281.14923780164702
 11
292.58249023010728
 21
281.14923780164702
  0
LINE
  8
_0-1_
  6
CONTINUOUS
 62
    4
 10
292.58249023010728
 20
281.14923780164702
 11
292.58249023010728
 21
268.92602237098231
  0
LINE
  8
_0-0_
  6
CONTINUOUS
 62
    7
 10
256.5823714589925
 20
267.86778799250146
 11
249.58239785257354
 21
267.86778799250146
  0
LINE
  8
_0-0_
  6
CONTINUOUS
 62
    7
 10
292.58249023010728
 20
265.10769574693552
 11
261.58243744294521
 21
265.10769574693552
  0
LINE
  8
_0-0_
  6
CONTINUOUS
 62
    7
 10
259.82244747250604
 20
267.86778799250146
 11
261.58243744294521
 21
267.86778799250146
  0
LINE
  8
_0-0_
  6
CONTINUOUS
 62
    7
 10
256.5823714589925
 20
85.867744278132761
 11
249.58239785257354
 21
85.867744278132761
  0
LINE
  8
_0-0_
  6
CONTINUOUS
 62
    7
 10
249.58239785257354
 20
267.86778799250146
 11
249.58239785257354
 21
85.867744278132761
  0
LINE
  8
_0-0_
  6
CONTINUOUS
 62
    7
 10
261.58243744294521
 20
85.867744278132761
 11
261.58243744294521
 21
267.86778799250146
  0
LINE
  8
_0-0_
  6
CONTINUOUS
 62
    7
 10
259.58252982047895
 20
267.62777136454531
 11
259.58252982047895
 21
86.10773616210659
  0
LINE
  8
_0-0_
  6
CONTINUOUS
 62
    7
 10
261.58243744294521
 20
88.627737547769584
 11
292.58249023010728
 21
88.627737547769584
  0
LINE
  8
_0-0_
  6
CONTINUOUS
 62
    7
 10
292.58249023010728
 20
88.627737547769584
 11
292.58249023010728
 21
265.10769574693552
  0
LINE
  8
_0-0_
  6
CONTINUOUS
 62
    7
 10
261.58243744294521
 20
85.867744278132761
 11
259.82244747250604
 21
85.867744278132761
  0
ARC
  8
_0-0_
  6
CONTINUOUS
 62
    7
 10
259.82244747250604
 20
267.62777136454531
 40
0.2400000030929977
 50
90
 51
180
  0
ARC
  8
_0-0_
  6
CONTINUOUS
 62
    7
 10
259.82244747250604
 20
86.10773616210659
 40
0.2400000030929977
 50
180
 51
270
  0
POINT
  8
_0-0_
 62
    7
 10
249.58239785257354
 20
267.86778799250146
  0
POINT
  8
_0-0_
 62
    7
 10
249.58239785257354
 20
85.867719534150496
  0
TEXT
  8
_0-0_
 62
    7
 10
247.22609120448976
 20
170.9572901475438
 40
5
 41
1
 50
90
  1
910
  0
LINE
  8
ADD_LINE
  6
DOT
 62
    9
 10
119.40905800882348
 20
105.86774427813276
 11
292.58249023010728
 21
105.86774427813276
  0
LINE
  8
ADD_LINE
  6
DOT
 62
    9
 10
119.40905800882348
 20
185.8677442781327
 11
292.58249023010728
 21
185.8677442781327
  0
LINE
  8
ADD_LINE
  6
DOT
 62
    9
 10
119.40905800882348
 20
231.8677442781327
 11
292.58249023010728
 21
231.8677442781327
  0
LINE
  8
_0-1_
  6
CONTINUOUS
 62
    7
 10
142.09147455134246
 20
85.867744278132761
 11
142.09147455134246
 21
88.867729431743413
  0
LINE
  8
_0-1_
  6
CONTINUOUS
 62
    4
 10
142.09147455134246
 20
85.867744278132761
 11
152.38912816198405
 21
85.867744278132761
  0
LINE
  8
_0-1_
  6
CONTINUOUS
 62
    4
 10
142.09147455134246
 20
88.867729431743413
 11
152.38912816198405
 21
88.867729431743413
  0
LINE
  8
_0-1_
  6
CONTINUOUS
 62
    7
 10
142.09147455134246
 20
88.867729431743413
 11
142.09147455134246
 21
196.86773932933636
  0
LINE
  8
_0-1_
  6
CONTINUOUS
 62
    4
 10
142.09147455134246
 20
196.86773932933636
 11
152.38912816198405
 21
196.86773932933636
  0
LINE
  8
_0-1_
  6
CONTINUOUS
 62
    7
 10
142.09147455134246
 20
196.86773932933636
 11
142.09147455134246
 21
264.86772860694396
  0
LINE
  8
_0-1_
  6
CONTINUOUS
 62
    4
 10
142.09147455134246
 20
264.86772860694396
 11
152.38912816198405
 21
264.86772860694396
  0
LINE
  8
_0-1_
  6
CONTINUOUS
 62
    7
 10
142.09147455134246
 20
264.86772860694396
 11
142.09147455134246
 21
267.86778799250146
  0
LINE
  8
_0-1_
  6
CONTINUOUS
 62
    4
 10
142.09147455134246
 20
267.86778799250146
 11
152.38912816198405
 21
267.86778799250146
  0
LINE
  8
_0-1_
  6
CONTINUOUS
 62
    7
 10
132.03868738917993
 20
267.86778799250146
 11
132.03868738917993
 21
85.867744278132761
  0
LINE
  8
_0-1_
  6
CONTINUOUS
 62
    4
 10
132.03868738917993
 20
267.86778799250146
 11
152.38912816198405
 21
267.86778799250146
  0
LINE
  8
_0-1_
  6
CONTINUOUS
 62
    4
 10
132.03868738917993
 20
85.867744278132761
 11
152.38912816198405
 21
85.867744278132761
  0
TEXT
  8
_0-1_
 62
    7
 10
148.59142176417987
 20
78.617732112341486
 40
5
 41
1
 50
90
  1
15
  0
POINT
  8
_0-1_
 62
    7
 10
142.09147455134246
 20
85.867744278132761
  0
POINT
  8
_0-1_
 62
    7
 10
142.09147455134246
 20
88.867729431743413
  0
POINT
  8
_0-1_
 62
    7
 10
142.09147455134246
 20
196.86773932933636
  0
POINT
  8
_0-1_
 62
    7
 10
142.09147455134246
 20
264.86772860694396
  0
POINT
  8
_0-1_
 62
    7
 10
142.09147455134246
 20
267.86778799250146
  0
POINT
  8
_0-1_
 62
    7
 10
132.03868738917993
 20
267.86778799250146
  0
POINT
  8
_0-1_
 62
    7
 10
132.03868738917993
 20
85.867744278132761
  0
TEXT
  8
_0-1_
 62
    7
 10
131.47744751138902
 20
164.18048985840699
 40
5
 41
1
 50
90
  1
910
  0
TEXT
  8
_0-1_
 62
    7
 10
142.54292989581006
 20
136.29547424966609
 40
5
 41
1
 50
90
  1
540
  0
TEXT
  8
_0-1_
 62
    7
 10
141.65769130505635
 20
225.2619526204108
 40
5
 41
1
 50
90
  1
340
  0
TEXT
  8
_0-1_
 62
    7
 10
148.73960003108579
 20
268.63864356734109
 40
5
 41
1
 50
90
  1
15
  0
LINE
  8
_0-1_
  6
CONTINUOUS
 62
    4
 10
156.25690951755843
 20
275.92602072138345
 11
156.25690951755843
 21
268.92602237098231
  0
LINE
  8
_0-1_
  6
CONTINUOUS
 62
    7
 10
156.25690951755843
 20
275.92602072138345
 11
159.25686992718676
 21
275.92602072138345
  0
LINE
  8
_0-1_
  6
CONTINUOUS
 62
    4
 10
159.25686992718676
 20
275.92602072138345
 11
159.25686992718676
 21
268.92602237098231
  0
LINE
  8
_0-1_
  6
CONTINUOUS
 62
    7
 10
159.25686992718676
 20
275.92602072138345
 11
227.25689632076785
 21
275.92602072138345
  0
LINE
  8
_0-1_
  6
CONTINUOUS
 62
    4
 10
227.25689632076785
 20
275.92602072138345
 11
227.25689632076785
 21
268.92602237098231
  0
LINE
  8
_0-1_
  6
CONTINUOUS
 62
    7
 10
227.25689632076785
 20
275.92602072138345
 11
230.25685673039641
 21
275.92602072138345
  0
LINE
  8
_0-1_
  6
CONTINUOUS
 62
    4
 10
230.25685673039641
 20
275.92602072138345
 11
230.25685673039641
 21
268.92602237098231
  0
POINT
  8
_0-1_
 62
    7
 10
156.25690951755843
 20
275.92602072138345
  0
POINT
  8
_0-1_
 62
    7
 10
159.25686992718676
 20
275.92602072138345
  0
POINT
  8
_0-1_
 62
    7
 10
227.25689632076785
 20
275.92602072138345
  0
POINT
  8
_0-1_
 62
    7
 10
230.25685673039641
 20
275.92602072138345
  0
TEXT
  8
_0-1_
 62
    7
 10
154.49365087098471
 20
276.87713658587859
 40
5
 41
1
 50
0
  1
15
  0
TEXT
  8
_0-1_
 62
    7
 10
185.9196208427403
 20
276.43451729050184
 40
5
 41
1
 50
0
  1
340
  0
TEXT
  8
_0-1_
 62
    7
 10
226.64059601740956
 20
276.43451729050184
 40
5
 41
1
 50
0
  1
15
  0
LINE
  8
_0-0_
  6
CONTINUOUS
 62
    7
 10
159.49698553107197
 20
196.62773507337135
 11
227.01678071688286
 21
196.62773507337135
  0
LINE
  8
_0-0_
  6
CONTINUOUS
 62
    7
 10
227.25689632076785
 20
88.867729431743413
 11
227.25689632076785
 21
264.86775335092625
  0
LINE
  8
_0-0_
  6
CONTINUOUS
 62
    7
 10
169.25700189509217
 20
264.86772860694396
 11
217.25696230472056
 21
264.86772860694396
  0
LINE
  8
_0-0_
  6
CONTINUOUS
 62
    7
 10
156.25690951755843
 20
85.867744278132761
 11
230.25685673039641
 21
85.867744278132761
  0
LINE
  8
_0-0_
  6
CONTINUOUS
 62
    7
 10
159.25686992718676
 20
88.867729431743413
 11
227.25689632076785
 21
88.867729431743413
  0
LINE
  8
_0-0_
  6
CONTINUOUS
 62
    7
 10
156.25690951755843
 20
267.86778799250146
 11
156.25690951755843
 21
85.867744278132761
  0
LINE
  8
_0-0_
  6
CONTINUOUS
 62
    7
 10
159.25686992718676
 20
264.86775335092625
 11
159.25686992718676
 21
88.867729431743413
  0
LINE
  8
_0-0_
  6
CONTINUOUS
 62
    7
 10
227.25689632076785
 20
264.86775335092625
 11
159.25686992718676
 21
264.86775335092625
  0
LINE
  8
_0-0_
  6
CONTINUOUS
 62
    7
 10
230.25685673039641
 20
267.86778799250146
 11
156.25690951755843
 21
267.86778799250146
  0
LINE
  8
_0-0_
  6
CONTINUOUS
 62
    7
 10
230.25685673039641
 20
85.867744278132761
 11
230.25685673039641
 21
267.86778799250146
  0
LINE
  8
_0-0_
  6
CONTINUOUS
 62
    7
 10
159.25686992718676
 20
196.86773932933636
 11
227.25689632076785
 21
196.86773932933636
  0
LINE
  8
_0-0_
  6
CONTINUOUS
 62
    7
 10
159.49698553107197
 20
196.62773507337135
 11
159.49698553107197
 21
191.86773520533927
  0
LINE
  8
_0-0_
  6
CONTINUOUS
 62
    7
 10
159.25686992718676
 20
191.86773520533927
 11
159.49698553107197
 21
191.86773520533927
  0
LINE
  8
_0-0_
  6
CONTINUOUS
 62
    7
 10
227.01678071688286
 20
191.86773520533927
 11
227.25689632076785
 21
191.86773520533927
  0
LINE
  8
_0-0_
  6
CONTINUOUS
 62
    7
 10
227.01678071688286
 20
191.86773520533927
 11
227.01678071688286
 21
196.62773507337135
  0
LINE
  8
_0-0_
  6
CONTINUOUS
 62
    7
 10
192.75685673039635
 20
106.16774031909563
 11
192.75685673039635
 21
105.56774823716995
  0
LINE
  8
_0-0_
  6
CONTINUOUS
 62
    7
 10
193.75690951755843
 20
105.56774823716995
 11
193.75690951755843
 21
106.16774031909563
  0
LINE
  8
_0-0_
  6
CENTER2
 62
    7
 10
191.75680394323405
 20
105.86774427813276
 11
194.7569623047205
 21
105.86774427813276
  0
ARC
  8
_0-0_
  6
CONTINUOUS
 62
    7
 10
193.25688312397739
 20
106.16774031909563
 40
0.4999954152751612
 50
0.0013885498046875
 51
179.99855041503906
  0
ARC
  8
_0-0_
  6
CONTINUOUS
 62
    7
 10
193.25688312397739
 20
105.56774823716995
 40
0.4999890842953244
 50
179.99855041503909
 51
0.0013885498047443
  0
LINE
  8
_0-0_
  6
CONTINUOUS
 62
    7
 10
192.75685673039635
 20
232.16774031909563
 11
192.75685673039635
 21
231.56774823716989
  0
LINE
  8
_0-0_
  6
CONTINUOUS
 62
    7
 10
193.75690951755843
 20
231.56774823716989
 11
193.75690951755843
 21
232.16774031909563
  0
LINE
  8
_0-0_
  6
CENTER2
 62
    7
 10
191.75680394323405
 20
231.8677442781327
 11
194.7569623047205
 21
231.8677442781327
  0
ARC
  8
_0-0_
  6
CONTINUOUS
 62
    7
 10
193.25688312397739
 20
232.16774031909563
 40
0.4999954152751612
 50
0.0013885498046875
 51
179.99855041503906
  0
ARC
  8
_0-0_
  6
CONTINUOUS
 62
    7
 10
193.25688312397739
 20
231.56774823716989
 40
0.4999890842953244
 50
179.99855041503909
 51
0.0013885498047443
  0
LINE
  8
_0-0_
  6
CONTINUOUS
 62
    7
 10
192.75685673039635
 20
186.16774031909563
 11
192.75685673039635
 21
185.56774823716989
  0
LINE
  8
_0-0_
  6
CONTINUOUS
 62
    7
 10
193.75690951755843
 20
185.56774823716989
 11
193.75690951755843
 21
186.16774031909563
  0
LINE
  8
_0-0_
  6
CENTER2
 62
    7
 10
191.75680394323405
 20
185.8677442781327
 11
194.7569623047205
 21
185.8677442781327
  0
ARC
  8
_0-0_
  6
CONTINUOUS
 62
    7
 10
193.25688312397739
 20
186.16774031909563
 40
0.4999954152751612
 50
0.0013885498046875
 51
179.99855041503906
  0
ARC
  8
_0-0_
  6
CONTINUOUS
 62
    7
 10
193.25688312397739
 20
185.56774823716989
 40
0.4999890842953244
 50
179.99855041503909
 51
0.0013885498047443
  0
LINE
  8
_0-0_
  6
CENTER2
 62
    7
 10
193.25688312397739
 20
286.09596330930304
 11
193.25688312397739
 21
74.867779125907788
  0
TEXT
  8
_0-1_
 62
    7
 10
241.82707524012255
 20
248.76794054020104
 40
4
 41
1
 50
0
  1
１
  0
CIRCLE
  8
_0-1_
  6
CONTINUOUS
 62
    7
 10
243.84749836963954
 20
250.5258312711768
 40
3.4095973463431131
  0
LINE
  8
_0-1_
  6
CONTINUOUS
 62
    7
 10
229.3551237650683
 20
244.30849767306336
 11
241.09575104752531
 21
248.51256508424888
  0
LINE
  8
_0-1_
  6
CONTINUOUS
 62
    7
 10
10.658021483184257
 20
267.86778799250146
 11
10.658021483184257
 21
85.867744278132761
  0
LINE
  8
_0-1_
  6
CONTINUOUS
 62
    4
 10
10.658021483184257
 20
267.86778799250146
 11
21.616636348049269
 21
267.86778799250146
  0
LINE
  8
_0-1_
  6
CONTINUOUS
 62
    4
 10
10.658021483184257
 20
85.867744278132761
 11
21.616636348049269
 21
85.867744278132761
  0
LINE
  8
_0-1_
  6
CONTINUOUS
 62
    7
 10
35.887381702778839
 20
176.96415013222907
 11
41.287310440110105
 21
176.96415013222907
  0
LINE
  8
_0-1_
  6
CONTINUOUS
 62
    7
 10
41.287310440110105
 20
176.96415013222907
 11
41.287310440110105
 21
153.9641732266125
  0
LINE
  8
_0-1_
  6
CONTINUOUS
 62
    7
 10
41.287310440110105
 20
153.9641732266125
 11
35.887381702778839
 21
153.9641732266125
  0
LINE
  8
_0-1_
  6
CONTINUOUS
 62
    7
 10
35.887381702778839
 20
153.9641732266125
 11
35.887381702778839
 21
176.96415013222907
  0
LINE
  8
_0-1_
  6
DASHED1
 62
    7
 10
29.58736586663008
 20
178.86771705975229
 11
32.587326276258409
 21
178.86771705975229
  0
LINE
  8
_0-1_
  6
DASHED1
 62
    7
 10
32.587326276258409
 20
178.86771705975229
 11
32.587326276258409
 21
170.86771541015344
  0
LINE
  8
_0-1_
  6
DASHED1
 62
    7
 10
32.587326276258409
 20
170.86771541015344
 11
29.58736586663008
 21
170.86771541015344
  0
LINE
  8
_0-1_
  6
DASHED1
 62
    7
 10
35.378051571866763
 20
177.81744636058636
 11
41.591364494164281
 21
177.81744636058636
  0
LINE
  8
_0-1_
  6
DASHED1
 62
    7
 10
34.440353620008409
 20
175.65624508973542
 11
32.215968590447574
 21
175.65624508973542
  0
LINE
  8
_0-1_
  6
DASHED1
 62
    7
 10
32.215968590447574
 20
175.65624508973542
 11
31.474440929975117
 21
175.65624508973542
  0
LINE
  8
_0-1_
  6
DASHED1
 62
    7
 10
31.437423932508409
 20
172.50493811259219
 11
42.967525811731775
 21
172.50493811259219
  0
LINE
  8
_0-1_
  6
DASHED1
 62
    7
 10
42.529062446022181
 20
175.65624508973542
 11
42.967525811731775
 21
175.65624508973542
  0
LINE
  8
_0-1_
  6
DASHED1
 62
    7
 10
34.977792914772181
 20
174.41415904006271
 11
39.371334405481775
 21
178.80756443886969
  0
LINE
  8
_0-1_
  6
DASHED1
 62
    7
 10
35.843040486562586
 20
172.22285671478812
 11
34.270115022035952
 21
170.64991887827
  0
LINE
  8
_0-1_
  6
DASHED1
 62
    7
 10
34.270115022035952
 20
170.64991887827
 11
33.745740549907623
 21
170.12561863808844
  0
LINE
  8
_0-1_
  6
DASHED1
 62
    7
 10
35.947757019501751
 20
167.87108306613953
 11
44.10080019940051
 21
176.02408913006479
  0
LINE
  8
_0-1_
  6
DASHED1
 62
    7
 10
41.562661474738434
 20
177.94245295898156
 11
41.872456132677598
 21
178.25240845280553
  0
LINE
  8
_0-1_
  6
CONTINUOUS
 62
    7
 10
37.369249312575903
 20
159.97381843089886
 11
39.890364177440915
 21
159.97381843089886
  0
LINE
  8
_0-1_
  6
CONTINUOUS
 62
    7
 10
37.369249312575903
 20
157.97382420449469
 11
39.890364177440915
 21
157.97382420449469
  0
LINE
  8
_0-1_
  6
CONTINUOUS
 62
    7
 10
36.554083560886738
 20
173.96415260662729
 11
36.554083560886738
 21
163.53295572370922
  0
LINE
  8
_0-1_
  6
CONTINUOUS
 62
    7
 10
40.620608582001751
 20
163.53295572370922
 11
40.620608582001751
 21
173.96415260662729
  0
LINE
  8
_0-1_
  6
CONTINUOUS
 62
    7
 10
36.554083560886738
 20
173.96415260662729
 11
40.620608582001751
 21
173.96415260662729
  0
LINE
  8
_0-1_
  6
CONTINUOUS
 62
    7
 10
35.987347391123421
 20
270.10786070681729
 11
89.987426571866763
 21
270.10786070681729
  0
LINE
  8
_0-1_
  6
CONTINUOUS
 62
    4
 10
35.987347391123421
 20
270.10786070681729
 11
35.987347391123421
 21
257.75336357052083
  0
LINE
  8
_0-1_
  6
CONTINUOUS
 62
    4
 10
89.987426571866763
 20
270.10786070681729
 11
89.987426571866763
 21
257.75336357052083
  0
LINE
  8
_0-1_
  6
CONTINUOUS
 62
    7
 10
20.488112804975117
 20
256.46774048405553
 11
20.488112804975117
 21
208.46775533044479
  0
LINE
  8
_0-1_
  6
CONTINUOUS
 62
    4
 10
20.488112804975117
 20
256.46774048405553
 11
34.694919709535952
 21
256.46774048405553
  0
LINE
  8
_0-1_
  6
CONTINUOUS
 62
    4
 10
20.488112804975117
 20
208.46775533044479
 11
34.694919709535952
 21
208.46775533044479
  0
LINE
  8
_0-1_
  6
CENTER2
 62
    7
 10
94.387302522035952
 20
87.335186146270445
 11
94.387302522035952
 21
91.46772811206435
  0
LINE
  8
_0-1_
  6
LONG3
 62
    7
 10
94.787363227272181
 20
87.667720523909793
 11
94.787363227272181
 21
88.867729431743413
  0
LINE
  8
_0-1_
  6
LONG3
 62
    7
 10
93.987439768657623
 20
87.667720523909793
 11
93.987439768657623
 21
88.867729431743413
  0
LINE
  8
_0-1_
  6
LONG3
 62
    7
 10
93.987439768657623
 20
87.667720523909793
 11
94.787363227272181
 21
87.667720523909793
  0
LINE
  8
_0-1_
  6
CONTINUOUS
 62
    7
 10
94.987294603961345
 20
88.867729431743413
 11
94.987294603961345
 21
89.2677159050331
  0
LINE
  8
_0-1_
  6
CONTINUOUS
 62
    7
 10
93.787310440110105
 20
88.867729431743413
 11
93.787310440110105
 21
89.2677159050331
  0
LINE
  8
_0-1_
  6
LONG3
 62
    7
 10
93.987439768657623
 20
89.2677159050331
 11
93.987439768657623
 21
91.367737679737473
  0
LINE
  8
_0-1_
  6
LONG3
 62
    7
 10
94.787363227272181
 20
89.2677159050331
 11
94.787363227272181
 21
91.367737679737473
  0
ARC
  8
_0-1_
  6
DASHED1
 62
    7
 10
36.666124312575903
 20
175.97456404956438
 40
2.2483325648952177
 50
124.94812011718753
 51
188.13928222656253
  0
ARC
  8
_0-1_
  6
DASHED1
 62
    7
 10
40.303489705312586
 20
175.97456404956438
 40
2.2483325648952177
 50
351.86067199707031
 51
55.051834106445291
  0
ARC
  8
_0-1_
  6
DASHED1
 62
    7
 10
31.455833455312586
 20
174.08058541516823
 40
1.5757658030535724
 50
89.325942993164062
 51
269.32594299316406
  0
ARC
  8
_0-1_
  6
DASHED1
 62
    7
 10
42.967525811731775
 20
174.08058541516823
 40
1.5756568715379047
 50
270
 51
90
  0
ARC
  8
_0-1_
  6
DASHED1
 62
    7
 10
37.191686495853446
 20
174.02173185335448
 40
2.2483325648952177
 50
169.94810485839844
 51
233.13926696777344
  0
ARC
  8
_0-1_
  6
DASHED1
 62
    7
 10
39.763674988251751
 20
176.59373271774427
 40
2.2483325648952177
 50
36.860671997070313
 51
100.05183410644531
  0
ARC
  8
_0-1_
  6
DASHED1
 62
    7
 10
34.846748784704687
 20
168.99834466611844
 40
1.5757658030535724
 50
134.32594299316406
 51
314.32594299316412
  0
ARC
  8
_0-1_
  6
DASHED1
 62
    7
 10
42.986727141968458
 20
177.1382487914351
 40
1.5756568715379047
 50
315.00000000000006
 51
135.00000000000006
  0
ARC
  8
_0-1_
  6
CONTINUOUS
 62
    7
 10
38.587445047373421
 20
163.53295572370922
 40
2.0333332628817171
 50
180
 51
0
  0
ARC
  8
_0-1_
  6
CONTINUOUS
 62
    7
 10
38.269138459535952
 20
158.97382750369235
 40
1.34533708159988
 50
131.98599243164068
 51
228.01396179199222
  0
ARC
  8
_0-1_
  6
CONTINUOUS
 62
    7
 10
38.952468273725117
 20
158.97382750369235
 40
1.3709818994676746
 50
313.16351318359369
 51
46.83644104003902
  0
ARC
  8
_0-1_
  6
LONG3
 62
    7
 10
94.387302522035952
 20
90.617722833348097
 40
0.8500000592824572
 50
61.927505493164055
 51
118.07247924804687
  0
POINT
  8
_0-1_
 62
    7
 10
10.658021483184257
 20
267.86778799250146
  0
POINT
  8
_0-1_
 62
    7
 10
10.658021483184257
 20
85.867744278132761
  0
POINT
  8
_0-1_
 62
    7
 10
35.987347391123421
 20
270.10786070681729
  0
POINT
  8
_0-1_
 62
    7
 10
89.987426571866763
 20
270.10786070681729
  0
POINT
  8
_0-1_
 62
    7
 10
20.488112804975117
 20
256.46774048405553
  0
POINT
  8
_0-1_
 62
    7
 10
20.488112804975117
 20
208.46775533044479
  0
LINE
  8
_0-1_
  6
CONTINUOUS
 62
    7
 10
25.987413375075903
 20
77.718775986005227
 11
28.747484175857153
 21
77.718775986005227
  0
LINE
  8
_0-1_
  6
CONTINUOUS
 62
    7
 10
97.227403609450903
 20
77.718775986005227
 11
99.987390486892309
 21
77.718775986005227
  0
LINE
  8
_0-1_
  6
CONTINUOUS
 62
    7
 10
28.987474410232153
 20
77.718775986005227
 11
99.987390486892309
 21
77.718775986005227
  0
POINT
  8
_0-1_
 62
    7
 10
28.747484175857153
 20
77.718775986005227
  0
POINT
  8
_0-1_
 62
    7
 10
25.987413375075903
 20
77.718775986005227
  0
POINT
  8
_0-1_
 62
    7
 10
97.227403609450903
 20
77.718775986005227
  0
POINT
  8
_0-1_
 62
    7
 10
97.227403609450903
 20
77.718775986005227
  0
POINT
  8
_0-1_
 62
    7
 10
99.987390486892309
 20
77.718775986005227
  0
LINE
  8
_0-1_
  6
CONTINUOUS
 62
    7
 10
25.987413375075903
 20
73.259037632248834
 11
25.987413375075903
 21
77.718775986005227
  0
LINE
  8
_0-1_
  6
CONTINUOUS
 62
    7
 10
28.747514693435278
 20
73.259037632248834
 11
28.747514693435278
 21
77.718775986005227
  0
LINE
  8
_0-1_
  6
CONTINUOUS
 62
    7
 10
97.227403609450903
 20
73.259037632248834
 11
97.227403609450903
 21
77.718775986005227
  0
LINE
  8
_0-1_
  6
CONTINUOUS
 62
    7
 10
99.987390486892309
 20
73.259037632248834
 11
99.987390486892309
 21
77.718775986005227
  0
TEXT
  8
_0-1_
 62
    7
 10
55.117305123352025
 20
270.28691655143223
 40
5
 41
1
 50
0
  1
270
  0
TEXT
  8
_0-1_
 62
    7
 10
20.629020057706299
 20
229.29346050471202
 40
5
 41
1
 50
90
  1
240
  0
TEXT
  8
_0-1_
 62
    7
 10
10.027988617638584
 20
161.22367967901391
 40
5
 41
1
 50
90
  1
910
  0
TEXT
  8
_0-1_
 62
    7
 10
17.861116264345753
 20
77.903679281646419
 40
5
 41
1
 50
0
  1
13.8
  0
TEXT
  8
_0-1_
 62
    7
 10
54.720421436480819
 20
77.680289553330454
 40
5
 41
1
 50
0
  1
342.4
  0
TEXT
  8
_0-1_
 62
    7
 10
95.377351989987346
 20
78.573848466594342
 40
5
 41
1
 50
0
  1
13.8
  0
LINE
  8
_0-1_
  6
CONTINUOUS
 62
    7
 10
44.727729578096444
 20
243.17147124197658
 11
40.650223875176266
 21
247.39385200200434
  0
LINE
  8
_0-1_
  6
CONTINUOUS
 62
    7
 10
44.825259613308845
 20
243.17147124197658
 11
48.902765316229136
 21
247.39385200200434
  0
ARC
  8
_0-1_
  6
CONTINUOUS
 62
    7
 10
44.776494595702673
 20
243.25876282073102
 40
0.0999892327382626
 50
240.81030254096703
 51
299.18969745903297
  0
ARC
  8
_0-1_
  6
CONTINUOUS
 62
    7
 10
42.713359235439498
 20
248.90241279499855
 40
2.5558331676632902
 50
36.174202920704083
 51
216.17420292070403
  0
LINE
  8
_0-1_
  6
CONTINUOUS
 62
    7
 10
44.778563386546693
 20
247.8195359328455
 11
44.778563386546693
 21
249.27753593284552
  0
LINE
  8
_0-1_
  6
CONTINUOUS
 62
    7
 10
44.778563386546693
 20
247.8195359328455
 11
46.148635227652562
 21
248.31820130181438
  0
LINE
  8
_0-1_
  6
CONTINUOUS
 62
    7
 10
45.483824890756694
 20
248.70202972878121
 11
46.599488624653759
 21
250.03162599178012
  0
LINE
  8
_0-1_
  6
CONTINUOUS
 62
    7
 10
46.148635227652562
 20
248.31820130181438
 11
45.483824890756694
 21
248.70202972878121
  0
LINE
  8
_0-1_
  6
CONTINUOUS
 62
    7
 10
46.599488624653759
 20
250.03162599178012
 11
47.266699506861414
 21
249.572355223427
  0
LINE
  8
_0-1_
  6
CONTINUOUS
 62
    7
 10
47.266699506861414
 20
249.572355223427
 11
49.458406316033802
 21
251.57668086129809
  0
LINE
  8
_0-1_
  6
CONTINUOUS
 62
    7
 10
45.338073591113869
 20
248.79971761324532
 11
46.754114908488759
 21
251.63180024799499
  0
LINE
  8
_0-1_
  6
CONTINUOUS
 62
    7
 10
46.754114908488759
 20
251.63180024799499
 11
47.733415221727569
 21
250.86798448305228
  0
LINE
  8
_0-1_
  6
CONTINUOUS
 62
    7
 10
47.733415221727569
 20
250.86798448305228
 11
48.329845667904465
 21
252.34944075258852
  0
LINE
  8
_0-1_
  6
CONTINUOUS
 62
    7
 10
48.329845667904465
 20
252.34944075258852
 11
49.458406316033802
 21
251.57668086129809
  0
LINE
  8
_0-1_
  6
CONTINUOUS
 62
    7
 10
45.338286056643994
 20
248.80014254430557
 11
44.778563386546693
 21
249.27753593284552
  0
ARC
  8
_0-1_
  6
CONTINUOUS
 62
    7
 10
46.839629955965904
 20
248.90241279499855
 40
2.5558331676632893
 50
93.932939704953412
 51
143.82579707929585
  0
ARC
  8
_0-1_
  6
CONTINUOUS
 62
    7
 10
46.839629955965904
 20
248.90241279499855
 40
2.5558331676632893
 50
323.82579707929591
 51
47.069975771820232
  0
ARC
  8
_0-1_
  6
CONTINUOUS
 62
    7
 10
46.839629955965904
 20
248.90241279499855
 40
2.5558331676632893
 50
65.93938761805704
 51
86.813527032339678
  0
TEXT
  8
_0-1_
 62
    7
 10
49.818968399638493
 20
242.34888897673471
 40
10
 41
1
 50
0
  1
Ａ
  0
TEXT
  8
_0-1_
 62
    7
 10
57.232651322907202
 20
242.39702977493778
 40
10
 41
1
 50
0
  1
Ｅ
  0
TEXT
  8
_0-1_
 62
    7
 10
64.646334246175854
 20
242.30074817853165
 40
10
 41
1
 50
0
  1
Ｄ
  0
LINE
  8
_0-1_
  6
CONTINUOUS
 62
    7
 10
38.318120009226504
 20
191.03808605428367
 11
41.346981390138694
 21
191.03808605428367
  0
LINE
  8
_0-1_
  6
CONTINUOUS
 62
    7
 10
41.346981390138694
 20
188.20207927113336
 11
41.346981390138694
 21
187.76913381346867
  0
LINE
  8
_0-1_
  6
CONTINUOUS
 62
    7
 10
41.346981390138694
 20
191.03808605428367
 11
41.346981390138694
 21
190.47610072911482
  0
LINE
  8
_0-1_
  6
CONTINUOUS
 62
    7
 10
41.346981390138694
 20
189.62008266270857
 11
41.346981390138694
 21
189.05809733753961
  0
LINE
  8
_0-1_
  6
CONTINUOUS
 62
    7
 10
37.561646983466403
 20
186.84692559450752
 11
37.561646983466403
 21
191.2941120387643
  0
LINE
  8
_0-1_
  6
CONTINUOUS
 62
    7
 10
42.105137006692644
 20
191.2941120387643
 11
42.105137006692644
 21
187.44092963272544
  0
LINE
  8
_0-1_
  6
CONTINUOUS
 62
    7
 10
39.434469513027125
 20
193.41068753760294
 11
39.434469513027125
 21
191.89410412068992
  0
LINE
  8
_0-1_
  6
CONTINUOUS
 62
    7
 10
39.942067565180878
 20
193.71065883458357
 11
39.734465553990049
 21
193.71065883458357
  0
LINE
  8
_0-1_
  6
CONTINUOUS
 62
    7
 10
40.242063606143688
 20
193.40994521813502
 11
40.238450984733277
 21
191.89410412068992
  0
LINE
  8
_0-1_
  6
CONTINUOUS
 62
    7
 10
39.434469513027125
 20
191.89410412068992
 11
38.875453465729834
 21
191.89410412068992
  0
LINE
  8
_0-1_
  6
CONTINUOUS
 62
    7
 10
38.307826512604834
 20
191.89410412068992
 11
38.161639065392023
 21
191.89410412068992
  0
LINE
  8
_0-1_
  6
CONTINUOUS
 62
    7
 10
40.692750499091403
 20
191.89410412068992
 11
40.238450984733277
 21
191.89410412068992
  0
LINE
  8
_0-1_
  6
CONTINUOUS
 62
    7
 10
41.346981390138694
 20
189.05809733753961
 11
38.318120009226504
 21
189.05809733753961
  0
LINE
  8
_0-1_
  6
CONTINUOUS
 62
    7
 10
41.346981390138694
 20
188.20207927113336
 11
38.318120009226504
 21
188.20207927113336
  0
LINE
  8
_0-1_
  6
CONTINUOUS
 62
    7
 10
41.346981390138694
 20
190.47610072911482
 11
38.318120009226504
 21
190.47610072911482
  0
LINE
  8
_0-1_
  6
CONTINUOUS
 62
    7
 10
41.346981390138694
 20
189.62008266270857
 11
38.318120009226504
 21
189.62008266270857
  0
LINE
  8
_0-1_
  6
CONTINUOUS
 62
    7
 10
38.318120009226504
 20
191.03808605428367
 11
38.318120009226504
 21
190.47610072911482
  0
LINE
  8
_0-1_
  6
CONTINUOUS
 62
    7
 10
38.318120009226504
 20
189.62008266270857
 11
38.318120009226504
 21
189.05809733753961
  0
LINE
  8
_0-1_
  6
CONTINUOUS
 62
    7
 10
38.018123968263694
 20
186.54690480956242
 11
37.861643024429213
 21
186.54690480956242
  0
LINE
  8
_0-1_
  6
CONTINUOUS
 62
    7
 10
38.318120009226504
 20
186.84692559450752
 11
38.318120009226504
 21
188.20207927113336
  0
LINE
  8
_0-1_
  6
CONTINUOUS
 62
    7
 10
37.246656089251815
 20
185.06026161118825
 11
35.998223208128479
 21
185.06026161118825
  0
LINE
  8
_0-1_
  6
CONTINUOUS
 62
    7
 10
37.246656089251815
 20
184.90024227789013
 11
35.998223208128479
 21
184.90024227789013
  0
LINE
  8
_0-1_
  6
CONTINUOUS
 62
    7
 10
35.998223208128479
 20
184.90024227789013
 11
35.998223208128479
 21
183.93851791925408
  0
LINE
  8
_0-1_
  6
CONTINUOUS
 62
    7
 10
37.363398197571087
 20
185.9385245176494
 11
36.064883496346397
 21
185.9385245176494
  0
LINE
  8
_0-1_
  6
CONTINUOUS
 62
    7
 10
35.83822861881265
 20
183.93851791925408
 11
35.83822861881265
 21
185.71186964011565
  0
LINE
  8
_0-1_
  6
CONTINUOUS
 62
    7
 10
36.064883496346397
 20
185.77852992833357
 11
37.363398197571087
 21
185.77852992833357
  0
LINE
  8
_0-1_
  6
CONTINUOUS
 62
    7
 10
35.998223208128479
 20
185.71186964011565
 11
35.998223208128479
 21
185.06026161118825
  0
LINE
  8
_0-1_
  6
CONTINUOUS
 62
    7
 10
37.775929869868378
 20
183.93851791925408
 11
37.775929869868378
 21
185.85852722299148
  0
LINE
  8
_0-1_
  6
CONTINUOUS
 62
    7
 10
37.935924459184207
 20
183.93851791925408
 11
37.935924459184207
 21
185.85852722299148
  0
LINE
  8
_0-1_
  6
CONTINUOUS
 62
    7
 10
38.449659018939315
 20
183.93851791925408
 11
38.449659018939315
 21
184.90024227789013
  0
LINE
  8
_0-1_
  6
CONTINUOUS
 62
    7
 10
38.449659018939315
 20
185.71186964011565
 11
38.449659018939315
 21
185.06026161118825
  0
LINE
  8
_0-1_
  6
CONTINUOUS
 62
    7
 10
38.289664429623485
 20
183.93851791925408
 11
38.289664429623485
 21
185.71186964011565
  0
LINE
  8
_0-1_
  6
CONTINUOUS
 62
    7
 10
38.516319307157232
 20
185.77852992833357
 11
39.405618029707853
 21
185.77852992833357
  0
LINE
  8
_0-1_
  6
CONTINUOUS
 62
    7
 10
39.405618029707853
 20
185.9385245176494
 11
38.516319307157232
 21
185.9385245176494
  0
LINE
  8
_0-1_
  6
CONTINUOUS
 62
    7
 10
39.405618029707853
 20
185.06026161118825
 11
38.449659018939315
 21
185.06026161118825
  0
LINE
  8
_0-1_
  6
CONTINUOUS
 62
    7
 10
39.256263352765359
 20
184.90024227789013
 11
38.449659018939315
 21
184.90024227789013
  0
LINE
  8
_0-1_
  6
CONTINUOUS
 62
    7
 10
40.241222310746707
 20
184.16517279678794
 11
40.241222310746707
 21
185.71186964011565
  0
LINE
  8
_0-1_
  6
CONTINUOUS
 62
    7
 10
41.74827929448827
 20
185.9385245176494
 11
40.467926676245042
 21
185.9385245176494
  0
LINE
  8
_0-1_
  6
CONTINUOUS
 62
    7
 10
41.637327278018688
 20
185.06026161118825
 11
40.40121690006265
 21
185.06026161118825
  0
LINE
  8
_0-1_
  6
CONTINUOUS
 62
    7
 10
41.637327278018688
 20
184.90024227789013
 11
40.40121690006265
 21
184.90024227789013
  0
LINE
  8
_0-1_
  6
CONTINUOUS
 62
    7
 10
40.467926676245042
 20
184.09851250857002
 11
41.74827929448827
 21
184.09851250857002
  0
LINE
  8
_0-1_
  6
CONTINUOUS
 62
    7
 10
40.40121690006265
 20
184.16517279678794
 11
40.40121690006265
 21
184.90024227789013
  0
LINE
  8
_0-1_
  6
CONTINUOUS
 62
    7
 10
40.40121690006265
 20
185.71186964011565
 11
40.40121690006265
 21
185.06026161118825
  0
LINE
  8
_0-1_
  6
CONTINUOUS
 62
    7
 10
40.467926676245042
 20
185.77852992833357
 11
41.74827929448827
 21
185.77852992833357
  0
LINE
  8
_0-1_
  6
CONTINUOUS
 62
    7
 10
41.74827929448827
 20
183.93851791925408
 11
40.467926676245042
 21
183.93851791925408
  0
LINE
  8
_0-1_
  6
CONTINUOUS
 62
    7
 10
46.166168863745042
 20
184.1001208674171
 11
46.166168863745042
 21
185.64679296676263
  0
LINE
  8
_0-1_
  6
CONTINUOUS
 62
    7
 10
47.673225847486606
 20
185.87344784429638
 11
46.392873229243378
 21
185.87344784429638
  0
LINE
  8
_0-1_
  6
CONTINUOUS
 62
    7
 10
47.562273831017023
 20
184.99518493783523
 11
46.326163453060985
 21
184.99518493783523
  0
LINE
  8
_0-1_
  6
CONTINUOUS
 62
    7
 10
47.562273831017023
 20
184.83519034851929
 11
46.326163453060985
 21
184.83519034851929
  0
LINE
  8
_0-1_
  6
CONTINUOUS
 62
    7
 10
46.392873229243378
 20
184.03346057919919
 11
47.673225847486606
 21
184.03346057919919
  0
LINE
  8
_0-1_
  6
CONTINUOUS
 62
    7
 10
46.326163453060985
 20
184.1001208674171
 11
46.326163453060985
 21
184.83519034851929
  0
LINE
  8
_0-1_
  6
CONTINUOUS
 62
    7
 10
46.326163453060985
 20
185.64679296676263
 11
46.326163453060985
 21
184.99518493783523
  0
LINE
  8
_0-1_
  6
CONTINUOUS
 62
    7
 10
46.392873229243378
 20
185.71345325498044
 11
47.673225847486606
 21
185.71345325498044
  0
LINE
  8
_0-1_
  6
CONTINUOUS
 62
    7
 10
47.673225847486606
 20
183.87346598988336
 11
46.392873229243378
 21
183.87346598988336
  0
LINE
  8
_0-1_
  6
CONTINUOUS
 62
    7
 10
48.924578518517023
 20
184.85666812512409
 11
48.159742026751815
 21
183.82578433606159
  0
LINE
  8
_0-1_
  6
CONTINUOUS
 62
    7
 10
48.824959245924106
 20
184.99090422890367
 11
48.03122178287515
 21
183.92112289972283
  0
LINE
  8
_0-1_
  6
CONTINUOUS
 62
    7
 10
48.241001264505144
 20
185.77798556072378
 11
48.824959245924106
 21
184.99090422890367
  0
LINE
  8
_0-1_
  6
CONTINUOUS
 62
    7
 10
48.924578518517023
 20
184.85666812512409
 11
49.689415010282232
 21
183.82578433606159
  0
LINE
  8
_0-1_
  6
CONTINUOUS
 62
    7
 10
48.369472020417334
 20
185.87329938040273
 11
48.924578518517023
 21
185.12518982064773
  0
LINE
  8
_0-1_
  6
CONTINUOUS
 62
    7
 10
49.024197791109941
 20
184.99090422890367
 11
49.817935254158897
 21
183.92112289972283
  0
LINE
  8
_0-1_
  6
CONTINUOUS
 62
    7
 10
49.479685016616713
 20
185.87329938040273
 11
48.924578518517023
 21
185.12518982064773
  0
LINE
  8
_0-1_
  6
CONTINUOUS
 62
    7
 10
49.608155772528903
 20
185.77798556072378
 11
49.024197791109941
 21
184.99090422890367
  0
LINE
  8
_0-1_
  6
CONTINUOUS
 62
    7
 10
50.779288453060929
 20
183.87346598988336
 11
50.779288453060929
 21
185.7138244147144
  0
LINE
  8
_0-1_
  6
CONTINUOUS
 62
    7
 10
50.939283042376815
 20
183.87346598988336
 11
50.939283042376815
 21
185.7138244147144
  0
LINE
  8
_0-1_
  6
CONTINUOUS
 62
    7
 10
50.003317169277125
 20
185.7138244147144
 11
50.779288453060929
 21
185.7138244147144
  0
LINE
  8
_0-1_
  6
CONTINUOUS
 62
    7
 10
50.939283042376815
 20
185.7138244147144
 11
51.715254326160562
 21
185.7138244147144
  0
LINE
  8
_0-1_
  6
CONTINUOUS
 62
    7
 10
50.003317169277125
 20
185.87384374801263
 11
51.715254326160562
 21
185.87384374801263
  0
LINE
  8
_0-1_
  6
CONTINUOUS
 62
    7
 10
52.131695547655568
 20
183.87346598988336
 11
52.131695547655568
 21
185.79345054963846
  0
LINE
  8
_0-1_
  6
CONTINUOUS
 62
    7
 10
52.291690136971397
 20
183.87346598988336
 11
52.291690136971397
 21
185.79345054963846
  0
LINE
  8
_0-1_
  6
CONTINUOUS
 62
    7
 10
52.631029109733277
 20
183.87346598988336
 11
52.631029109733277
 21
185.79345054963846
  0
LINE
  8
_0-1_
  6
CONTINUOUS
 62
    7
 10
54.316242765772131
 20
183.87346598988336
 11
54.316242765772131
 21
185.79345054963846
  0
LINE
  8
_0-1_
  6
CONTINUOUS
 62
    7
 10
52.791023699049106
 20
183.87346598988336
 11
52.791023699049106
 21
185.56412332202024
  0
LINE
  8
_0-1_
  6
CONTINUOUS
 62
    7
 10
52.791023699049106
 20
185.56412332202024
 11
54.173618452005144
 21
183.82370584155149
  0
LINE
  8
_0-1_
  6
CONTINUOUS
 62
    7
 10
52.773702911464625
 20
185.84321069797033
 11
54.156248176456188
 21
184.10279321750158
  0
LINE
  8
_0-1_
  6
CONTINUOUS
 62
    7
 10
54.156248176456188
 20
184.10279321750158
 11
54.156248176456188
 21
185.79345054963846
  0
LINE
  8
_0-1_
  6
CONTINUOUS
 62
    7
 10
56.307242554623429
 20
184.60727352789013
 11
55.787767390983277
 21
184.60727352789013
  0
LINE
  8
_0-1_
  6
CONTINUOUS
 62
    7
 10
56.423143367545777
 20
184.76726811720596
 11
55.787767390983277
 21
184.76726811720596
  0
LINE
  8
_0-1_
  6
CONTINUOUS
 62
    7
 10
57.007299300822751
 20
185.79345054963846
 11
57.007299300822751
 21
184.59346638578711
  0
LINE
  8
_0-1_
  6
CONTINUOUS
 62
    7
 10
56.847304711506922
 20
185.79345054963846
 11
56.847304711506922
 21
184.59346638578711
  0
LINE
  8
_0-1_
  6
CONTINUOUS
 62
    7
 10
58.353965791532232
 20
185.79345054963846
 11
58.353965791532232
 21
184.59346638578711
  0
LINE
  8
_0-1_
  6
CONTINUOUS
 62
    7
 10
58.513960380848062
 20
185.79345054963846
 11
58.513960380848062
 21
184.59346638578711
  0
LINE
  8
_0-1_
  6
CONTINUOUS
 62
    7
 10
58.859287397317644
 20
183.87346598988336
 11
58.859287397317644
 21
185.79345054963846
  0
LINE
  8
_0-1_
  6
CONTINUOUS
 62
    7
 10
59.019281986633587
 20
183.87346598988336
 11
59.019281986633587
 21
185.79345054963846
  0
LINE
  8
_0-1_
  6
CONTINUOUS
 62
    7
 10
61.386390305890359
 20
183.87346598988336
 11
61.386390305890359
 21
185.79345054963846
  0
LINE
  8
_0-1_
  6
CONTINUOUS
 62
    7
 10
61.546384895206188
 20
183.87346598988336
 11
61.546384895206188
 21
184.83519034851929
  0
LINE
  8
_0-1_
  6
CONTINUOUS
 62
    7
 10
61.546384895206188
 20
184.99518493783523
 11
61.546384895206188
 21
185.79345054963846
  0
LINE
  8
_0-1_
  6
CONTINUOUS
 62
    7
 10
61.546384895206188
 20
184.99518493783523
 11
62.83470507573827
 21
184.99518493783523
  0
LINE
  8
_0-1_
  6
CONTINUOUS
 62
    7
 10
61.546384895206188
 20
184.83519034851929
 11
62.83470507573827
 21
184.83519034851929
  0
LINE
  8
_0-1_
  6
CONTINUOUS
 62
    7
 10
62.83470507573827
 20
183.87346598988336
 11
62.83470507573827
 21
184.83519034851929
  0
LINE
  8
_0-1_
  6
CONTINUOUS
 62
    7
 10
62.83470507573827
 20
184.99518493783523
 11
62.83470507573827
 21
185.79345054963846
  0
LINE
  8
_0-1_
  6
CONTINUOUS
 62
    7
 10
62.994699665054213
 20
183.87346598988336
 11
62.994699665054213
 21
185.79345054963846
  0
LINE
  8
_0-1_
  6
CONTINUOUS
 62
    7
 10
63.314787819614992
 20
184.1001208674171
 11
63.314787819614992
 21
185.64679296676263
  0
LINE
  8
_0-1_
  6
CONTINUOUS
 62
    7
 10
64.821838617360982
 20
185.87344784429638
 11
63.541442697148796
 21
185.87344784429638
  0
LINE
  8
_0-1_
  6
CONTINUOUS
 62
    7
 10
64.710886600891399
 20
184.99518493783523
 11
63.474782408930878
 21
184.99518493783523
  0
LINE
  8
_0-1_
  6
CONTINUOUS
 62
    7
 10
64.710886600891399
 20
184.83519034851929
 11
63.474782408930878
 21
184.83519034851929
  0
LINE
  8
_0-1_
  6
CONTINUOUS
 62
    7
 10
63.541442697148796
 20
184.03346057919919
 11
64.821838617360982
 21
184.03346057919919
  0
LINE
  8
_0-1_
  6
CONTINUOUS
 62
    7
 10
63.474782408930878
 20
184.1001208674171
 11
63.474782408930878
 21
184.83519034851929
  0
LINE
  8
_0-1_
  6
CONTINUOUS
 62
    7
 10
63.474782408930878
 20
185.64679296676263
 11
63.474782408930878
 21
184.99518493783523
  0
LINE
  8
_0-1_
  6
CONTINUOUS
 62
    7
 10
63.541442697148796
 20
185.71345325498044
 11
64.821838617360982
 21
185.71345325498044
  0
LINE
  8
_0-1_
  6
CONTINUOUS
 62
    7
 10
64.821838617360982
 20
183.87346598988336
 11
63.541442697148796
 21
183.87346598988336
  0
LINE
  8
_0-1_
  6
CONTINUOUS
 62
    7
 10
65.341016853214001
 20
183.87346598988336
 11
65.341016853214001
 21
184.83519034851929
  0
LINE
  8
_0-1_
  6
CONTINUOUS
 62
    7
 10
65.341016853214001
 20
185.64679296676263
 11
65.341016853214001
 21
184.99518493783523
  0
LINE
  8
_0-1_
  6
CONTINUOUS
 62
    7
 10
65.181022263898171
 20
183.87346598988336
 11
65.181022263898171
 21
185.64679296676263
  0
LINE
  8
_0-1_
  6
CONTINUOUS
 62
    7
 10
65.407677141431918
 20
185.71345325498044
 11
66.297025351947127
 21
185.71345325498044
  0
LINE
  8
_0-1_
  6
CONTINUOUS
 62
    7
 10
66.297025351947127
 20
185.87344784429638
 11
65.407677141431918
 21
185.87344784429638
  0
LINE
  8
_0-1_
  6
CONTINUOUS
 62
    7
 10
66.297025351947127
 20
184.99518493783523
 11
65.341016853214001
 21
184.99518493783523
  0
LINE
  8
_0-1_
  6
CONTINUOUS
 62
    7
 10
66.14767067500452
 20
184.83519034851929
 11
65.341016853214001
 21
184.83519034851929
  0
LINE
  8
_0-1_
  6
CONTINUOUS
 62
    7
 10
45.782958810430046
 20
193.21399762259023
 11
45.782958810430046
 21
191.43436093023388
  0
LINE
  8
_0-1_
  6
CONTINUOUS
 62
    7
 10
46.590899319298273
 20
193.21399762259023
 11
46.590899319298273
 21
192.11736907265367
  0
LINE
  8
_0-1_
  6
CONTINUOUS
 62
    7
 10
51.395463099386916
 20
192.47505570826388
 11
51.393681532664004
 21
191.71472262127065
  0
LINE
  8
_0-1_
  6
CONTINUOUS
 62
    7
 10
51.393681532664004
 20
191.71472262127065
 11
52.801465659564315
 21
191.71472262127065
  0
LINE
  8
_0-1_
  6
CONTINUOUS
 62
    7
 10
52.801465659564315
 20
191.71472262127065
 11
52.801465659564315
 21
192.47505570826388
  0
LINE
  8
_0-1_
  6
CONTINUOUS
 62
    7
 10
52.801465659564315
 20
192.47505570826388
 11
51.395463099386916
 21
192.47505570826388
  0
LINE
  8
_0-1_
  6
CONTINUOUS
 62
    7
 10
53.160599818136916
 20
193.23417634012617
 11
51.038159995501815
 21
193.23417634012617
  0
LINE
  8
_0-1_
  6
CONTINUOUS
 62
    7
 10
53.560611035408897
 20
191.48984931045982
 11
53.560611035408897
 21
192.83418986683648
  0
LINE
  8
_0-1_
  6
CONTINUOUS
 62
    7
 10
50.638148778229834
 20
191.35558846269794
 11
50.638148778229834
 21
192.83418986683648
  0
LINE
  8
_0-1_
  6
CONTINUOUS
 62
    7
 10
54.675723340096397
 20
192.47505570826388
 11
54.673941773373429
 21
191.71472262127065
  0
LINE
  8
_0-1_
  6
CONTINUOUS
 62
    7
 10
54.673941773373429
 20
191.71472262127065
 11
56.081725900273796
 21
191.71472262127065
  0
LINE
  8
_0-1_
  6
CONTINUOUS
 62
    7
 10
56.081725900273796
 20
191.71472262127065
 11
56.081725900273796
 21
192.47505570826388
  0
LINE
  8
_0-1_
  6
CONTINUOUS
 62
    7
 10
56.081725900273796
 20
192.47505570826388
 11
54.675723340096397
 21
192.47505570826388
  0
LINE
  8
_0-1_
  6
CONTINUOUS
 62
    7
 10
56.440860058846397
 20
193.23417634012617
 11
54.318420236211296
 21
193.23417634012617
  0
LINE
  8
_0-1_
  6
CONTINUOUS
 62
    7
 10
56.840871276118378
 20
191.35558846269794
 11
56.840871276118378
 21
192.83418986683648
  0
LINE
  8
_0-1_
  6
CONTINUOUS
 62
    7
 10
54.318420236211296
 20
190.95560198940825
 11
56.440860058846397
 21
190.95560198940825
  0
LINE
  8
_0-1_
  6
CONTINUOUS
 62
    7
 10
53.918409018939315
 20
191.35558846269794
 11
53.918409018939315
 21
192.83418986683648
  0
LINE
  8
_0-1_
  6
CONTINUOUS
 62
    7
 10
50.379029795966346
 20
190.15092768619877
 11
50.379029795966346
 21
190.30862108516419
  0
LINE
  8
_0-1_
  6
CONTINUOUS
 62
    7
 10
57.099990258381922
 20
190.15092768619877
 11
57.099990258381922
 21
190.30862108516419
  0
LINE
  8
_0-1_
  6
CONTINUOUS
 62
    7
 10
51.038159995501815
 20
190.95560198940825
 11
53.040443040265359
 21
190.95560198940825
  0
LINE
  8
_0-1_
  6
CONTINUOUS
 62
    7
 10
53.15604692540046
 20
186.57042396470388
 11
51.173757018305878
 21
186.57042396470388
  0
LINE
  8
_0-1_
  6
CONTINUOUS
 62
    7
 10
53.556058142672441
 20
188.63736303512201
 11
53.556058142672441
 21
186.97041043799356
  0
LINE
  8
_0-1_
  6
CONTINUOUS
 62
    7
 10
51.730942010915669
 20
188.28013416318356
 11
52.598861932790669
 21
188.28013416318356
  0
LINE
  8
_0-1_
  6
CONTINUOUS
 62
    7
 10
51.530961146261916
 20
187.52762017458565
 11
51.530961146261916
 21
188.08012855454763
  0
LINE
  8
_0-1_
  6
CONTINUOUS
 62
    7
 10
52.598861932790669
 20
187.3276393099319
 11
51.730942010915669
 21
187.3276393099319
  0
LINE
  8
_0-1_
  6
CONTINUOUS
 62
    7
 10
52.798842797444422
 20
187.52762017458565
 11
52.798842797444422
 21
188.08012855454763
  0
LINE
  8
_0-1_
  6
CONTINUOUS
 62
    7
 10
54.322973128947751
 20
186.57042396470388
 11
56.305263036042334
 21
186.57042396470388
  0
LINE
  8
_0-1_
  6
CONTINUOUS
 62
    7
 10
53.92296191167577
 20
188.63736303512201
 11
53.92296191167577
 21
186.97041043799356
  0
LINE
  8
_0-1_
  6
CONTINUOUS
 62
    7
 10
55.748078043432542
 20
188.28013416318356
 11
54.880207609522131
 21
188.28013416318356
  0
LINE
  8
_0-1_
  6
CONTINUOUS
 62
    7
 10
55.948058908086296
 20
187.52762017458565
 11
55.948058908086296
 21
188.08012855454763
  0
LINE
  8
_0-1_
  6
CONTINUOUS
 62
    7
 10
54.880207609522131
 20
187.3276393099319
 11
55.748078043432542
 21
187.3276393099319
  0
LINE
  8
_0-1_
  6
CONTINUOUS
 62
    7
 10
54.680177256903846
 20
187.52762017458565
 11
54.680177256903846
 21
188.08012855454763
  0
LINE
  8
_0-1_
  6
CONTINUOUS
 62
    7
 10
52.518691430256922
 20
189.03734950841169
 11
53.15604692540046
 21
189.03734950841169
  0
LINE
  8
_0-1_
  6
CONTINUOUS
 62
    7
 10
50.773745801033897
 20
188.23544653121576
 11
50.773745801033897
 21
186.97041043799356
  0
LINE
  8
_0-1_
  6
CONTINUOUS
 62
    7
 10
50.679025836929213
 20
190.608617126127
 11
52.838284705172441
 21
190.608617126127
  0
LINE
  8
_0-1_
  6
CONTINUOUS
 62
    7
 10
53.792165221430878
 20
190.608617126127
 11
56.799994217418998
 21
190.608617126127
  0
LINE
  8
_0-1_
  6
CONTINUOUS
 62
    7
 10
50.679025836929213
 20
189.85090690125367
 11
52.169652816447751
 21
189.85090690125367
  0
LINE
  8
_0-1_
  6
CONTINUOUS
 62
    7
 10
54.761189054834631
 20
189.03734950841169
 11
54.322973128947751
 21
189.03734950841169
  0
LINE
  8
_0-1_
  6
CONTINUOUS
 62
    7
 10
56.705274253314315
 20
188.16274871132555
 11
56.705274253314315
 21
186.97041043799356
  0
LINE
  8
_0-1_
  6
CONTINUOUS
 62
    7
 10
54.997197157664004
 20
189.85090690125367
 11
56.799994217418998
 21
189.85090690125367
  0
LINE
  8
_0-1_
  6
CONTINUOUS
 62
    7
 10
53.329502241067644
 20
189.85090690125367
 11
53.89029985508796
 21
189.85090690125367
  0
ARC
  8
_0-1_
  6
CONTINUOUS
 62
    7
 10
38.161639065392023
 20
191.2941120387643
 40
0.6000000077324945
 50
90
 51
180
  0
ARC
  8
_0-1_
  6
CONTINUOUS
 62
    7
 10
37.861643024429213
 20
186.84692559450752
 40
0.3000000038662472
 50
180
 51
270
  0
ARC
  8
_0-1_
  6
CONTINUOUS
 62
    7
 10
41.096572289631922
 20
187.76913381346867
 40
0.2503917265582729
 50
270.65678405761719
 51
0
  0
ARC
  8
_0-1_
  6
CONTINUOUS
 62
    7
 10
41.057427309690979
 20
191.18410029362065
 40
3.6656091019913961
 50
261.815185546875
 51
270.65678405761719
  0
ARC
  8
_0-1_
  6
CONTINUOUS
 62
    7
 10
40.478665564547441
 20
187.16015966598138
 40
0.3997355296805096
 50
81.815185546875
 51
257.8607177734375
  0
ARC
  8
_0-1_
  6
CONTINUOUS
 62
    7
 10
41.06193071446296
 20
189.87170421834617
 40
3.1732891056988692
 50
257.86070251464844
 51
277.37612915039062
  0
ARC
  8
_0-1_
  6
CONTINUOUS
 62
    7
 10
41.375832873457853
 20
187.44676921253961
 40
0.7293161186012061
 50
277.3760986328125
 51
359.54010009765625
  0
ARC
  8
_0-1_
  6
CONTINUOUS
 62
    7
 10
39.734465553990049
 20
193.41068753760294
 40
0.3000000038662472
 50
90
 51
180
  0
ARC
  8
_0-1_
  6
CONTINUOUS
 62
    7
 10
39.942067565180878
 20
193.41068753760294
 40
0.3000000038662472
 50
359.8636474609375
 51
89.999984741210923
  0
ARC
  8
_0-1_
  6
CONTINUOUS
 62
    7
 10
33.590287318136944
 20
190.07569360812658
 40
5.0558969136830925
 50
21.0792236328125
 51
34.788803100585937
  0
ARC
  8
_0-1_
  6
CONTINUOUS
 62
    7
 10
30.961635106354862
 20
197.16553735812658
 40
11.066084939080316
 50
331.55216979980469
 51
339.52734375
  0
ARC
  8
_0-1_
  6
CONTINUOUS
 62
    7
 10
41.641335803145353
 20
193.17834154414857
 40
0.3336553476952218
 50
73.603042602539063
 51
159.52726745605469
  0
ARC
  8
_0-1_
  6
CONTINUOUS
 62
    7
 10
41.574774490856498
 20
192.95208257033096
 40
0.5695066741994907
 50
50.25189208984375
 51
73.603073120117187
  0
ARC
  8
_0-1_
  6
CONTINUOUS
 62
    7
 10
41.709678682157232
 20
193.11430411805054
 40
0.3585147616025564
 50
337.37805175781256
 51
50.251907348632841
  0
ARC
  8
_0-1_
  6
CONTINUOUS
 62
    7
 10
41.505144924767023
 20
191.2941120387643
 40
0.6000000077324945
 50
0
 51
86.077774047851563
  0
ARC
  8
_0-1_
  6
CONTINUOUS
 62
    7
 10
25.487622886126843
 20
199.87421160854888
 40
17.932700079840583
 50
333.57147216796875
 51
337.3780517578125
  0
ARC
  8
_0-1_
  6
CONTINUOUS
 62
    7
 10
38.048806506270353
 20
193.17317005185544
 40
0.3729738738085772
 50
136.77906799316406
 51
214.78872680664065
  0
ARC
  8
_0-1_
  6
CONTINUOUS
 62
    7
 10
38.117941192714625
 20
193.10819235443148
 40
0.4678796594207351
 50
108.25556945800783
 51
136.77902221679687
  0
ARC
  8
_0-1_
  6
CONTINUOUS
 62
    7
 10
38.082012930468068
 20
193.21709062037326
 40
0.3531770206786489
 50
35.170394897460938
 51
108.25553894042969
  0
ARC
  8
_0-1_
  6
CONTINUOUS
 62
    7
 10
34.60533495855077
 20
190.7672631684095
 40
4.6063161540675814
 50
18.728759765625
 51
35.170379638671875
  0
ARC
  8
_0-1_
  6
CONTINUOUS
 62
    7
 10
38.656023831017023
 20
192.14062841598138
 40
0.3291299536421492
 50
311.8143310546875
 51
18.728881835937472
  0
ARC
  8
_0-1_
  6
CONTINUOUS
 62
    7
 10
36.27342577886327
 20
193.11660530840106
 40
0.302716501661249
 50
142.27502441406253
 51
228.96031188964847
  0
ARC
  8
_0-1_
  6
CONTINUOUS
 62
    7
 10
36.662797083761916
 20
192.81539681230731
 40
0.7949853909982217
 50
127.72496032714844
 51
142.27500915527341
  0
ARC
  8
_0-1_
  6
CONTINUOUS
 62
    7
 10
36.40006548008796
 20
193.15498322489179
 40
0.3656378388404846
 50
52.274993896484375
 51
127.7249755859375
  0
ARC
  8
_0-1_
  6
CONTINUOUS
 62
    7
 10
34.457514408508558
 20
190.64388967284367
 40
3.5404014587402344
 50
31.653854370117191
 51
52.275009155273452
  0
ARC
  8
_0-1_
  6
CONTINUOUS
 62
    7
 10
37.18529101323827
 20
192.32556493941888
 40
0.3359181655419837
 50
324.18109130859375
 51
31.65386962890625
  0
ARC
  8
_0-1_
  6
CONTINUOUS
 62
    7
 10
36.75039078097484
 20
192.63944235443148
 40
0.8722513753014642
 50
308.06536865234375
 51
324.18107604980469
  0
ARC
  8
_0-1_
  6
CONTINUOUS
 62
    7
 10
32.988167253736634
 20
189.34262838958773
 40
4.7008613637975749
 50
34.137954711914063
 51
48.960220336914063
  0
ARC
  8
_0-1_
  6
CONTINUOUS
 62
    7
 10
37.099132466996707
 20
192.19410016165273
 40
0.3065996878855937
 50
224.10769653320315
 51
308.06547546386719
  0
ARC
  8
_0-1_
  6
CONTINUOUS
 62
    7
 10
32.360164983888666
 20
186.34776524030565
 40
5.7644667496552344
 50
40.332138061523438
 51
52.532089233398438
  0
ARC
  8
_0-1_
  6
CONTINUOUS
 62
    7
 10
36.05612412662515
 20
191.17007045567732
 40
0.3112794418592709
 50
149.69410705566406
 51
232.53221130371097
  0
ARC
  8
_0-1_
  6
CONTINUOUS
 62
    7
 10
36.462865707072751
 20
190.93230553010721
 40
0.7824202808173924
 50
134.21226501464844
 51
149.694091796875
  0
ARC
  8
_0-1_
  6
CONTINUOUS
 62
    7
 10
36.147181981354834
 20
191.25682285749315
 40
0.3296815704655001
 50
53.544494628906257
 51
134.21232604980469
  0
ARC
  8
_0-1_
  6
CONTINUOUS
 62
    7
 10
31.968220304834603
 20
185.60007632824909
 40
7.3626492474530201
 50
45.252883911132813
 51
53.54449462890625
  0
ARC
  8
_0-1_
  6
CONTINUOUS
 62
    7
 10
36.830858211295777
 20
190.50584299579555
 40
0.4552582470146385
 50
351.61711120605469
 51
45.252929687499979
  0
ARC
  8
_0-1_
  6
CONTINUOUS
 62
    7
 10
36.703179262815979
 20
190.52467316629804
 40
0.584333683993365
 50
309.13536071777344
 51
351.61714172363281
  0
ARC
  8
_0-1_
  6
CONTINUOUS
 62
    7
 10
36.917412661253479
 20
190.26134770704971
 40
0.2448430818480414
 50
228.26045227050781
 51
309.13533020019531
  0
ARC
  8
_0-1_
  6
CONTINUOUS
 62
    7
 10
38.018123968263694
 20
186.84692559450752
 40
0.3000000038662472
 50
270
 51
0
  0
ARC
  8
_0-1_
  6
CONTINUOUS
 62
    7
 10
27.830531590729862
 20
190.73571459102357
 40
8.8146106616870785
 50
335.93995666503906
 51
351.4635009765625
  0
ARC
  8
_0-1_
  6
CONTINUOUS
 62
    7
 10
36.782904373668998
 20
189.39196789022117
 40
0.2380289902558198
 50
95.805496215820313
 51
171.46360778808594
  0
ARC
  8
_0-1_
  6
CONTINUOUS
 62
    7
 10
36.828680740856498
 20
188.94147894913169
 40
0.690819894945299
 50
62.00714111328125
 51
95.80548095703125
  0
ARC
  8
_0-1_
  6
CONTINUOUS
 62
    7
 10
37.030443172233277
 20
189.32110112501846
 40
0.2609265011710089
 50
13.381546020507813
 51
62.007278442382813
  0
ARC
  8
_0-1_
  6
CONTINUOUS
 62
    7
 10
36.541848498457853
 20
189.2048538963445
 40
0.7631672395242227
 50
349.41273498535156
 51
13.381561279296895
  0
ARC
  8
_0-1_
  6
CONTINUOUS
 62
    7
 10
26.953060491701166
 20
190.99715950761981
 40
10.518018877184069
 50
336.57560729980474
 51
349.41271972656256
  0
ARC
  8
_0-1_
  6
CONTINUOUS
 62
    7
 10
36.303118557579523
 20
186.94629742727773
 40
0.3281954816869787
 50
260.47056579589844
 51
336.57554626464844
  0
ARC
  8
_0-1_
  6
CONTINUOUS
 62
    7
 10
36.350231099809207
 20
187.22694367411054
 40
0.6127606050388233
 50
235.31086730957031
 51
260.47059631347656
  0
ARC
  8
_0-1_
  6
CONTINUOUS
 62
    7
 10
36.198599976498485
 20
187.0078604551494
 40
0.3463196029534211
 50
157.1982421875
 51
235.31094360351565
  0
ARC
  8
_0-1_
  6
CONTINUOUS
 62
    7
 10
37.363398197571087
 20
185.85852722299148
 40
0.080000037277067
 50
270
 51
90
  0
ARC
  8
_0-1_
  6
CONTINUOUS
 62
    7
 10
37.246656089251815
 20
184.98023957254804
 40
0.080000037277067
 50
270
 51
90
  0
ARC
  8
_0-1_
  6
CONTINUOUS
 62
    7
 10
35.918250657452859
 20
183.93851791925408
 40
0.080000037277067
 50
180
 51
0
  0
ARC
  8
_0-1_
  6
CONTINUOUS
 62
    7
 10
36.064883496346397
 20
185.71186964011565
 40
0.0666666675258325
 50
90
 51
180
  0
ARC
  8
_0-1_
  6
CONTINUOUS
 62
    7
 10
36.064883496346397
 20
185.71186964011565
 40
0.2266669837204184
 50
90
 51
180
  0
ARC
  8
_0-1_
  6
CONTINUOUS
 62
    7
 10
37.855902420543998
 20
185.85852722299148
 40
0.0800002547534734
 50
0
 51
180
  0
ARC
  8
_0-1_
  6
CONTINUOUS
 62
    7
 10
37.855902420543998
 20
183.93851791925408
 40
0.0800002547534734
 50
180
 51
0
  0
ARC
  8
_0-1_
  6
CONTINUOUS
 62
    7
 10
38.516319307157232
 20
185.71186964011565
 40
0.0666666675258325
 50
90
 51
180
  0
ARC
  8
_0-1_
  6
CONTINUOUS
 62
    7
 10
38.369636980299106
 20
183.93851791925408
 40
0.0800004782708915
 50
180
 51
0
  0
ARC
  8
_0-1_
  6
CONTINUOUS
 62
    7
 10
38.516319307157232
 20
185.71186964011565
 40
0.2266669837204184
 50
90
 51
180
  0
ARC
  8
_0-1_
  6
CONTINUOUS
 62
    7
 10
39.405618029707853
 20
185.41937102577867
 40
0.3591363575007464
 50
269.99992370605469
 51
89.999923706054673
  0
ARC
  8
_0-1_
  6
CONTINUOUS
 62
    7
 10
39.256263352765359
 20
184.41229094765367
 40
0.4879590144028535
 50
0.1215972900390625
 51
90
  0
ARC
  8
_0-1_
  6
CONTINUOUS
 62
    7
 10
39.256263352765359
 20
184.41229094765367
 40
0.6479590647929424
 50
0.1215972900390625
 51
55.667327880859375
  0
ARC
  8
_0-1_
  6
CONTINUOUS
 62
    7
 10
39.405618029707853
 20
185.41937102577867
 40
0.5191364320548802
 50
294.59797668457031
 51
89.999923706054673
  0
ARC
  8
_0-1_
  6
CONTINUOUS
 62
    7
 10
40.726253851076194
 20
184.41540868941888
 40
0.9820015688200255
 50
180.12159729003906
 51
211.29817199707031
  0
ARC
  8
_0-1_
  6
CONTINUOUS
 62
    7
 10
40.726253851076194
 20
184.41540868941888
 40
0.822001566758027
 50
180.12159729003906
 51
211.29817199707031
  0
ARC
  8
_0-1_
  6
CONTINUOUS
 62
    7
 10
39.955478803567644
 20
183.94683189729471
 40
0.080000405778756
 50
211.29806518554687
 51
31.298065185546889
  0
ARC
  8
_0-1_
  6
CONTINUOUS
 62
    7
 10
40.467926676245042
 20
184.16517279678794
 40
0.0666666675258325
 50
180
 51
270
  0
ARC
  8
_0-1_
  6
CONTINUOUS
 62
    7
 10
40.467926676245042
 20
185.71186964011565
 40
0.0666666675258325
 50
90
 51
180
  0
ARC
  8
_0-1_
  6
CONTINUOUS
 62
    7
 10
40.467926676245042
 20
185.71186964011565
 40
0.2266669837204184
 50
90
 51
180
  0
ARC
  8
_0-1_
  6
CONTINUOUS
 62
    7
 10
40.467926676245042
 20
184.16517279678794
 40
0.2266669837204184
 50
180
 51
270
  0
ARC
  8
_0-1_
  6
CONTINUOUS
 62
    7
 10
41.74827929448827
 20
185.85852722299148
 40
0.080000037277067
 50
270
 51
90
  0
ARC
  8
_0-1_
  6
CONTINUOUS
 62
    7
 10
41.637327278018688
 20
184.98023957254804
 40
0.080000037277067
 50
270
 51
90
  0
ARC
  8
_0-1_
  6
CONTINUOUS
 62
    7
 10
41.74827929448827
 20
184.01851521391211
 40
0.080000037277067
 50
270
 51
90
  0
ARC
  8
_0-1_
  6
CONTINUOUS
 62
    7
 10
46.392873229243378
 20
184.1001208674171
 40
0.0666666675258325
 50
180
 51
270
  0
ARC
  8
_0-1_
  6
CONTINUOUS
 62
    7
 10
46.392873229243378
 20
185.64679296676263
 40
0.0666666675258325
 50
90
 51
180
  0
ARC
  8
_0-1_
  6
CONTINUOUS
 62
    7
 10
46.392873229243378
 20
185.64679296676263
 40
0.2266669837204184
 50
90
 51
180
  0
ARC
  8
_0-1_
  6
CONTINUOUS
 62
    7
 10
46.392873229243378
 20
184.1001208674171
 40
0.2266669837204184
 50
180
 51
270
  0
ARC
  8
_0-1_
  6
CONTINUOUS
 62
    7
 10
47.673225847486606
 20
185.79345054963846
 40
0.080000037277067
 50
270
 51
90
  0
ARC
  8
_0-1_
  6
CONTINUOUS
 62
    7
 10
47.562273831017023
 20
184.91518764317732
 40
0.080000037277067
 50
270
 51
90
  0
ARC
  8
_0-1_
  6
CONTINUOUS
 62
    7
 10
47.673225847486606
 20
183.95346328454127
 40
0.080000037277067
 50
270
 51
90
  0
ARC
  8
_0-1_
  6
CONTINUOUS
 62
    7
 10
48.095457160831188
 20
183.87346598988336
 40
0.0800000010309992
 50
143.4261474609375
 51
323.4261474609375
  0
ARC
  8
_0-1_
  6
CONTINUOUS
 62
    7
 10
49.753699876202859
 20
183.87346598988336
 40
0.0800000010309992
 50
216.5738525390625
 51
36.573837280273423
  0
ARC
  8
_0-1_
  6
CONTINUOUS
 62
    7
 10
48.305236642461296
 20
185.82564247056325
 40
0.0800000010309992
 50
36.573471069335938
 51
216.57423400878909
  0
ARC
  8
_0-1_
  6
CONTINUOUS
 62
    7
 10
49.543920394572751
 20
185.82564247056325
 40
0.0800000010309992
 50
323.42576599121094
 51
143.42652893066406
  0
ARC
  8
_0-1_
  6
CONTINUOUS
 62
    7
 10
50.003317169277125
 20
185.79382170937242
 40
0.080000037277067
 50
90
 51
270
  0
ARC
  8
_0-1_
  6
CONTINUOUS
 62
    7
 10
51.715254326160562
 20
185.79382170937242
 40
0.080000037277067
 50
270
 51
90
  0
ARC
  8
_0-1_
  6
CONTINUOUS
 62
    7
 10
50.859310491701137
 20
183.87346598988336
 40
0.0799995842012199
 50
180
 51
0
  0
ARC
  8
_0-1_
  6
CONTINUOUS
 62
    7
 10
52.211717586295777
 20
185.79345054963846
 40
0.0800002547534734
 50
0
 51
180
  0
ARC
  8
_0-1_
  6
CONTINUOUS
 62
    7
 10
52.211717586295777
 20
183.87346598988336
 40
0.0800002547534734
 50
180
 51
0
  0
ARC
  8
_0-1_
  6
CONTINUOUS
 62
    7
 10
52.711051148373429
 20
183.87346598988336
 40
0.0800002547534734
 50
180
 51
0
  0
ARC
  8
_0-1_
  6
CONTINUOUS
 62
    7
 10
54.236270215096397
 20
185.79345054963846
 40
0.0800002547534734
 50
0
 51
180
  0
ARC
  8
_0-1_
  6
CONTINUOUS
 62
    7
 10
52.711051148373429
 20
185.79345054963846
 40
0.0800002547534734
 50
38.463027954101563
 51
180
  0
ARC
  8
_0-1_
  6
CONTINUOUS
 62
    7
 10
54.236270215096397
 20
183.87346598988336
 40
0.0800002547534734
 50
218.46272277832034
 51
0.0000000000000254
  0
ARC
  8
_0-1_
  6
CONTINUOUS
 62
    7
 10
55.611689213196087
 20
184.90984294300836
 40
0.990620400454547
 50
23.545379638671875
 51
170.49346923828122
  0
ARC
  8
_0-1_
  6
CONTINUOUS
 62
    7
 10
56.067819782241713
 20
184.83345826976085
 40
1.4531366567353945
 50
170.49346923828125
 51
189.50653076171875
  0
ARC
  8
_0-1_
  6
CONTINUOUS
 62
    7
 10
55.787767390983277
 20
184.68729556653034
 40
0.0800002547534734
 50
90
 51
270
  0
ARC
  8
_0-1_
  6
CONTINUOUS
 62
    7
 10
56.067819782241713
 20
184.83345826976085
 40
1.2931363647048539
 50
170.49346923828125
 51
189.50653076171875
  0
ARC
  8
_0-1_
  6
CONTINUOUS
 62
    7
 10
55.611689213196087
 20
184.90984294300836
 40
0.8306201084240063
 50
23.545379638671875
 51
170.49346923828122
  0
ARC
  8
_0-1_
  6
CONTINUOUS
 62
    7
 10
56.446501686802492
 20
185.27362897024648
 40
0.0800000916461686
 50
203.54557800292969
 51
23.54557800292968
  0
ARC
  8
_0-1_
  6
CONTINUOUS
 62
    7
 10
56.307242554623429
 20
184.54061323967221
 40
0.0666666675258325
 50
343.36318969726562
 51
89.999999999999986
  0
ARC
  8
_0-1_
  6
CONTINUOUS
 62
    7
 10
55.593230202427492
 20
184.75398059873044
 40
0.8119064086192363
 50
189.50651550292966
 51
343.36325073242187
  0
ARC
  8
_0-1_
  6
CONTINUOUS
 62
    7
 10
56.423143367545777
 20
184.63394754077024
 40
0.1333333350516653
 50
351.77067565917969
 51
89.999999999999986
  0
ARC
  8
_0-1_
  6
CONTINUOUS
 62
    7
 10
55.593230202427492
 20
184.75398059873044
 40
0.971906700649777
 50
189.50651550292966
 51
351.7706298828125
  0
ARC
  8
_0-1_
  6
CONTINUOUS
 62
    7
 10
57.680632546177492
 20
184.59346638578711
 40
0.8333329574481861
 50
180
 51
0
  0
ARC
  8
_0-1_
  6
CONTINUOUS
 62
    7
 10
57.680632546177492
 20
184.59346638578711
 40
0.673332617089555
 50
180
 51
0
  0
ARC
  8
_0-1_
  6
CONTINUOUS
 62
    7
 10
56.927326750147131
 20
185.79345054963846
 40
0.0800004782708915
 50
0
 51
180
  0
ARC
  8
_0-1_
  6
CONTINUOUS
 62
    7
 10
58.433987830172441
 20
185.79345054963846
 40
0.0800004782708915
 50
0
 51
180
  0
ARC
  8
_0-1_
  6
CONTINUOUS
 62
    7
 10
58.939259947993378
 20
185.79345054963846
 40
0.0800002547534734
 50
0
 51
180
  0
ARC
  8
_0-1_
  6
CONTINUOUS
 62
    7
 10
58.939259947993378
 20
183.87346598988336
 40
0.0800002547534734
 50
180
 51
0
  0
ARC
  8
_0-1_
  6
CONTINUOUS
 62
    7
 10
61.466412344530568
 20
185.79345054963846
 40
0.0800002547534734
 50
0
 51
180
  0
ARC
  8
_0-1_
  6
CONTINUOUS
 62
    7
 10
61.466412344530568
 20
183.87346598988336
 40
0.0800002547534734
 50
180
 51
0
  0
ARC
  8
_0-1_
  6
CONTINUOUS
 62
    7
 10
62.914727114378479
 20
185.79345054963846
 40
0.0800002547534734
 50
0
 51
180
  0
ARC
  8
_0-1_
  6
CONTINUOUS
 62
    7
 10
62.914727114378479
 20
183.87346598988336
 40
0.0800002547534734
 50
180
 51
0
  0
ARC
  8
_0-1_
  6
CONTINUOUS
 62
    7
 10
63.541442697148796
 20
184.1001208674171
 40
0.0666666675258325
 50
180
 51
270
  0
ARC
  8
_0-1_
  6
CONTINUOUS
 62
    7
 10
63.541442697148796
 20
185.64679296676263
 40
0.0666666675258325
 50
90
 51
180
  0
ARC
  8
_0-1_
  6
CONTINUOUS
 62
    7
 10
63.541442697148796
 20
185.64679296676263
 40
0.2266669837204184
 50
90
 51
180
  0
ARC
  8
_0-1_
  6
CONTINUOUS
 62
    7
 10
63.541442697148796
 20
184.1001208674171
 40
0.2266669837204184
 50
180
 51
270
  0
ARC
  8
_0-1_
  6
CONTINUOUS
 62
    7
 10
64.821838617360982
 20
185.79345054963846
 40
0.080000037277067
 50
270
 51
90
  0
ARC
  8
_0-1_
  6
CONTINUOUS
 62
    7
 10
64.710886600891399
 20
184.91518764317732
 40
0.080000037277067
 50
270
 51
90
  0
ARC
  8
_0-1_
  6
CONTINUOUS
 62
    7
 10
64.821838617360982
 20
183.95346328454127
 40
0.080000037277067
 50
270
 51
90
  0
ARC
  8
_0-1_
  6
CONTINUOUS
 62
    7
 10
65.407677141431918
 20
185.64679296676263
 40
0.0666666675258325
 50
90
 51
180
  0
ARC
  8
_0-1_
  6
CONTINUOUS
 62
    7
 10
65.26104430253838
 20
183.87346598988336
 40
0.0800004782708915
 50
180
 51
0
  0
ARC
  8
_0-1_
  6
CONTINUOUS
 62
    7
 10
65.407677141431918
 20
185.64679296676263
 40
0.2266669837204184
 50
90
 51
180
  0
ARC
  8
_0-1_
  6
CONTINUOUS
 62
    7
 10
66.297025351947127
 20
185.35431909640783
 40
0.3591363575007464
 50
269.99992370605469
 51
89.999923706054673
  0
ARC
  8
_0-1_
  6
CONTINUOUS
 62
    7
 10
66.14767067500452
 20
184.34723901828283
 40
0.4879590144028535
 50
0.1215972900390625
 51
90
  0
ARC
  8
_0-1_
  6
CONTINUOUS
 62
    7
 10
66.14767067500452
 20
184.34723901828283
 40
0.6479590647929424
 50
0.1215972900390625
 51
55.667327880859375
  0
ARC
  8
_0-1_
  6
CONTINUOUS
 62
    7
 10
66.297025351947127
 20
185.35431909640783
 40
0.5191364320548802
 50
294.59797668457031
 51
89.999923706054673
  0
ARC
  8
_0-1_
  6
CONTINUOUS
 62
    7
 10
67.617611685350823
 20
184.35035676004804
 40
0.9820015688200255
 50
180.12159729003906
 51
211.29817199707031
  0
ARC
  8
_0-1_
  6
CONTINUOUS
 62
    7
 10
67.617611685350823
 20
184.35035676004804
 40
0.822001566758027
 50
180.12159729003906
 51
211.29817199707031
  0
ARC
  8
_0-1_
  6
CONTINUOUS
 62
    7
 10
66.846886125806918
 20
183.88175522394158
 40
0.080000405778756
 50
211.29806518554687
 51
31.298065185546889
  0
ARC
  8
_0-1_
  6
CONTINUOUS
 62
    7
 10
60.408458638871707
 20
185.13926914655565
 40
0.7546809718415542
 50
28.758041381835945
 51
88.127578735351577
  0
ARC
  8
_0-1_
  6
CONTINUOUS
 62
    7
 10
60.112718562858277
 20
176.09306718287326
 40
9.8057045807709571
 50
88.127593994140625
 51
90.384368896484375
  0
ARC
  8
_0-1_
  6
CONTINUOUS
 62
    7
 10
60.052145294277125
 20
185.1187316412769
 40
0.7798584570755825
 50
90.384353637695313
 51
120.12554931640625
  0
ARC
  8
_0-1_
  6
CONTINUOUS
 62
    7
 10
59.894971518939315
 20
185.38957927113336
 40
0.4667072682767299
 50
120.12564086914062
 51
246.76907348632812
  0
ARC
  8
_0-1_
  6
CONTINUOUS
 62
    7
 10
60.320320574049106
 20
186.38045204087575
 40
1.5450071966325916
 50
246.76905822753906
 51
265.43646240234375
  0
ARC
  8
_0-1_
  6
CONTINUOUS
 62
    7
 10
60.058380777807542
 20
183.09888036910638
 40
1.7470020861239048
 50
67.248214721679688
 51
85.436431884765625
  0
ARC
  8
_0-1_
  6
CONTINUOUS
 62
    7
 10
60.594879801245042
 20
184.37811950814773
 40
0.3598255402333027
 50
297.15679931640625
 51
67.248199462890625
  0
ARC
  8
_0-1_
  6
CONTINUOUS
 62
    7
 10
60.214267866067644
 20
185.1200183283546
 40
1.1936462247693862
 50
247.42442321777344
 51
297.15679931640625
  0
ARC
  8
_0-1_
  6
CONTINUOUS
 62
    7
 10
59.932631859944422
 20
184.44262706990867
 40
0.4600461109264477
 50
186.07022094726565
 51
247.42431640625
  0
ARC
  8
_0-1_
  6
CONTINUOUS
 62
    7
 10
60.408458638871707
 20
185.13926914655565
 40
0.5946806798110132
 50
28.758041381835945
 51
88.127578735351577
  0
ARC
  8
_0-1_
  6
CONTINUOUS
 62
    7
 10
60.112718562858277
 20
176.09306718287326
 40
9.6457038054595134
 50
88.127593994140625
 51
90.384368896484375
  0
ARC
  8
_0-1_
  6
CONTINUOUS
 62
    7
 10
59.894971518939315
 20
185.38957927113336
 40
0.3067069762461894
 50
120.12564086914062
 51
246.76907348632812
  0
ARC
  8
_0-1_
  6
CONTINUOUS
 62
    7
 10
60.052145294277125
 20
185.1187316412769
 40
0.619858116716952
 50
90.384353637695313
 51
120.12554931640625
  0
ARC
  8
_0-1_
  6
CONTINUOUS
 62
    7
 10
60.320320574049106
 20
186.38045204087575
 40
1.3850067112896893
 50
246.76905822753906
 51
265.43646240234375
  0
ARC
  8
_0-1_
  6
CONTINUOUS
 62
    7
 10
60.058380777807542
 20
183.09888036910638
 40
1.9070020881859033
 50
67.248214721679688
 51
85.436431884765625
  0
ARC
  8
_0-1_
  6
CONTINUOUS
 62
    7
 10
60.594879801245042
 20
184.37811950814773
 40
0.5198258805919338
 50
297.15679931640625
 51
67.248199462890625
  0
ARC
  8
_0-1_
  6
CONTINUOUS
 62
    7
 10
60.214267866067644
 20
185.1200183283546
 40
1.3536466134561076
 50
247.42442321777344
 51
297.15679931640625
  0
ARC
  8
_0-1_
  6
CONTINUOUS
 62
    7
 10
59.932631859944422
 20
184.44262706990867
 40
0.6200464996131691
 50
186.07022094726565
 51
247.42431640625
  0
ARC
  8
_0-1_
  6
CONTINUOUS
 62
    7
 10
60.999889302934207
 20
185.46386070588846
 40
0.080000242671451
 50
208.75813293457031
 51
28.758132934570305
  0
ARC
  8
_0-1_
  6
CONTINUOUS
 62
    7
 10
59.395637956861606
 20
184.3855179588445
 40
0.0799998500057167
 50
6.0701751708984375
 51
186.07017517089844
  0
ARC
  8
_0-1_
  6
CONTINUOUS
 62
    7
 10
44.377698569720565
 20
190.32823069110805
 40
0.3088084024351995
 50
202.13087463378906
 51
278.379638671875
  0
ARC
  8
_0-1_
  6
CONTINUOUS
 62
    7
 10
44.192019726815147
 20
191.58893658743398
 40
1.5831329371478107
 50
278.37962341308594
 51
285.5291748046875
  0
ARC
  8
_0-1_
  6
CONTINUOUS
 62
    7
 10
44.522995233571919
 20
190.39771179330398
 40
0.3467583978498304
 50
285.52923583984375
 51
17.479476928710934
  0
ARC
  8
_0-1_
  6
CONTINUOUS
 62
    7
 10
32.889661460345593
 20
186.73431573122627
 40
12.543293720967062
 50
17.479476928710937
 51
28.363311767578125
  0
ARC
  8
_0-1_
  6
CONTINUOUS
 62
    7
 10
43.5954918024064
 20
192.51406459630232
 40
0.3769501882630425
 50
28.363250732421875
 51
121.01126098632812
  0
ARC
  8
_0-1_
  6
CONTINUOUS
 62
    7
 10
-202.75676476629616
 20
89.822251307794033
 40
266.48123251425255
 50
22.130859375000004
 51
22.630783081054691
  0
ARC
  8
_0-1_
  6
CONTINUOUS
 62
    7
 10
43.622759670860773
 20
192.46870887681325
 40
0.4298906390731399
 50
121.01127624511719
 51
194.38229370117187
  0
ARC
  8
_0-1_
  6
CONTINUOUS
 62
    7
 10
46.186929064864103
 20
193.21399762259023
 40
0.4039929444725449
 50
0
 51
180
  0
ARC
  8
_0-1_
  6
CONTINUOUS
 62
    7
 10
40.308996078166501
 20
191.43436093023388
 40
5.4739468806498763
 50
336.56442260742188
 51
0.0000000000000127
  0
ARC
  8
_0-1_
  6
CONTINUOUS
 62
    7
 10
42.838127993284729
 20
190.33805405206658
 40
2.7174311070828825
 50
306.49981689453125
 51
336.56440734863281
  0
ARC
  8
_0-1_
  6
CONTINUOUS
 62
    7
 10
41.332704112372653
 20
192.37252901775503
 40
5.2482991605191618
 50
291.01454162597656
 51
306.49981689453125
  0
ARC
  8
_0-1_
  6
CONTINUOUS
 62
    7
 10
43.374330088935153
 20
187.05794227525075
 40
0.4449429544242651
 50
111.01455688476562
 51
179.80047607421875
  0
ARC
  8
_0-1_
  6
CONTINUOUS
 62
    7
 10
43.512896389610773
 20
187.05744739560544
 40
0.5835259282911146
 50
179.80047607421875
 51
210.06240844726571
  0
ARC
  8
_0-1_
  6
CONTINUOUS
 62
    7
 10
43.341767008276292
 20
186.9583972346046
 40
0.3857899275985923
 50
210.06243896484375
 51
263.25991821289062
  0
ARC
  8
_0-1_
  6
CONTINUOUS
 62
    7
 10
43.377447830700248
 20
187.26039753813086
 40
0.6898870178171107
 50
263.25990295410156
 51
288.52110290527344
  0
ARC
  8
_0-1_
  6
CONTINUOUS
 62
    7
 10
42.283318422972229
 20
190.52642998903877
 40
4.1343096140268685
 50
288.52110290527344
 51
348.1728515625
  0
ARC
  8
_0-1_
  6
CONTINUOUS
 62
    7
 10
51.089949150379312
 20
192.11736907265367
 40
4.4990169679796379
 50
180
 51
204.45146179199219
  0
ARC
  8
_0-1_
  6
CONTINUOUS
 62
    7
 10
53.725727629053381
 20
193.31586859756919
 40
7.3945133106128598
 50
204.45146179199219
 51
233.16328430175781
  0
ARC
  8
_0-1_
  6
CONTINUOUS
 62
    7
 10
49.00289322238109
 20
187.01115140479044
 40
0.4829754700531829
 50
321.14401245117187
 51
53.163223266601555
  0
ARC
  8
_0-1_
  6
CONTINUOUS
 62
    7
 10
48.998043401857444
 20
187.01506095398804
 40
0.4892249687297923
 50
231.3447265625
 51
321.14395141601562
  0
ARC
  8
_0-1_
  6
CONTINUOUS
 62
    7
 10
53.832275216680046
 20
193.05887759778034
 40
8.2285834647513738
 50
204.25143432617187
 51
231.34474182128906
  0
ARC
  8
_0-1_
  6
CONTINUOUS
 62
    7
 10
34.8155845758439
 20
195.90708316418659
 40
13.907044384930586
 50
337.2559814453125
 51
346.34568786621094
  0
ARC
  8
_0-1_
  6
CONTINUOUS
 62
    7
 10
47.996011096114103
 20
190.38167769279721
 40
0.3847000808329195
 50
157.25596618652344
 51
231.38948059082034
  0
ARC
  8
_0-1_
  6
CONTINUOUS
 62
    7
 10
48.023031524745875
 20
190.41552746053367
 40
0.4280170556661245
 50
231.38951110839847
 51
333.48968505859381
  0
ARC
  8
_0-1_
  6
CONTINUOUS
 62
    7
 10
41.715543005953691
 20
193.56174954932169
 40
7.4766586922310498
 50
333.48968505859375
 51
350.72286987304693
  0
ARC
  8
_0-1_
  6
CONTINUOUS
 62
    7
 10
48.677509855615881
 20
192.42454086847283
 40
0.4224473399084967
 50
350.72293090820312
 51
44.328186035156236
  0
ARC
  8
_0-1_
  6
CONTINUOUS
 62
    7
 10
48.661673706967235
 20
192.40907587955815
 40
0.4445834900881793
 50
44.328247070312493
 51
87.476593017578125
  0
ARC
  8
_0-1_
  6
CONTINUOUS
 62
    7
 10
48.66538530430671
 20
192.4931806752719
 40
0.3604189366907685
 50
87.476608276367188
 51
158.69110107421875
  0
ARC
  8
_0-1_
  6
CONTINUOUS
 62
    7
 10
51.038159995501815
 20
192.83418986683648
 40
0.4000000051549961
 50
90
 51
180
  0
ARC
  8
_0-1_
  6
CONTINUOUS
 62
    7
 10
53.160599818136916
 20
192.83418986683648
 40
0.4000000051549961
 50
0
 51
90
  0
ARC
  8
_0-1_
  6
CONTINUOUS
 62
    7
 10
51.038159995501815
 20
191.35558846269794
 40
0.4000000051549961
 50
180
 51
270
  0
ARC
  8
_0-1_
  6
CONTINUOUS
 62
    7
 10
54.318420236211296
 20
192.83418986683648
 40
0.4000000051549961
 50
90
 51
180
  0
ARC
  8
_0-1_
  6
CONTINUOUS
 62
    7
 10
56.440860058846397
 20
192.83418986683648
 40
0.4000000051549961
 50
0
 51
90
  0
ARC
  8
_0-1_
  6
CONTINUOUS
 62
    7
 10
56.440860058846397
 20
191.35558846269794
 40
0.4000000051549961
 50
270
 51
0
  0
ARC
  8
_0-1_
  6
CONTINUOUS
 62
    7
 10
50.679025836929213
 20
190.30862108516419
 40
0.3000000038662472
 50
90
 51
180
  0
ARC
  8
_0-1_
  6
CONTINUOUS
 62
    7
 10
50.679025836929213
 20
190.15092768619877
 40
0.3000000038662472
 50
180
 51
270
  0
ARC
  8
_0-1_
  6
CONTINUOUS
 62
    7
 10
56.799994217418998
 20
190.30862108516419
 40
0.3000000038662472
 50
0
 51
90
  0
ARC
  8
_0-1_
  6
CONTINUOUS
 62
    7
 10
56.799994217418998
 20
190.15092768619877
 40
0.3000000038662472
 50
270
 51
0
  0
ARC
  8
_0-1_
  6
CONTINUOUS
 62
    7
 10
50.705501897951137
 20
188.68378274584836
 40
0.3973812025946539
 50
102.790771484375
 51
179.35427856445315
  0
ARC
  8
_0-1_
  6
CONTINUOUS
 62
    7
 10
50.911866710028846
 20
188.68143206753325
 40
0.6037597398500185
 50
179.354248046875
 51
199.40115356445312
  0
ARC
  8
_0-1_
  6
CONTINUOUS
 62
    7
 10
53.302283860577859
 20
190.18324332703492
 40
1.3319063186645508
 50
67.701248168945312
 51
78.816680908203125
  0
ARC
  8
_0-1_
  6
CONTINUOUS
 62
    7
 10
51.173757018305878
 20
186.97041043799356
 40
0.4000000051549961
 50
180
 51
270
  0
ARC
  8
_0-1_
  6
CONTINUOUS
 62
    7
 10
53.15604692540046
 20
186.97041043799356
 40
0.4000000051549961
 50
270
 51
0
  0
ARC
  8
_0-1_
  6
CONTINUOUS
 62
    7
 10
53.15604692540046
 20
188.63736303512201
 40
0.4000000051549961
 50
0
 51
90
  0
ARC
  8
_0-1_
  6
CONTINUOUS
 62
    7
 10
52.598861932790669
 20
188.08012855454763
 40
0.200000002577498
 50
0
 51
90
  0
ARC
  8
_0-1_
  6
CONTINUOUS
 62
    7
 10
51.730942010915669
 20
188.08012855454763
 40
0.200000002577498
 50
90
 51
180
  0
ARC
  8
_0-1_
  6
CONTINUOUS
 62
    7
 10
51.730942010915669
 20
187.52762017458565
 40
0.200000002577498
 50
180
 51
270
  0
ARC
  8
_0-1_
  6
CONTINUOUS
 62
    7
 10
52.598861932790669
 20
187.52762017458565
 40
0.200000002577498
 50
270
 51
0
  0
ARC
  8
_0-1_
  6
CONTINUOUS
 62
    7
 10
56.305263036042334
 20
186.97041043799356
 40
0.4000000051549961
 50
270
 51
0
  0
ARC
  8
_0-1_
  6
CONTINUOUS
 62
    7
 10
54.322973128947751
 20
186.97041043799356
 40
0.4000000051549961
 50
180
 51
270
  0
ARC
  8
_0-1_
  6
CONTINUOUS
 62
    7
 10
54.322973128947751
 20
188.63736303512201
 40
0.4000000051549961
 50
90
 51
180
  0
ARC
  8
_0-1_
  6
CONTINUOUS
 62
    7
 10
54.880207609522131
 20
188.08012855454763
 40
0.200000002577498
 50
90
 51
180
  0
ARC
  8
_0-1_
  6
CONTINUOUS
 62
    7
 10
55.748078043432542
 20
188.08012855454763
 40
0.200000002577498
 50
0
 51
90
  0
ARC
  8
_0-1_
  6
CONTINUOUS
 62
    7
 10
55.748078043432542
 20
187.52762017458565
 40
0.200000002577498
 50
270
 51
0
  0
ARC
  8
_0-1_
  6
CONTINUOUS
 62
    7
 10
54.880207609522131
 20
187.52762017458565
 40
0.200000002577498
 50
180
 51
270
  0
ARC
  8
_0-1_
  6
CONTINUOUS
 62
    7
 10
50.699414878314315
 20
188.60663100915065
 40
0.3785454985257741
 50
199.40110778808594
 51
281.32283020019531
  0
ARC
  8
_0-1_
  6
CONTINUOUS
 62
    7
 10
49.816005223542334
 20
192.60181912939981
 40
3.6203697565439588
 50
282.79060363769531
 51
310.54980468750057
  0
ARC
  8
_0-1_
  6
CONTINUOUS
 62
    7
 10
49.816005223542334
 20
192.60181912939981
 40
3.6203697565439588
 50
326.59477233886719
 51
332.95365905761719
  0
ARC
  8
_0-1_
  6
CONTINUOUS
 62
    7
 10
49.881477800611606
 20
192.47641662728836
 40
4.3338323283839877
 50
307.48240661621094
 51
322.71244812011719
  0
ARC
  8
_0-1_
  6
CONTINUOUS
 62
    7
 10
49.881477800611606
 20
192.47641662728836
 40
4.3338323283839877
 50
334.46990966796875
 51
340.75386047363281
  0
ARC
  8
_0-1_
  6
CONTINUOUS
 62
    7
 10
53.69650498600015
 20
191.14444806204335
 40
0.2929901110159384
 50
340.75370788574219
 51
356.90113830566406
  0
ARC
  8
_0-1_
  6
CONTINUOUS
 62
    7
 10
53.69650498600015
 20
191.14444806204335
 40
0.2929901110159384
 50
40.60516357421875
 51
67.701187133789063
  0
ARC
  8
_0-1_
  6
CONTINUOUS
 62
    7
 10
54.318420236211296
 20
191.35558846269794
 40
0.4000000051549961
 50
180
 51
182.93217468261719
  0
ARC
  8
_0-1_
  6
CONTINUOUS
 62
    7
 10
54.318420236211296
 20
191.35558846269794
 40
0.4000000051549961
 50
214.57420349121094
 51
270
  0
ARC
  8
_0-1_
  6
CONTINUOUS
 62
    7
 10
57.350844750569422
 20
192.44053785300628
 40
3.4993751628978833
 50
227.73342895507812
 51
261.55911254882812
  0
ARC
  8
_0-1_
  6
CONTINUOUS
 62
    7
 10
56.786681954961296
 20
188.63884767405773
 40
0.3439417642516057
 50
8.4381866455078125
 51
81.559112548828125
  0
ARC
  8
_0-1_
  6
CONTINUOUS
 62
    7
 10
56.536916197993378
 20
188.6018059326093
 40
0.5964395323315182
 50
343.67138671875
 51
8.4381256103515856
  0
ARC
  8
_0-1_
  6
CONTINUOUS
 62
    7
 10
56.744320257326137
 20
188.54103471217013
 40
0.3802874362146532
 50
264.10513305664062
 51
343.6715087890625
  0
ARC
  8
_0-1_
  6
CONTINUOUS
 62
    7
 10
57.786041910620042
 20
193.14841369760086
 40
5.1039624858546908
 50
220.24555969238281
 51
233.65509033203125
  0
LINE
  8
_0-1_
  6
CONTINUOUS
 62
    7
 10
25.987413375075903
 20
275.92602072138345
 11
99.987360587914281
 21
275.92602072138345
  0
LINE
  8
_0-1_
  6
CONTINUOUS
 62
    4
 10
25.987413375075903
 20
275.92602072138345
 11
25.987413375075903
 21
268.92602237098231
  0
LINE
  8
_0-1_
  6
CONTINUOUS
 62
    4
 10
99.987360587914281
 20
275.92602072138345
 11
99.987360587914281
 21
268.92602237098231
  0
POINT
  8
_0-1_
 62
    7
 10
25.987413375075903
 20
275.92602072138345
  0
POINT
  8
_0-1_
 62
    7
 10
99.987360587914281
 20
275.92602072138345
  0
TEXT
  8
_0-1_
 62
    7
 10
55.159362678064326
 20
275.98445328362141
 40
5
 41
1
 50
0
  1
370
  0
LINE
  8
_0-1_
  6
CONTINUOUS
 62
    7
 10
13.911012618239994
 20
38.846148643418061
 11
13.911012618239994
 21
40.846148643418061
  0
LINE
  8
_0-1_
  6
CONTINUOUS
 62
    7
 10
13.911012618239994
 20
38.846148643418061
 11
20.911012618239994
 21
38.846148643418061
  0
LINE
  8
_0-1_
  6
CONTINUOUS
 62
    7
 10
13.911012618239994
 20
40.846148643418061
 11
20.911012618239994
 21
40.846148643418061
  0
LINE
  8
_0-1_
  6
CONTINUOUS
 62
    7
 10
13.911012618239994
 20
40.846148643418061
 11
13.911012618239994
 21
71.846110496445419
  0
LINE
  8
_0-1_
  6
CONTINUOUS
 62
    7
 10
13.911012618239994
 20
71.846110496445419
 11
20.911012618239994
 21
71.846110496445419
  0
LINE
  8
_0-1_
  6
CONTINUOUS
 62
    7
 10
6.6850299522243688
 20
38.846148643418061
 11
6.6850299522243688
 21
71.846110496445419
  0
LINE
  8
_0-1_
  6
CONTINUOUS
 62
    7
 10
6.6850299522243688
 20
38.846148643418061
 11
20.911012618239994
 21
38.846148643418061
  0
LINE
  8
_0-1_
  6
CONTINUOUS
 62
    7
 10
6.6850299522243688
 20
71.846110496445419
 11
20.911012618239994
 21
71.846110496445419
  0
POINT
  8
_0-1_
 62
    7
 10
13.911012618239994
 20
38.846148643418061
  0
POINT
  8
_0-1_
 62
    7
 10
13.911012618239994
 20
40.846148643418061
  0
POINT
  8
_0-1_
 62
    7
 10
13.911012618239994
 20
71.846110496445419
  0
POINT
  8
_0-1_
 62
    7
 10
6.6850299522243688
 20
38.846148643418061
  0
POINT
  8
_0-1_
 62
    7
 10
6.6850299522243688
 20
71.846110496445419
  0
TEXT
  8
_0-1_
 62
    7
 10
6.468240120231286
 20
53.130825239714781
 40
5
 41
1
 50
90
  1
165
  0
TEXT
  8
_0-1_
 62
    7
 10
13.840101154658299
 20
53.130825239714781
 40
5
 41
1
 50
90
  1
155
  0
TEXT
  8
_0-1_
 62
    7
 10
14.733660067922187
 20
33.249139419593419
 40
5
 41
1
 50
90
  1
10
  0
LINE
  8
_0-1_
  6
CONTINUOUS
 62
    7
 10
25.987413375075903
 20
37.522790417468585
 11
25.987413375075903
 21
32.887765756173408
  0
LINE
  8
_0-1_
  6
CONTINUOUS
 62
    7
 10
99.987390486892309
 20
37.522790417468585
 11
99.987390486892309
 21
32.887765756173408
  0
POINT
  8
_0-1_
 62
    7
 10
25.987413375075903
 20
32.887765756173408
  0
POINT
  8
_0-1_
 62
    7
 10
99.987421004470434
 20
32.887765756173408
  0
LINE
  8
_0-1_
  6
CONTINUOUS
 62
    7
 10
25.987413375075903
 20
32.887765756173408
 11
99.987390486892309
 21
32.887765756173408
  0
TEXT
  8
_0-1_
 62
    7
 10
59.634995459432162
 20
32.915235491827573
 40
4
 41
1
 50
0
  1
370
  0
LINE
  8
_0-0_
  6
CONTINUOUS
 62
    7
 10
38.987505752610105
 20
264.86772860694396
 11
86.987466162238434
 21
264.86772860694396
  0
LINE
  8
_0-0_
  6
CONTINUOUS
 62
    7
 10
96.987400178285952
 20
264.86775335092625
 11
28.987373784704687
 21
264.86775335092625
  0
LINE
  8
_0-0_
  6
CONTINUOUS
 62
    7
 10
29.58736586663008
 20
264.46774213365427
 11
96.387408096360105
 21
264.46774213365427
  0
LINE
  8
_0-0_
  6
CONTINUOUS
 62
    7
 10
99.987360587914281
 20
267.86778799250146
 11
25.987413375075903
 21
267.86778799250146
  0
LINE
  8
_0-0_
  6
DASHED2
 62
    7
 10
32.987386981495092
 20
259.46775038164844
 11
92.987386981495092
 21
259.46775038164844
  0
LINE
  8
_0-0_
  6
CENTER2
 62
    7
 10
94.387302522035952
 20
266.40029663639928
 11
94.387302522035952
 21
261.06774576277166
  0
LINE
  8
_0-0_
  6
LONG3
 62
    7
 10
94.987294603961345
 20
265.0677589595623
 11
94.937410735718458
 21
264.86775335092625
  0
LINE
  8
_0-0_
  6
LONG3
 62
    7
 10
93.787310440110105
 20
265.0677589595623
 11
94.987294603961345
 21
265.0677589595623
  0
LINE
  8
_0-0_
  6
LONG3
 62
    7
 10
93.787310440110105
 20
265.0677589595623
 11
93.837392260211345
 21
264.86775335092625
  0
LINE
  8
_0-0_
  6
LONG3
 62
    7
 10
94.067412319333016
 20
261.06774576277166
 11
94.707390676596788
 21
261.06774576277166
  0
LINE
  8
_0-0_
  6
LONG3
 62
    7
 10
94.707390676596788
 20
261.06774576277166
 11
94.787363227272181
 21
261.14774305742969
  0
LINE
  8
_0-0_
  6
LONG3
 62
    7
 10
93.987439768657623
 20
261.14774305742969
 11
94.067412319333016
 21
261.06774576277166
  0
LINE
  8
_0-0_
  6
CONTINUOUS
 62
    7
 10
93.987439768657623
 20
264.46776687763656
 11
93.987439768657623
 21
264.86775335092625
  0
LINE
  8
_0-0_
  6
CONTINUOUS
 62
    7
 10
94.787363227272181
 20
264.46776687763656
 11
94.787363227272181
 21
264.86775335092625
  0
LINE
  8
_0-0_
  6
LONG3
 62
    7
 10
94.787363227272181
 20
264.46776687763656
 11
94.787363227272181
 21
261.14774305742969
  0
LINE
  8
_0-0_
  6
LONG3
 62
    7
 10
93.987439768657623
 20
264.46776687763656
 11
93.987439768657623
 21
261.14774305742969
  0
LINE
  8
_0-0_
  6
DASHED2
 62
    7
 10
92.987386981495092
 20
259.46775038164844
 11
92.987386981495092
 21
205.46775780484302
  0
LINE
  8
_0-0_
  6
CONTINUOUS
 62
    7
 10
96.387408096360105
 20
264.46774213365427
 11
96.387408096360105
 21
89.267740649015337
  0
LINE
  8
_0-0_
  6
CONTINUOUS
 62
    7
 10
96.987400178285952
 20
88.867729431743413
 11
96.987400178285952
 21
264.86775335092625
  0
LINE
  8
_0-0_
  6
CONTINUOUS
 62
    7
 10
99.987360587914281
 20
85.867744278132761
 11
99.987360587914281
 21
267.86778799250146
  0
LINE
  8
_0-0_
  6
CONTINUOUS
 62
    7
 10
89.987426571866763
 20
256.46774048405553
 11
89.987426571866763
 21
208.46775533044479
  0
LINE
  8
_0-0_
  6
CONTINUOUS
 62
    7
 10
35.987347391123421
 20
256.46774048405553
 11
89.987426571866763
 21
256.46774048405553
  0
LINE
  8
_0-0_
  6
CONTINUOUS
 62
    7
 10
35.987347391123421
 20
256.46774048405553
 11
35.987347391123421
 21
208.46775533044479
  0
LINE
  8
_0-0_
  6
DASHED2
 62
    7
 10
32.987386981495092
 20
259.46775038164844
 11
32.987386981495092
 21
205.46775780484302
  0
LINE
  8
_0-0_
  6
CONTINUOUS
 62
    7
 10
29.58736586663008
 20
264.46774213365427
 11
29.58736586663008
 21
89.267740649015337
  0
LINE
  8
_0-0_
  6
CONTINUOUS
 62
    7
 10
28.987373784704687
 20
264.86775335092625
 11
28.987373784704687
 21
88.867729431743413
  0
LINE
  8
_0-0_
  6
CONTINUOUS
 62
    7
 10
25.987413375075903
 20
267.86778799250146
 11
25.987413375075903
 21
85.867744278132761
  0
LINE
  8
_0-0_
  6
CONTINUOUS
 62
    7
 10
35.987347391123421
 20
208.46775533044479
 11
89.987426571866763
 21
208.46775533044479
  0
LINE
  8
_0-0_
  6
DASHED2
 62
    7
 10
32.987386981495092
 20
205.46775780484302
 11
92.987386981495092
 21
205.46775780484302
  0
LINE
  8
ADD_LINE
  6
DOT
 62
    7
 10
141.02535414788008
 20
197.86771788455167
 11
2.7664727078467877
 21
197.86771788455167
  0
LINE
  8
ADD_LINE
  6
DOT
 62
    7
 10
141.02535414788008
 20
193.86771705975229
 11
2.7664727078467877
 21
193.86771705975229
  0
LINE
  8
ADD_LINE
  6
DOT
 62
    7
 10
141.02535414788008
 20
178.86771705975229
 11
2.7664727078467877
 21
178.86771705975229
  0
LINE
  8
_0-0_
  6
CONTINUOUS
 62
    7
 10
29.58736586663008
 20
89.267740649015337
 11
96.387408096360105
 21
89.267740649015337
  0
LINE
  8
_0-0_
  6
CONTINUOUS
 62
    7
 10
25.987413375075903
 20
85.867744278132761
 11
99.987360587914281
 21
85.867744278132761
  0
LINE
  8
ADD_LINE
  6
DOT
 62
    7
 10
58.384214473049326
 20
165.46416167942078
 11
8.6982980879142815
 21
165.46416167942078
  0
LINE
  8
_0-0_
  6
CONTINUOUS
 62
    7
 10
28.987373784704687
 20
88.867729431743413
 11
96.987400178285952
 21
88.867729431743413
  0
LINE
  8
_0-0_
  6
CONTINUOUS
 62
    7
 10
97.227403609450903
 20
71.846110496445419
 11
28.747514693435278
 21
71.846110496445419
  0
LINE
  8
_0-0_
  6
CONTINUOUS
 62
    7
 10
28.747514693435278
 20
71.846110496445419
 11
28.747514693435278
 21
40.846148643418061
  0
LINE
  8
_0-0_
  6
CONTINUOUS
 62
    7
 10
97.227403609450903
 20
40.846148643418061
 11
97.227403609450903
 21
71.846110496445419
  0
LINE
  8
_0-0_
  6
CONTINUOUS
 62
    7
 10
99.987421004470434
 20
40.846148643418061
 11
25.987413375075903
 21
40.846148643418061
  0
LINE
  8
_0-0_
  6
CONTINUOUS
 62
    7
 10
26.227434127029028
 20
38.846148643418061
 11
99.747400252517309
 21
38.846148643418061
  0
LINE
  8
_0-0_
  6
CONTINUOUS
 62
    7
 10
99.987390486892309
 20
40.846148643418061
 11
99.987390486892309
 21
39.086161765976655
  0
LINE
  8
_0-0_
  6
CONTINUOUS
 62
    7
 10
25.987413375075903
 20
39.086161765976655
 11
25.987413375075903
 21
40.846148643418061
  0
ARC
  8
_0-0_
  6
CONTINUOUS
 62
    7
 10
26.227434127029028
 20
39.086161765976655
 40
0.240000009536743
 50
180
 51
270
  0
ARC
  8
_0-0_
  6
CONTINUOUS
 62
    7
 10
99.747400252517309
 20
39.086161765976655
 40
0.240000009536743
 50
270
 51
0
  0
CIRCLE
  8
_0-1_
  6
CONTINUOUS
 62
    7
 10
4.5836563729075692
 20
211.28234418053518
 40
3.4095973463431131
  0
TEXT
  8
_0-1_
 62
    7
 10
2.6040795024244403
 20
209.52445344955936
 40
4
 41
1
 50
0
  1
２
  0
LINE
  8
_0-1_
  6
CONTINUOUS
 62
    7
 10
31.811375323819732
 20
201.3102945421038
 11
7.7170252739646799
 21
209.93796573899516
  0
CIRCLE
  8
_0-1_
  6
CONTINUOUS
 62
    7
 10
111.30579500381032
 20
260.65731769366846
 40
3.4095973463431131
  0
TEXT
  8
_0-1_
 62
    7
 10
109.28537187429333
 20
258.89942696269259
 40
4
 41
1
 50
0
  1
３
  0
LINE
  8
_0-1_
  6
CONTINUOUS
 62
    7
 10
86.661666171331149
 20
245.59520784070492
 11
108.23727278669116
 21
259.17087043014499
  0
CIRCLE
  8
_0-1_
  6
CONTINUOUS
 62
    7
 10
6.4527603963685465
 20
139.24485149091043
 40
3.4095973463431131
  0
TEXT
  8
_0-1_
 62
    7
 10
4.4731835258855313
 20
137.48696075993465
 40
4
 41
1
 50
0
  1
４
  0
LINE
  8
_0-1_
  6
CONTINUOUS
 62
    7
 10
37.726752706682817
 20
155.55282138835105
 11
9.7861578507859122
 21
139.96166072290583
  0
CIRCLE
  8
_0-1_
  6
CONTINUOUS
 62
    7
 10
4.3798448196505433
 20
184.53735083031131
 40
3.4095973463431131
  0
LINE
  8
_0-1_
  6
CONTINUOUS
 62
    7
 10
7.713242274067909
 20
185.25416006230668
 11
31.296231503533818
 21
177.1939348193194
  0
TEXT
  8
_0-1_
 62
    7
 10
2.4002679491675281
 20
182.77946009933549
 40
4
 41
1
 50
0
  1
５
  0
LINE
  8
_0-0_
  6
CENTER2
 62
    7
 10
62.987386981495149
 20
286.09596330930304
 11
62.987386981495149
 21
74.867779125907788
  0
LINE
  8
_0-f_
  6
CONTINUOUS
 62
    7
 10
354.59564353440857
 20
281.74767591301435
 11
354.59564353440857
 21
282.12365191301433
  0
LINE
  8
_0-f_
  6
CONTINUOUS
 62
    7
 10
354.59564353440857
 20
282.12365191301433
 11
356.27564353440863
 21
282.12365191301433
  0
LINE
  8
_0-f_
  6
CONTINUOUS
 62
    7
 10
356.27564353440863
 20
282.12365191301433
 11
356.27564353440863
 21
282.43576391301428
  0
LINE
  8
_0-f_
  6
CONTINUOUS
 62
    7
 10
356.27564353440863
 20
282.43576391301428
 11
355.46847523610995
 21
282.43576391301428
  0
LINE
  8
_0-f_
  6
CONTINUOUS
 62
    7
 10
355.46847523610995
 20
282.43576391301428
 11
355.55960861124169
 21
282.8037275081133
  0
LINE
  8
_0-f_
  6
CONTINUOUS
 62
    7
 10
355.55960861124169
 20
282.8037275081133
 11
356.59564353440857
 21
282.8037319130143
  0
LINE
  8
_0-f_
  6
CONTINUOUS
 62
    7
 10
356.59564353440857
 20
282.8037319130143
 11
356.59564353440857
 21
283.20373191301428
  0
LINE
  8
_0-f_
  6
CONTINUOUS
 62
    7
 10
356.59564353440857
 20
283.20373191301428
 11
355.9587906018856
 21
283.20373191301428
  0
LINE
  8
_0-f_
  6
CONTINUOUS
 62
    7
 10
355.9587906018856
 20
283.20373191301428
 11
356.1236435344087
 21
283.48940391301437
  0
LINE
  8
_0-f_
  6
CONTINUOUS
 62
    7
 10
356.1236435344087
 20
283.48940391301437
 11
355.59322753440853
 21
283.79574791301434
  0
LINE
  8
_0-f_
  6
CONTINUOUS
 62
    7
 10
355.59322753440853
 20
283.79574791301434
 11
355.25083890766041
 21
283.20373191301428
  0
LINE
  8
_0-f_
  6
CONTINUOUS
 62
    7
 10
355.25083890766041
 20
283.20373191301428
 11
355.15565153440872
 21
283.20373191301428
  0
LINE
  8
_0-f_
  6
CONTINUOUS
 62
    7
 10
355.15565153440872
 20
283.20373191301428
 11
355.15565153440872
 21
283.79572391301434
  0
LINE
  8
_0-f_
  6
CONTINUOUS
 62
    7
 10
355.15565153440872
 20
283.79572391301434
 11
354.4356355344085
 21
283.79572391301434
  0
LINE
  8
_0-f_
  6
CONTINUOUS
 62
    7
 10
354.4356355344085
 20
283.79572391301434
 11
354.4356355344085
 21
283.20373191301428
  0
LINE
  8
_0-f_
  6
CONTINUOUS
 62
    7
 10
354.4356355344085
 20
283.20373191301428
 11
353.95562753440851
 21
283.20373191301428
  0
LINE
  8
_0-f_
  6
CONTINUOUS
 62
    7
 10
353.95562753440851
 20
283.20373191301428
 11
353.95562753440851
 21
283.79572391301434
  0
LINE
  8
_0-f_
  6
CONTINUOUS
 62
    7
 10
353.95562753440851
 20
283.79572391301434
 11
353.23563553440852
 21
283.79572391301434
  0
LINE
  8
_0-f_
  6
CONTINUOUS
 62
    7
 10
353.23563553440852
 20
283.79572391301434
 11
353.23563553440852
 21
283.20373191301428
  0
LINE
  8
_0-f_
  6
CONTINUOUS
 62
    7
 10
353.23563553440852
 20
283.20373191301428
 11
353.14041583553973
 21
283.20373191301428
  0
LINE
  8
_0-f_
  6
CONTINUOUS
 62
    7
 10
353.14041583553973
 20
283.20373191301428
 11
352.79881953440849
 21
283.79569191301437
  0
LINE
  8
_0-f_
  6
CONTINUOUS
 62
    7
 10
352.79881953440849
 20
283.79569191301437
 11
352.26844353440856
 21
283.48933991301431
  0
LINE
  8
_0-f_
  6
CONTINUOUS
 62
    7
 10
352.26844353440856
 20
283.48933991301431
 11
352.43329894644029
 21
283.20373191301428
  0
LINE
  8
_0-f_
  6
CONTINUOUS
 62
    7
 10
352.43329894644029
 20
283.20373191301428
 11
351.79564353440855
 21
283.20373191301428
  0
LINE
  8
_0-f_
  6
CONTINUOUS
 62
    7
 10
351.79564353440855
 20
283.20373191301428
 11
351.79564353440855
 21
282.8037319130143
  0
LINE
  8
_0-f_
  6
CONTINUOUS
 62
    7
 10
351.79564353440855
 20
282.8037319130143
 11
352.83243160476098
 21
282.8037319130143
  0
LINE
  8
_0-f_
  6
CONTINUOUS
 62
    7
 10
352.83243160476098
 20
282.8037319130143
 11
352.92280563993728
 21
282.43576391301428
  0
LINE
  8
_0-f_
  6
CONTINUOUS
 62
    7
 10
352.92280563993728
 20
282.43576391301428
 11
352.11563553440857
 21
282.43576391301428
  0
LINE
  8
_0-f_
  6
CONTINUOUS
 62
    7
 10
352.11563553440857
 20
282.43576391301428
 11
352.11563553440857
 21
282.12365191301433
  0
LINE
  8
_0-f_
  6
CONTINUOUS
 62
    7
 10
352.11563553440857
 20
282.12365191301433
 11
353.79561953440856
 21
282.12365191301433
  0
LINE
  8
_0-f_
  6
CONTINUOUS
 62
    7
 10
353.79561953440856
 20
282.12365191301433
 11
353.7956195344085
 21
281.74767591301435
  0
LINE
  8
_0-f_
  6
CONTINUOUS
 62
    7
 10
353.7956195344085
 20
281.74767591301435
 11
352.11563553440857
 21
281.74767591301435
  0
LINE
  8
_0-f_
  6
CONTINUOUS
 62
    7
 10
352.11563553440857
 20
281.74767591301435
 11
352.11563553440851
 21
281.42775591301427
  0
LINE
  8
_0-f_
  6
CONTINUOUS
 62
    7
 10
352.11563553440851
 20
281.42775591301427
 11
353.7956195344085
 21
281.42775591301427
  0
LINE
  8
_0-f_
  6
CONTINUOUS
 62
    7
 10
353.7956195344085
 20
281.42775591301427
 11
353.79561953440856
 21
281.05177991301434
  0
LINE
  8
_0-f_
  6
CONTINUOUS
 62
    7
 10
353.79561953440856
 20
281.05177991301434
 11
351.79564353440855
 21
281.05177991301434
  0
LINE
  8
_0-f_
  6
CONTINUOUS
 62
    7
 10
351.79564353440855
 20
281.05177991301434
 11
351.79564353440855
 21
280.65176391301429
  0
LINE
  8
_0-f_
  6
CONTINUOUS
 62
    7
 10
351.79564353440855
 20
280.65176391301429
 11
352.92531553440858
 21
280.65176391301429
  0
LINE
  8
_0-f_
  6
CONTINUOUS
 62
    7
 10
352.92531553440858
 20
280.65176391301429
 11
352.42923553440846
 21
280.15568391301434
  0
LINE
  8
_0-f_
  6
CONTINUOUS
 62
    7
 10
352.42923553440846
 20
280.15568391301434
 11
351.79564353440855
 21
280.15568391301434
  0
LINE
  8
_0-f_
  6
CONTINUOUS
 62
    7
 10
351.79564353440855
 20
280.15568391301434
 11
351.79564353440855
 21
279.79568391301433
  0
LINE
  8
_0-f_
  6
CONTINUOUS
 62
    7
 10
351.79564353440855
 20
279.79568391301433
 11
352.62715806816135
 21
279.79568391301433
  0
ARC
  8
_0-f_
  6
CONTINUOUS
 62
    7
 10
352.62715806816135
 20
280.19568391301431
 40
0.3999999999999995
 50
270
 51
314.98511379092588
  0
LINE
  8
_0-f_
  6
CONTINUOUS
 62
    7
 10
352.9099272847746
 20
279.91276772377103
 11
353.6493075759895
 21
280.65176391301429
  0
LINE
  8
_0-f_
  6
CONTINUOUS
 62
    7
 10
353.6493075759895
 20
280.65176391301429
 11
353.79561953440856
 21
280.65176391301429
  0
LINE
  8
_0-f_
  6
CONTINUOUS
 62
    7
 10
353.79561953440856
 20
280.65176391301429
 11
353.7956195344085
 21
279.79568391301433
  0
LINE
  8
_0-f_
  6
CONTINUOUS
 62
    7
 10
353.7956195344085
 20
279.79568391301433
 11
354.59564353440857
 21
279.79568391301433
  0
LINE
  8
_0-f_
  6
CONTINUOUS
 62
    7
 10
354.59564353440857
 20
279.79568391301433
 11
354.59564353440857
 21
280.65176391301429
  0
LINE
  8
_0-f_
  6
CONTINUOUS
 62
    7
 10
354.59564353440857
 20
280.65176391301429
 11
354.74275557166214
 21
280.65176391301429
  0
LINE
  8
_0-f_
  6
CONTINUOUS
 62
    7
 10
354.74275557166214
 20
280.65176391301429
 11
355.48126834167959
 21
279.9129070792776
  0
ARC
  8
_0-f_
  6
CONTINUOUS
 62
    7
 10
355.76417691755148
 20
280.19568391301431
 40
0.3999999999999968
 50
224.98665642058054
 51
270
  0
LINE
  8
_0-f_
  6
CONTINUOUS
 62
    7
 10
355.76417691755148
 20
279.79568391301433
 11
356.59564353440851
 21
279.79568391301433
  0
LINE
  8
_0-f_
  6
CONTINUOUS
 62
    7
 10
356.59564353440851
 20
279.79568391301433
 11
356.59564353440857
 21
280.15568391301434
  0
LINE
  8
_0-f_
  6
CONTINUOUS
 62
    7
 10
356.59564353440857
 20
280.15568391301434
 11
355.9629075460233
 21
280.15568391301434
  0
LINE
  8
_0-f_
  6
CONTINUOUS
 62
    7
 10
355.9629075460233
 20
280.15568391301434
 11
355.4667555227939
 21
280.65176391301429
  0
LINE
  8
_0-f_
  6
CONTINUOUS
 62
    7
 10
355.4667555227939
 20
280.65176391301429
 11
356.59564353440857
 21
280.65176391301429
  0
LINE
  8
_0-f_
  6
CONTINUOUS
 62
    7
 10
356.59564353440857
 20
280.65176391301429
 11
356.59564353440857
 21
281.05177991301434
  0
LINE
  8
_0-f_
  6
CONTINUOUS
 62
    7
 10
356.59564353440857
 20
281.05177991301434
 11
354.59564353440857
 21
281.05177991301434
  0
LINE
  8
_0-f_
  6
CONTINUOUS
 62
    7
 10
354.59564353440857
 20
281.05177991301434
 11
354.59564353440857
 21
281.42775591301427
  0
LINE
  8
_0-f_
  6
CONTINUOUS
 62
    7
 10
354.59564353440857
 20
281.42775591301427
 11
356.27564353440863
 21
281.42775591301427
  0
LINE
  8
_0-f_
  6
CONTINUOUS
 62
    7
 10
356.27564353440863
 20
281.42775591301427
 11
356.27564353440863
 21
281.74767591301435
  0
LINE
  8
_0-f_
  6
CONTINUOUS
 62
    7
 10
356.27564353440863
 20
281.74767591301435
 11
354.59564353440857
 21
281.74767591301435
  0
LINE
  8
_0-f_
  6
CONTINUOUS
 62
    7
 10
353.63962995110802
 20
282.43576391301428
 11
353.55402979297588
 21
282.80371898101055
  0
LINE
  8
_0-f_
  6
CONTINUOUS
 62
    7
 10
353.55402979297588
 20
282.80371898101055
 11
354.83804421358485
 21
282.80372444024397
  0
LINE
  8
_0-f_
  6
CONTINUOUS
 62
    7
 10
354.83804421358485
 20
282.80372444024397
 11
354.75245358652438
 21
282.43576391301428
  0
LINE
  8
_0-f_
  6
CONTINUOUS
 62
    7
 10
354.75245358652438
 20
282.43576391301428
 11
353.63962995110802
 21
282.43576391301428
  0
LINE
  8
_0-f_
  6
CONTINUOUS
 62
    7
 10
354.5956435344084
 20
281.75568391301431
 11
353.79561953440833
 21
281.75568391301431
  0
LINE
  8
_0-f_
  6
CONTINUOUS
 62
    7
 10
354.5956435344084
 20
281.83568391301435
 11
353.79561953440833
 21
281.83568391301435
  0
LINE
  8
_0-f_
  6
CONTINUOUS
 62
    7
 10
354.5956435344084
 20
281.91568391301428
 11
353.79561953440833
 21
281.91568391301428
  0
LINE
  8
_0-f_
  6
CONTINUOUS
 62
    7
 10
354.5956435344084
 20
281.99568391301432
 11
353.79561953440833
 21
281.99568391301432
  0
LINE
  8
_0-f_
  6
CONTINUOUS
 62
    7
 10
354.5956435344084
 20
282.0756839130143
 11
353.79561953440833
 21
282.0756839130143
  0
LINE
  8
_0-f_
  6
CONTINUOUS
 62
    7
 10
356.2756435344088
 20
282.15568391301429
 11
352.11563553440851
 21
282.15568391301429
  0
LINE
  8
_0-f_
  6
CONTINUOUS
 62
    7
 10
356.2756435344088
 20
282.23568391301433
 11
352.11563553440851
 21
282.23568391301433
  0
LINE
  8
_0-f_
  6
CONTINUOUS
 62
    7
 10
356.2756435344088
 20
282.31568391301437
 11
352.11563553440851
 21
282.31568391301437
  0
LINE
  8
_0-f_
  6
CONTINUOUS
 62
    7
 10
356.2756435344088
 20
282.39568391301435
 11
352.11563553440851
 21
282.39568391301435
  0
LINE
  8
_0-f_
  6
CONTINUOUS
 62
    7
 10
355.47836220423306
 20
282.47568391301434
 11
354.7617393049083
 21
282.47568391301434
  0
LINE
  8
_0-f_
  6
CONTINUOUS
 62
    7
 10
353.63034306091475
 20
282.47568391301434
 11
352.91300116921065
 21
282.47568391301434
  0
LINE
  8
_0-f_
  6
CONTINUOUS
 62
    7
 10
355.49817576760631
 20
282.55568391301438
 11
354.78034795898424
 21
282.55568391301438
  0
LINE
  8
_0-f_
  6
CONTINUOUS
 62
    7
 10
353.61173205852293
 20
282.55568391301438
 11
352.8933529312821
 21
282.55568391301438
  0
LINE
  8
_0-f_
  6
CONTINUOUS
 62
    7
 10
355.51798933097956
 20
282.6356839130143
 11
354.79895661306023
 21
282.6356839130143
  0
LINE
  8
_0-f_
  6
CONTINUOUS
 62
    7
 10
353.59312105613111
 20
282.6356839130143
 11
352.87370469335355
 21
282.6356839130143
  0
LINE
  8
_0-f_
  6
CONTINUOUS
 62
    7
 10
355.53780289435275
 20
282.71568391301435
 11
354.81756526713622
 21
282.71568391301435
  0
LINE
  8
_0-f_
  6
CONTINUOUS
 62
    7
 10
353.57451005373929
 20
282.71568391301435
 11
352.85405645542494
 21
282.71568391301435
  0
LINE
  8
_0-f_
  6
CONTINUOUS
 62
    7
 10
355.55761645772606
 20
282.79568391301433
 11
354.83617392121226
 21
282.79568391301433
  0
LINE
  8
_0-f_
  6
CONTINUOUS
 62
    7
 10
353.55589905134735
 20
282.79568391301433
 11
352.83440821749633
 21
282.79568391301433
  0
LINE
  8
_0-f_
  6
CONTINUOUS
 62
    7
 10
356.59564353440868
 20
282.87568391301431
 11
351.79564353440844
 21
282.87568391301431
  0
LINE
  8
_0-f_
  6
CONTINUOUS
 62
    7
 10
356.59564353440868
 20
282.95568391301435
 11
351.79564353440844
 21
282.95568391301435
  0
LINE
  8
_0-f_
  6
CONTINUOUS
 62
    7
 10
356.59564353440868
 20
283.03568391301428
 11
351.79564353440844
 21
283.03568391301428
  0
LINE
  8
_0-f_
  6
CONTINUOUS
 62
    7
 10
356.59564353440868
 20
283.11568391301432
 11
351.79564353440844
 21
283.11568391301432
  0
LINE
  8
_0-f_
  6
CONTINUOUS
 62
    7
 10
356.59564353440868
 20
283.19568391301436
 11
351.79564353440844
 21
283.19568391301436
  0
LINE
  8
_0-f_
  6
CONTINUOUS
 62
    7
 10
356.00031199075426
 20
283.27568391301429
 11
355.29245188175531
 21
283.27568391301429
  0
LINE
  8
_0-f_
  6
CONTINUOUS
 62
    7
 10
355.15565153440861
 20
283.27568391301429
 11
354.43563553440828
 21
283.27568391301429
  0
LINE
  8
_0-f_
  6
CONTINUOUS
 62
    7
 10
353.95562753440839
 20
283.27568391301429
 11
353.23563553440863
 21
283.27568391301429
  0
LINE
  8
_0-f_
  6
CONTINUOUS
 62
    7
 10
353.09889523100748
 20
283.27568391301429
 11
352.39176762866754
 21
283.27568391301429
  0
LINE
  8
_0-f_
  6
CONTINUOUS
 62
    7
 10
356.04647764437743
 20
283.35568391301433
 11
355.3387193646272
 21
283.35568391301433
  0
LINE
  8
_0-f_
  6
CONTINUOUS
 62
    7
 10
355.15565153440861
 20
283.35568391301433
 11
354.43563553440828
 21
283.35568391301433
  0
LINE
  8
_0-f_
  6
CONTINUOUS
 62
    7
 10
353.95562753440839
 20
283.35568391301433
 11
353.23563553440863
 21
283.35568391301433
  0
LINE
  8
_0-f_
  6
CONTINUOUS
 62
    7
 10
353.05273044945039
 20
283.35568391301433
 11
352.34559093556885
 21
283.35568391301433
  0
LINE
  8
_0-f_
  6
CONTINUOUS
 62
    7
 10
356.09264329800061
 20
283.43568391301437
 11
355.38498684749902
 21
283.43568391301437
  0
LINE
  8
_0-f_
  6
CONTINUOUS
 62
    7
 10
355.15565153440861
 20
283.43568391301437
 11
354.43563553440828
 21
283.43568391301437
  0
LINE
  8
_0-f_
  6
CONTINUOUS
 62
    7
 10
353.95562753440839
 20
283.43568391301437
 11
353.23563553440863
 21
283.43568391301437
  0
LINE
  8
_0-f_
  6
CONTINUOUS
 62
    7
 10
353.00656566789337
 20
283.43568391301437
 11
352.29941424247011
 21
283.43568391301437
  0
LINE
  8
_0-f_
  6
CONTINUOUS
 62
    7
 10
356.07814131311454
 20
283.51568391301436
 11
355.4312543303709
 21
283.51568391301436
  0
LINE
  8
_0-f_
  6
CONTINUOUS
 62
    7
 10
355.15565153440861
 20
283.51568391301436
 11
354.43563553440828
 21
283.51568391301436
  0
LINE
  8
_0-f_
  6
CONTINUOUS
 62
    7
 10
353.95562753440839
 20
283.51568391301436
 11
353.23563553440863
 21
283.51568391301436
  0
LINE
  8
_0-f_
  6
CONTINUOUS
 62
    7
 10
352.96040088633634
 20
283.51568391301436
 11
352.31405193697816
 21
283.51568391301436
  0
LINE
  8
_0-f_
  6
CONTINUOUS
 62
    7
 10
355.93962617980031
 20
283.59568391301434
 11
355.47752181324273
 21
283.59568391301434
  0
LINE
  8
_0-f_
  6
CONTINUOUS
 62
    7
 10
355.15565153440861
 20
283.59568391301434
 11
354.43563553440828
 21
283.59568391301434
  0
LINE
  8
_0-f_
  6
CONTINUOUS
 62
    7
 10
353.95562753440839
 20
283.59568391301434
 11
353.23563553440863
 21
283.59568391301434
  0
LINE
  8
_0-f_
  6
CONTINUOUS
 62
    7
 10
352.91423610477926
 20
283.59568391301434
 11
352.45255300764188
 21
283.59568391301434
  0
LINE
  8
_0-f_
  6
CONTINUOUS
 62
    7
 10
355.80111104648614
 20
283.67568391301438
 11
355.52378929611456
 21
283.67568391301438
  0
LINE
  8
_0-f_
  6
CONTINUOUS
 62
    7
 10
355.15565153440861
 20
283.67568391301438
 11
354.43563553440828
 21
283.67568391301438
  0
LINE
  8
_0-f_
  6
CONTINUOUS
 62
    7
 10
353.95562753440839
 20
283.67568391301438
 11
353.23563553440863
 21
283.67568391301438
  0
LINE
  8
_0-f_
  6
CONTINUOUS
 62
    7
 10
352.8680713232223
 20
283.67568391301438
 11
352.59105407830572
 21
283.67568391301438
  0
LINE
  8
_0-f_
  6
CONTINUOUS
 62
    7
 10
355.66259591317191
 20
283.75568391301431
 11
355.57005677898638
 21
283.75568391301431
  0
LINE
  8
_0-f_
  6
CONTINUOUS
 62
    7
 10
355.15565153440861
 20
283.75568391301431
 11
354.43563553440828
 21
283.75568391301431
  0
LINE
  8
_0-f_
  6
CONTINUOUS
 62
    7
 10
353.95562753440839
 20
283.75568391301431
 11
353.23563553440863
 21
283.75568391301431
  0
LINE
  8
_0-f_
  6
CONTINUOUS
 62
    7
 10
352.82190654166527
 20
283.75568391301431
 11
352.7295551489695
 21
283.75568391301431
  0
LINE
  8
_0-f_
  6
CONTINUOUS
 62
    7
 10
356.27564353440863
 20
281.67568391301432
 11
352.11563553440823
 21
281.67568391301432
  0
LINE
  8
_0-f_
  6
CONTINUOUS
 62
    7
 10
356.27564353440863
 20
281.59568391301434
 11
352.11563553440823
 21
281.59568391301434
  0
LINE
  8
_0-f_
  6
CONTINUOUS
 62
    7
 10
356.27564353440863
 20
281.5156839130143
 11
352.11563553440823
 21
281.5156839130143
  0
LINE
  8
_0-f_
  6
CONTINUOUS
 62
    7
 10
356.27564353440863
 20
281.43568391301426
 11
352.11563553440823
 21
281.43568391301426
  0
LINE
  8
_0-f_
  6
CONTINUOUS
 62
    7
 10
354.5956435344084
 20
281.35568391301433
 11
353.79561953440844
 21
281.35568391301433
  0
LINE
  8
_0-f_
  6
CONTINUOUS
 62
    7
 10
354.5956435344084
 20
281.27568391301429
 11
353.79561953440844
 21
281.27568391301429
  0
LINE
  8
_0-f_
  6
CONTINUOUS
 62
    7
 10
354.5956435344084
 20
281.19568391301425
 11
353.79561953440844
 21
281.19568391301425
  0
LINE
  8
_0-f_
  6
CONTINUOUS
 62
    7
 10
354.5956435344084
 20
281.11568391301432
 11
353.7956195344085
 21
281.11568391301432
  0
LINE
  8
_0-f_
  6
CONTINUOUS
 62
    7
 10
356.59564353440845
 20
281.03568391301428
 11
351.79564353440873
 21
281.03568391301428
  0
LINE
  8
_0-f_
  6
CONTINUOUS
 62
    7
 10
356.59564353440845
 20
280.9556839130143
 11
351.79564353440873
 21
280.9556839130143
  0
LINE
  8
_0-f_
  6
CONTINUOUS
 62
    7
 10
356.59564353440845
 20
280.87568391301431
 11
351.79564353440873
 21
280.87568391301431
  0
LINE
  8
_0-f_
  6
CONTINUOUS
 62
    7
 10
356.59564353440845
 20
280.79568391301427
 11
351.79564353440873
 21
280.79568391301427
  0
LINE
  8
_0-f_
  6
CONTINUOUS
 62
    7
 10
356.59564353440845
 20
280.71568391301435
 11
351.79564353440873
 21
280.71568391301435
  0
LINE
  8
_0-f_
  6
CONTINUOUS
 62
    7
 10
355.48283785736402
 20
280.6356839130143
 11
354.75882808368289
 21
280.6356839130143
  0
LINE
  8
_0-f_
  6
CONTINUOUS
 62
    7
 10
354.59564353440845
 20
280.6356839130143
 11
353.7956195344085
 21
280.6356839130143
  0
LINE
  8
_0-f_
  6
CONTINUOUS
 62
    7
 10
353.63321921822029
 20
280.6356839130143
 11
352.90923553440854
 21
280.6356839130143
  0
LINE
  8
_0-f_
  6
CONTINUOUS
 62
    7
 10
355.56284947214056
 20
280.55568391301432
 11
354.83879083005502
 21
280.55568391301432
  0
LINE
  8
_0-f_
  6
CONTINUOUS
 62
    7
 10
354.59564353440845
 20
280.55568391301432
 11
353.7956195344085
 21
280.55568391301432
  0
LINE
  8
_0-f_
  6
CONTINUOUS
 62
    7
 10
353.55317763727822
 20
280.55568391301432
 11
352.8292355344085
 21
280.55568391301432
  0
LINE
  8
_0-f_
  6
CONTINUOUS
 62
    7
 10
355.64286108691709
 20
280.47568391301434
 11
354.91875357642715
 21
280.47568391301434
  0
LINE
  8
_0-f_
  6
CONTINUOUS
 62
    7
 10
354.59564353440845
 20
280.47568391301434
 11
353.7956195344085
 21
280.47568391301434
  0
LINE
  8
_0-f_
  6
CONTINUOUS
 62
    7
 10
353.47313605633616
 20
280.47568391301434
 11
352.74923553440846
 21
280.47568391301434
  0
LINE
  8
_0-f_
  6
CONTINUOUS
 62
    7
 10
355.72287270169369
 20
280.3956839130143
 11
354.99871632279923
 21
280.3956839130143
  0
LINE
  8
_0-f_
  6
CONTINUOUS
 62
    7
 10
354.59564353440845
 20
280.3956839130143
 11
353.7956195344085
 21
280.3956839130143
  0
LINE
  8
_0-f_
  6
CONTINUOUS
 62
    7
 10
353.39309447539409
 20
280.3956839130143
 11
352.66923553440847
 21
280.3956839130143
  0
LINE
  8
_0-f_
  6
CONTINUOUS
 62
    7
 10
355.80288431647017
 20
280.31568391301425
 11
355.07867906917141
 21
280.31568391301425
  0
LINE
  8
_0-f_
  6
CONTINUOUS
 62
    7
 10
354.59564353440845
 20
280.31568391301425
 11
353.7956195344085
 21
280.31568391301425
  0
LINE
  8
_0-f_
  6
CONTINUOUS
 62
    7
 10
353.31305289445203
 20
280.31568391301425
 11
352.58923553440849
 21
280.31568391301425
  0
LINE
  8
_0-f_
  6
CONTINUOUS
 62
    7
 10
355.88289593124676
 20
280.23568391301427
 11
355.15864181554349
 21
280.23568391301427
  0
LINE
  8
_0-f_
  6
CONTINUOUS
 62
    7
 10
354.59564353440845
 20
280.23568391301427
 11
353.7956195344085
 21
280.23568391301427
  0
LINE
  8
_0-f_
  6
CONTINUOUS
 62
    7
 10
353.23301131350996
 20
280.23568391301427
 11
352.50923553440845
 21
280.23568391301427
  0
LINE
  8
_0-f_
  6
CONTINUOUS
 62
    7
 10
356.59564353440857
 20
280.15568391301429
 11
355.9629075460233
 21
280.15568391301429
  0
LINE
  8
_0-f_
  6
CONTINUOUS
 62
    7
 10
352.42923553440841
 20
280.15568391301429
 11
351.79564353440855
 21
280.15568391301429
  0
LINE
  8
_0-f_
  6
CONTINUOUS
 62
    7
 10
356.59564353440857
 20
280.07568391301425
 11
355.31856730828775
 21
280.07568391301425
  0
LINE
  8
_0-f_
  6
CONTINUOUS
 62
    7
 10
354.59564353440845
 20
280.07568391301425
 11
353.7956195344085
 21
280.07568391301425
  0
LINE
  8
_0-f_
  6
CONTINUOUS
 62
    7
 10
353.07292815162589
 20
280.07568391301425
 11
351.79564353440855
 21
280.07568391301425
  0
LINE
  8
_0-f_
  6
CONTINUOUS
 62
    7
 10
356.59564353440857
 20
279.99568391301432
 11
355.39853005465989
 21
279.99568391301432
  0
LINE
  8
_0-f_
  6
CONTINUOUS
 62
    7
 10
354.59564353440845
 20
279.99568391301432
 11
353.7956195344085
 21
279.99568391301432
  0
LINE
  8
_0-f_
  6
CONTINUOUS
 62
    7
 10
352.99288657068382
 20
279.99568391301432
 11
351.79564353440855
 21
279.99568391301432
  0
LINE
  8
_0-f_
  6
CONTINUOUS
 62
    7
 10
356.59564353440857
 20
279.91568391301428
 11
355.47849280103202
 21
279.91568391301428
  0
LINE
  8
_0-f_
  6
CONTINUOUS
 62
    7
 10
354.59564353440845
 20
279.91568391301428
 11
353.7956195344085
 21
279.91568391301428
  0
LINE
  8
_0-f_
  6
CONTINUOUS
 62
    7
 10
352.9128449897417
 20
279.91568391301428
 11
351.79564353440855
 21
279.91568391301428
  0
LINE
  8
_0-f_
  6
CONTINUOUS
 62
    7
 10
356.59564353440857
 20
279.83568391301429
 11
355.59128006282236
 21
279.83568391301429
  0
LINE
  8
_0-f_
  6
CONTINUOUS
 62
    7
 10
354.59564353440845
 20
279.83568391301429
 11
353.79561953440844
 21
279.83568391301429
  0
LINE
  8
_0-f_
  6
CONTINUOUS
 62
    7
 10
352.80006872486871
 20
279.83568391301429
 11
351.79564353440855
 21
279.83568391301429
  0
LINE
  8
_0-f_
  6
CONTINUOUS
 62
    7
 10
353.14044353440869
 20
283.20368391301429
 11
352.79881953440849
 21
283.79569191301437
  0
LINE
  8
_0-f_
  6
CONTINUOUS
 62
    7
 10
352.11563553440857
 20
282.12365191301433
 11
353.79561953440856
 21
282.12365191301433
  0
LINE
  8
_0-f_
  6
CONTINUOUS
 62
    7
 10
352.11563553440857
 20
281.74767591301435
 11
353.79561953440856
 21
281.74767591301435
  0
LINE
  8
_0-f_
  6
CONTINUOUS
 62
    7
 10
352.11563553440857
 20
281.42775591301427
 11
353.79561953440856
 21
281.42775591301427
  0
LINE
  8
_0-f_
  6
CONTINUOUS
 62
    7
 10
351.79564353440855
 20
281.05177991301434
 11
353.79561953440856
 21
281.05177991301434
  0
LINE
  8
_0-f_
  6
CONTINUOUS
 62
    7
 10
352.9099272847746
 20
279.91276772377103
 11
353.6493075759895
 21
280.65176391301429
  0
LINE
  8
_0-f_
  6
CONTINUOUS
 62
    7
 10
351.79564353440855
 20
280.65176391301429
 11
352.92531553440853
 21
280.65176391301429
  0
LINE
  8
_0-f_
  6
CONTINUOUS
 62
    7
 10
351.79564353440855
 20
280.15568391301434
 11
352.42923553440846
 21
280.15568391301434
  0
LINE
  8
_0-f_
  6
CONTINUOUS
 62
    7
 10
351.79564353440855
 20
279.79568391301433
 11
352.62715806816135
 21
279.79568391301433
  0
LINE
  8
_0-f_
  6
CONTINUOUS
 62
    7
 10
351.79564353440855
 20
281.05177991301434
 11
351.79564353440855
 21
280.65176391301429
  0
LINE
  8
_0-f_
  6
CONTINUOUS
 62
    7
 10
351.79564353440855
 20
280.15568391301434
 11
351.79564353440855
 21
279.79568391301433
  0
LINE
  8
_0-f_
  6
CONTINUOUS
 62
    7
 10
352.42923553440846
 20
280.15568391301434
 11
352.92531553440853
 21
280.65176391301429
  0
ARC
  8
_0-f_
  6
CONTINUOUS
 62
    7
 10
352.62715806816135
 20
280.19568391301431
 40
0.4
 50
270.0000000000004
 51
314.98511379092611
  0
LINE
  8
_0-f_
  6
CONTINUOUS
 62
    7
 10
352.92523553440856
 20
280.65176391301429
 11
352.92531553440853
 21
280.65176391301429
  0
LINE
  8
_0-f_
  6
CONTINUOUS
 62
    7
 10
352.11563553440857
 20
281.74767591301435
 11
352.11563553440851
 21
281.42775591301427
  0
LINE
  8
_0-f_
  6
CONTINUOUS
 62
    7
 10
351.79564353440855
 20
283.20373191301428
 11
352.43329894644029
 21
283.20373191301428
  0
LINE
  8
_0-f_
  6
CONTINUOUS
 62
    7
 10
351.79564353440855
 20
282.8037319130143
 11
352.8324355344086
 21
282.8037319130143
  0
LINE
  8
_0-f_
  6
CONTINUOUS
 62
    7
 10
351.79564353440855
 20
283.20373191301428
 11
351.79564353440855
 21
282.8037319130143
  0
LINE
  8
_0-f_
  6
CONTINUOUS
 62
    7
 10
352.43329894644029
 20
283.20373191301428
 11
352.26844353440856
 21
283.48933991301431
  0
LINE
  8
_0-f_
  6
CONTINUOUS
 62
    7
 10
352.11563553440857
 20
282.43576391301428
 11
352.92281153440859
 21
282.43576391301428
  0
LINE
  8
_0-f_
  6
CONTINUOUS
 62
    7
 10
352.11563553440857
 20
282.43576391301428
 11
352.11563553440857
 21
282.12365191301433
  0
LINE
  8
_0-f_
  6
CONTINUOUS
 62
    7
 10
352.8324355344086
 20
282.80371591301434
 11
352.92281153440859
 21
282.43573991301434
  0
LINE
  8
_0-f_
  6
CONTINUOUS
 62
    7
 10
352.26844353440856
 20
283.48933991301431
 11
352.79881953440849
 21
283.79569191301437
  0
LINE
  8
_0-f_
  6
CONTINUOUS
 62
    7
 10
354.59564353440857
 20
282.12365191301433
 11
354.59564353440857
 21
281.74767591301435
  0
LINE
  8
_0-f_
  6
CONTINUOUS
 62
    7
 10
353.79561953440856
 20
282.12365191301433
 11
353.7956195344085
 21
281.74767591301435
  0
LINE
  8
_0-f_
  6
CONTINUOUS
 62
    7
 10
354.59564353440857
 20
281.74767591301435
 11
356.27564353440863
 21
281.74767591301435
  0
LINE
  8
_0-f_
  6
CONTINUOUS
 62
    7
 10
355.48126834167959
 20
279.9129070792776
 11
354.74275557166214
 21
280.65176391301429
  0
LINE
  8
_0-f_
  6
CONTINUOUS
 62
    7
 10
354.59564353440857
 20
281.05177991301434
 11
356.59564353440857
 21
281.05177991301434
  0
LINE
  8
_0-f_
  6
CONTINUOUS
 62
    7
 10
354.59564353440857
 20
281.42775591301427
 11
356.27564353440863
 21
281.42775591301427
  0
LINE
  8
_0-f_
  6
CONTINUOUS
 62
    7
 10
353.79561953440856
 20
279.79568391301433
 11
354.59564353440857
 21
279.79568391301433
  0
LINE
  8
_0-f_
  6
CONTINUOUS
 62
    7
 10
353.6493075759895
 20
280.65176391301429
 11
353.79561953440856
 21
280.65176391301429
  0
LINE
  8
_0-f_
  6
CONTINUOUS
 62
    7
 10
353.79561953440856
 20
280.65176391301429
 11
353.79561953440856
 21
279.79568391301433
  0
LINE
  8
_0-f_
  6
CONTINUOUS
 62
    7
 10
353.7956195344085
 20
281.42775591301427
 11
353.79561953440856
 21
281.05177991301434
  0
LINE
  8
_0-f_
  6
CONTINUOUS
 62
    7
 10
354.59564353440857
 20
280.65176391301429
 11
354.74275557166214
 21
280.65176391301429
  0
LINE
  8
_0-f_
  6
CONTINUOUS
 62
    7
 10
354.59564353440857
 20
280.65176391301429
 11
354.59564353440857
 21
279.79568391301433
  0
LINE
  8
_0-f_
  6
CONTINUOUS
 62
    7
 10
354.59564353440857
 20
281.42775591301427
 11
354.59564353440857
 21
281.05177991301434
  0
LINE
  8
_0-f_
  6
CONTINUOUS
 62
    7
 10
355.76417691755148
 20
279.79568391301433
 11
356.59564353440857
 21
279.79568391301433
  0
LINE
  8
_0-f_
  6
CONTINUOUS
 62
    7
 10
355.9629075460233
 20
280.15568391301434
 11
356.59564353440857
 21
280.15568391301434
  0
LINE
  8
_0-f_
  6
CONTINUOUS
 62
    7
 10
355.4667555227939
 20
280.65176391301429
 11
356.59564353440857
 21
280.65176391301429
  0
LINE
  8
_0-f_
  6
CONTINUOUS
 62
    7
 10
355.9629075460233
 20
280.15568391301434
 11
355.4667555227939
 21
280.65176391301429
  0
ARC
  8
_0-f_
  6
CONTINUOUS
 62
    7
 10
355.76417691755148
 20
280.19568391301431
 40
0.4
 50
224.98665642058006
 51
269.9999999999996
  0
LINE
  8
_0-f_
  6
CONTINUOUS
 62
    7
 10
356.27564353440863
 20
281.74767591301429
 11
356.27564353440863
 21
281.42775591301427
  0
LINE
  8
_0-f_
  6
CONTINUOUS
 62
    7
 10
356.59564353440857
 20
281.05177991301434
 11
356.59564353440857
 21
280.65176391301429
  0
LINE
  8
_0-f_
  6
CONTINUOUS
 62
    7
 10
356.59564353440857
 20
280.15568391301434
 11
356.59564353440851
 21
279.79568391301433
  0
LINE
  8
_0-f_
  6
CONTINUOUS
 62
    7
 10
354.59564353440857
 20
282.12365191301433
 11
356.27564353440863
 21
282.12365191301433
  0
LINE
  8
_0-f_
  6
CONTINUOUS
 62
    7
 10
355.15565153440872
 20
283.20373191301428
 11
355.25083890766041
 21
283.20373191301428
  0
LINE
  8
_0-f_
  6
CONTINUOUS
 62
    7
 10
353.95562753440851
 20
283.20373191301428
 11
354.4356355344085
 21
283.20373191301428
  0
LINE
  8
_0-f_
  6
CONTINUOUS
 62
    7
 10
353.55402979297588
 20
282.80371898101055
 11
354.83804421358485
 21
282.80372444024397
  0
LINE
  8
_0-f_
  6
CONTINUOUS
 62
    7
 10
353.63962995110802
 20
282.43576391301428
 11
354.75245358652438
 21
282.43576391301428
  0
LINE
  8
_0-f_
  6
CONTINUOUS
 62
    7
 10
353.95562753440851
 20
283.79572391301434
 11
353.95562753440851
 21
283.20373191301428
  0
LINE
  8
_0-f_
  6
CONTINUOUS
 62
    7
 10
353.23563553440852
 20
283.79572391301434
 11
353.23563553440852
 21
283.20373191301428
  0
LINE
  8
_0-f_
  6
CONTINUOUS
 62
    7
 10
353.55402979297588
 20
282.80371898101055
 11
353.63963553440868
 21
282.43573991301434
  0
LINE
  8
_0-f_
  6
CONTINUOUS
 62
    7
 10
353.14041583553973
 20
283.20373191301428
 11
353.23563553440852
 21
283.20373191301428
  0
LINE
  8
_0-f_
  6
CONTINUOUS
 62
    7
 10
353.23563553440852
 20
283.79572391301434
 11
353.95562753440851
 21
283.79572391301434
  0
LINE
  8
_0-f_
  6
CONTINUOUS
 62
    7
 10
355.15565153440872
 20
283.79572391301434
 11
355.15565153440872
 21
283.20373191301428
  0
LINE
  8
_0-f_
  6
CONTINUOUS
 62
    7
 10
354.4356355344085
 20
283.79572391301434
 11
354.4356355344085
 21
283.20373191301428
  0
LINE
  8
_0-f_
  6
CONTINUOUS
 62
    7
 10
354.83805153440858
 20
282.80375591301436
 11
354.7524275344087
 21
282.43565191301434
  0
LINE
  8
_0-f_
  6
CONTINUOUS
 62
    7
 10
354.4356355344085
 20
283.79572391301434
 11
355.15565153440872
 21
283.79572391301434
  0
LINE
  8
_0-f_
  6
CONTINUOUS
 62
    7
 10
355.55960861124169
 20
282.8037275081133
 11
356.59564353440851
 21
282.8037319130143
  0
LINE
  8
_0-f_
  6
CONTINUOUS
 62
    7
 10
355.9587906018856
 20
283.20373191301428
 11
356.59564353440857
 21
283.20373191301428
  0
LINE
  8
_0-f_
  6
CONTINUOUS
 62
    7
 10
355.9587906018856
 20
283.20373191301428
 11
356.1236435344087
 21
283.48940391301437
  0
LINE
  8
_0-f_
  6
CONTINUOUS
 62
    7
 10
355.25083890766041
 20
283.20373191301428
 11
355.59322753440864
 21
283.79574791301434
  0
LINE
  8
_0-f_
  6
CONTINUOUS
 62
    7
 10
355.46847523610995
 20
282.43576391301428
 11
356.27564353440863
 21
282.43576391301428
  0
LINE
  8
_0-f_
  6
CONTINUOUS
 62
    7
 10
355.55962753440855
 20
282.80380391301435
 11
355.46844353440855
 21
282.43563591301427
  0
LINE
  8
_0-f_
  6
CONTINUOUS
 62
    7
 10
356.27564353440863
 20
282.43576391301428
 11
356.27564353440863
 21
282.12365191301433
  0
LINE
  8
_0-f_
  6
CONTINUOUS
 62
    7
 10
356.1236435344087
 20
283.48940391301437
 11
355.59322753440864
 21
283.79574791301434
  0
LINE
  8
_0-f_
  6
CONTINUOUS
 62
    7
 10
356.59564353440857
 20
283.20373191301428
 11
356.59564353440857
 21
282.8037319130143
  0
LINE
  8
_0-f_
  6
CONTINUOUS
 62
    7
 10
355.96290754602336
 20
280.15568391301429
 11
355.23860456191568
 21
280.15568391301429
  0
LINE
  8
_0-f_
  6
CONTINUOUS
 62
    7
 10
354.59564353440857
 20
280.15568391301429
 11
353.7956195344085
 21
280.15568391301429
  0
LINE
  8
_0-f_
  6
CONTINUOUS
 62
    7
 10
353.15296973256778
 20
280.15568391301429
 11
352.42923553440841
 21
280.15568391301429
  0
LINE
  8
_0-f_
  6
CONTINUOUS
 62
    7
 10
358.94757258972965
 20
282.67580391301431
 11
358.94757258972965
 21
283.11584391301432
  0
LINE
  8
_0-f_
  6
CONTINUOUS
 62
    7
 10
358.94757258972965
 20
283.11584391301432
 11
358.27958058972973
 21
283.11584391301432
  0
LINE
  8
_0-f_
  6
CONTINUOUS
 62
    7
 10
358.27958058972973
 20
283.11584391301432
 11
358.27958058972973
 21
283.79572391301434
  0
LINE
  8
_0-f_
  6
CONTINUOUS
 62
    7
 10
358.27958058972973
 20
283.79572391301434
 11
357.75956458972968
 21
283.79572391301434
  0
LINE
  8
_0-f_
  6
CONTINUOUS
 62
    7
 10
357.75956458972968
 20
283.79572391301434
 11
357.75956458972968
 21
283.11584391301432
  0
LINE
  8
_0-f_
  6
CONTINUOUS
 62
    7
 10
357.75956458972968
 20
283.11584391301432
 11
357.08358858972969
 21
283.11584391301432
  0
LINE
  8
_0-f_
  6
CONTINUOUS
 62
    7
 10
357.08358858972969
 20
283.11584391301432
 11
357.08358858972969
 21
282.67580391301431
  0
LINE
  8
_0-f_
  6
CONTINUOUS
 62
    7
 10
357.08358858972969
 20
282.67580391301431
 11
357.76292216533267
 21
282.67580391301431
  0
LINE
  8
_0-f_
  6
CONTINUOUS
 62
    7
 10
357.76292216533267
 20
282.67580391301431
 11
357.06185705510251
 21
280.98869191301435
  0
LINE
  8
_0-f_
  6
CONTINUOUS
 62
    7
 10
357.06185705510251
 20
280.98869191301435
 11
357.00358058972967
 21
280.98869191301435
  0
LINE
  8
_0-f_
  6
CONTINUOUS
 62
    7
 10
357.00358058972967
 20
280.98869191301435
 11
357.00358058972967
 21
280.50880391301433
  0
LINE
  8
_0-f_
  6
CONTINUOUS
 62
    7
 10
357.00358058972967
 20
280.50880391301433
 11
357.20177467196407
 21
280.50880391301433
  0
ARC
  8
_0-f_
  6
CONTINUOUS
 62
    7
 10
357.20177467196407
 20
280.70880391301432
 40
0.2
 50
270
 51
338.12209204226002
  0
LINE
  8
_0-f_
  6
CONTINUOUS
 62
    7
 10
357.38737067219091
 20
280.6342779128546
 11
357.75956458972968
 21
281.56117191301428
  0
LINE
  8
_0-f_
  6
CONTINUOUS
 62
    7
 10
357.75956458972968
 20
281.56117191301428
 11
357.75956458972968
 21
279.79568391301433
  0
LINE
  8
_0-f_
  6
CONTINUOUS
 62
    7
 10
357.75956458972968
 20
279.79568391301433
 11
358.27958058972973
 21
279.79568391301433
  0
LINE
  8
_0-f_
  6
CONTINUOUS
 62
    7
 10
358.27958058972973
 20
279.79568391301433
 11
358.27958058972973
 21
281.56648391301428
  0
LINE
  8
_0-f_
  6
CONTINUOUS
 62
    7
 10
358.27958058972973
 20
281.56648391301428
 11
358.55757655715507
 21
280.83753724391943
  0
ARC
  8
_0-f_
  6
CONTINUOUS
 62
    7
 10
358.74444833639456
 20
280.90880391301431
 40
0.200000000000003
 50
200.87518418962418
 51
270
  0
LINE
  8
_0-f_
  6
CONTINUOUS
 62
    7
 10
358.74444833639456
 20
280.70880391301432
 11
359.02758058972967
 21
280.70880391301432
  0
LINE
  8
_0-f_
  6
CONTINUOUS
 62
    7
 10
359.02758058972967
 20
280.70880391301432
 11
359.02758058972967
 21
281.18869191301434
  0
LINE
  8
_0-f_
  6
CONTINUOUS
 62
    7
 10
359.02758058972967
 20
281.18869191301434
 11
358.88332873936059
 21
281.18869191301434
  0
LINE
  8
_0-f_
  6
CONTINUOUS
 62
    7
 10
358.88332873936059
 20
281.18869191301434
 11
358.27630199415825
 21
282.67580391301431
  0
LINE
  8
_0-f_
  6
CONTINUOUS
 62
    7
 10
358.27630199415825
 20
282.67580391301431
 11
358.94757258972965
 21
282.67580391301431
  0
LINE
  8
_0-f_
  6
CONTINUOUS
 62
    7
 10
360.78358858972973
 20
282.00392391301432
 11
360.78358858972973
 21
282.67580391301431
  0
LINE
  8
_0-f_
  6
CONTINUOUS
 62
    7
 10
360.78358858972973
 20
282.67580391301431
 11
361.80358058972973
 21
282.67580391301431
  0
LINE
  8
_0-f_
  6
CONTINUOUS
 62
    7
 10
361.80358058972973
 20
282.67580391301431
 11
361.80358058972973
 21
283.11584391301432
  0
LINE
  8
_0-f_
  6
CONTINUOUS
 62
    7
 10
361.80358058972973
 20
283.11584391301432
 11
360.78358858972973
 21
283.11584391301432
  0
LINE
  8
_0-f_
  6
CONTINUOUS
 62
    7
 10
360.78358858972973
 20
283.11584391301432
 11
360.78358858972973
 21
283.79572391301434
  0
LINE
  8
_0-f_
  6
CONTINUOUS
 62
    7
 10
360.78358858972973
 20
283.79572391301434
 11
360.26358858972975
 21
283.79572391301434
  0
LINE
  8
_0-f_
  6
CONTINUOUS
 62
    7
 10
360.26358858972975
 20
283.79572391301434
 11
360.26358858972975
 21
283.11584391301432
  0
LINE
  8
_0-f_
  6
CONTINUOUS
 62
    7
 10
360.26358858972975
 20
283.11584391301432
 11
359.79957258972962
 21
283.11584391301432
  0
LINE
  8
_0-f_
  6
CONTINUOUS
 62
    7
 10
359.79957258972962
 20
283.11584391301432
 11
359.79957258972962
 21
283.79572391301434
  0
LINE
  8
_0-f_
  6
CONTINUOUS
 62
    7
 10
359.79957258972962
 20
283.79572391301434
 11
359.29957258972962
 21
283.79572391301434
  0
LINE
  8
_0-f_
  6
CONTINUOUS
 62
    7
 10
359.29957258972962
 20
283.79572391301434
 11
359.29957258972962
 21
282.67580391301431
  0
LINE
  8
_0-f_
  6
CONTINUOUS
 62
    7
 10
359.29957258972962
 20
282.67580391301431
 11
360.26358858972975
 21
282.67580391301431
  0
LINE
  8
_0-f_
  6
CONTINUOUS
 62
    7
 10
360.26358858972975
 20
282.67580391301431
 11
360.26358858972975
 21
282.00392391301432
  0
LINE
  8
_0-f_
  6
CONTINUOUS
 62
    7
 10
360.26358858972975
 20
282.00392391301432
 11
359.29957258972962
 21
282.00392391301432
  0
LINE
  8
_0-f_
  6
CONTINUOUS
 62
    7
 10
359.29957258972962
 20
282.00392391301432
 11
359.29957258972962
 21
281.56388391301437
  0
LINE
  8
_0-f_
  6
CONTINUOUS
 62
    7
 10
359.29957258972962
 20
281.56388391301437
 11
359.9723542132113
 21
281.56388391301437
  0
LINE
  8
_0-f_
  6
CONTINUOUS
 62
    7
 10
359.9723542132113
 20
281.56388391301437
 11
359.43908492538287
 21
280.26995899178064
  0
ARC
  8
_0-f_
  6
CONTINUOUS
 62
    7
 10
359.3281379489564
 20
280.31568391301437
 40
0.1199999999999984
 50
270
 51
337.60181985621841
  0
LINE
  8
_0-f_
  6
CONTINUOUS
 62
    7
 10
359.3281379489564
 20
280.19568391301431
 11
359.26759658972975
 21
280.19568391301431
  0
LINE
  8
_0-f_
  6
CONTINUOUS
 62
    7
 10
359.26759658972975
 20
280.19568391301431
 11
359.26759658972975
 21
279.79568391301433
  0
LINE
  8
_0-f_
  6
CONTINUOUS
 62
    7
 10
359.26759658972975
 20
279.79568391301433
 11
359.57526637317659
 21
279.79568391301433
  0
ARC
  8
_0-f_
  6
CONTINUOUS
 62
    7
 10
359.57526637317659
 20
280.03568391301428
 40
0.2399999999999966
 50
270
 51
337.13773188217931
  0
LINE
  8
_0-f_
  6
CONTINUOUS
 62
    7
 10
359.79641232397324
 20
279.9424397794387
 11
360.26358858972975
 21
281.05043591301433
  0
LINE
  8
_0-f_
  6
CONTINUOUS
 62
    7
 10
360.26358858972975
 20
281.05043591301433
 11
360.26358858972975
 21
279.79568391301433
  0
LINE
  8
_0-f_
  6
CONTINUOUS
 62
    7
 10
360.26358858972975
 20
279.79568391301433
 11
360.78358858972973
 21
279.79568391301433
  0
LINE
  8
_0-f_
  6
CONTINUOUS
 62
    7
 10
360.78358858972973
 20
279.79568391301433
 11
360.78358858972973
 21
281.05049991301433
  0
LINE
  8
_0-f_
  6
CONTINUOUS
 62
    7
 10
360.78358858972973
 20
281.05049991301433
 11
361.25949148963468
 21
279.94107053262587
  0
ARC
  8
_0-f_
  6
CONTINUOUS
 62
    7
 10
361.48005510461115
 20
280.03568391301428
 40
0.2399999999999991
 50
203.21748710460054
 51
270
  0
LINE
  8
_0-f_
  6
CONTINUOUS
 62
    7
 10
361.48005510461115
 20
279.79568391301433
 11
361.80358058972973
 21
279.79568391301433
  0
LINE
  8
_0-f_
  6
CONTINUOUS
 62
    7
 10
361.80358058972973
 20
279.79568391301433
 11
361.80358058972973
 21
280.19568391301431
  0
LINE
  8
_0-f_
  6
CONTINUOUS
 62
    7
 10
361.80358058972973
 20
280.19568391301431
 11
361.72692237627484
 21
280.19568391301431
  0
ARC
  8
_0-f_
  6
CONTINUOUS
 62
    7
 10
361.72692237627484
 20
280.31568391301437
 40
0.1200000000000003
 50
202.69813627100072
 51
270
  0
LINE
  8
_0-f_
  6
CONTINUOUS
 62
    7
 10
361.61621629925884
 20
280.26937878898116
 11
361.07476255122947
 21
281.56388391301437
  0
LINE
  8
_0-f_
  6
CONTINUOUS
 62
    7
 10
361.07476255122947
 20
281.56388391301437
 11
361.80358058972973
 21
281.56388391301437
  0
LINE
  8
_0-f_
  6
CONTINUOUS
 62
    7
 10
361.80358058972973
 20
281.56388391301437
 11
361.80358058972973
 21
282.00392391301432
  0
LINE
  8
_0-f_
  6
CONTINUOUS
 62
    7
 10
361.80358058972973
 20
282.00392391301432
 11
360.78358858972973
 21
282.00392391301432
  0
LINE
  8
_0-f_
  6
CONTINUOUS
 62
    7
 10
361.80358058972968
 20
281.75568391301431
 11
359.29957258972928
 21
281.75568391301431
  0
LINE
  8
_0-f_
  6
CONTINUOUS
 62
    7
 10
358.65188732249629
 20
281.75568391301431
 11
357.38057408813034
 21
281.75568391301431
  0
LINE
  8
_0-f_
  6
CONTINUOUS
 62
    7
 10
361.80358058972968
 20
281.83568391301435
 11
359.29957258972928
 21
281.83568391301435
  0
LINE
  8
_0-f_
  6
CONTINUOUS
 62
    7
 10
358.61923198811917
 20
281.83568391301435
 11
357.41381741093193
 21
281.83568391301435
  0
LINE
  8
_0-f_
  6
CONTINUOUS
 62
    7
 10
361.80358058972968
 20
281.91568391301428
 11
359.29957258972928
 21
281.91568391301428
  0
LINE
  8
_0-f_
  6
CONTINUOUS
 62
    7
 10
358.5865766537421
 20
281.91568391301428
 11
357.44706073373351
 21
281.91568391301428
  0
LINE
  8
_0-f_
  6
CONTINUOUS
 62
    7
 10
361.80358058972968
 20
281.99568391301432
 11
359.29957258972928
 21
281.99568391301432
  0
LINE
  8
_0-f_
  6
CONTINUOUS
 62
    7
 10
358.55392131936497
 20
281.99568391301432
 11
357.48030405653509
 21
281.99568391301432
  0
LINE
  8
_0-f_
  6
CONTINUOUS
 62
    7
 10
360.78358858972979
 20
282.0756839130143
 11
360.26358858972952
 21
282.0756839130143
  0
LINE
  8
_0-f_
  6
CONTINUOUS
 62
    7
 10
358.52126598498791
 20
282.0756839130143
 11
357.51354737933667
 21
282.0756839130143
  0
LINE
  8
_0-f_
  6
CONTINUOUS
 62
    7
 10
360.78358858972979
 20
282.15568391301429
 11
360.26358858972952
 21
282.15568391301429
  0
LINE
  8
_0-f_
  6
CONTINUOUS
 62
    7
 10
358.48861065061078
 20
282.15568391301429
 11
357.54679070213825
 21
282.15568391301429
  0
LINE
  8
_0-f_
  6
CONTINUOUS
 62
    7
 10
360.78358858972979
 20
282.23568391301433
 11
360.26358858972952
 21
282.23568391301433
  0
LINE
  8
_0-f_
  6
CONTINUOUS
 62
    7
 10
358.45595531623377
 20
282.23568391301433
 11
357.58003402493983
 21
282.23568391301433
  0
LINE
  8
_0-f_
  6
CONTINUOUS
 62
    7
 10
360.78358858972979
 20
282.31568391301437
 11
360.26358858972952
 21
282.31568391301437
  0
LINE
  8
_0-f_
  6
CONTINUOUS
 62
    7
 10
358.42329998185659
 20
282.31568391301437
 11
357.61327734774142
 21
282.31568391301437
  0
LINE
  8
_0-f_
  6
CONTINUOUS
 62
    7
 10
360.78358858972979
 20
282.39568391301435
 11
360.26358858972952
 21
282.39568391301435
  0
LINE
  8
_0-f_
  6
CONTINUOUS
 62
    7
 10
358.39064464747952
 20
282.39568391301435
 11
357.646520670543
 21
282.39568391301435
  0
LINE
  8
_0-f_
  6
CONTINUOUS
 62
    7
 10
360.78358858972979
 20
282.47568391301434
 11
360.26358858972952
 21
282.47568391301434
  0
LINE
  8
_0-f_
  6
CONTINUOUS
 62
    7
 10
358.35798931310245
 20
282.47568391301434
 11
357.67976399334458
 21
282.47568391301434
  0
LINE
  8
_0-f_
  6
CONTINUOUS
 62
    7
 10
360.78358858972979
 20
282.55568391301438
 11
360.26358858972952
 21
282.55568391301438
  0
LINE
  8
_0-f_
  6
CONTINUOUS
 62
    7
 10
358.32533397872538
 20
282.55568391301438
 11
357.71300731614616
 21
282.55568391301438
  0
LINE
  8
_0-f_
  6
CONTINUOUS
 62
    7
 10
360.78358858972979
 20
282.6356839130143
 11
360.26358858972952
 21
282.6356839130143
  0
LINE
  8
_0-f_
  6
CONTINUOUS
 62
    7
 10
358.29267864434831
 20
282.6356839130143
 11
357.74625063894769
 21
282.6356839130143
  0
LINE
  8
_0-f_
  6
CONTINUOUS
 62
    7
 10
361.80358058972985
 20
282.71568391301435
 11
359.29957258972962
 21
282.71568391301435
  0
LINE
  8
_0-f_
  6
CONTINUOUS
 62
    7
 10
358.9475725897293
 20
282.71568391301435
 11
357.08358858972986
 21
282.71568391301435
  0
LINE
  8
_0-f_
  6
CONTINUOUS
 62
    7
 10
361.80358058972985
 20
282.79568391301433
 11
359.29957258972962
 21
282.79568391301433
  0
LINE
  8
_0-f_
  6
CONTINUOUS
 62
    7
 10
358.9475725897293
 20
282.79568391301433
 11
357.08358858972986
 21
282.79568391301433
  0
LINE
  8
_0-f_
  6
CONTINUOUS
 62
    7
 10
361.80358058972985
 20
282.87568391301431
 11
359.29957258972962
 21
282.87568391301431
  0
LINE
  8
_0-f_
  6
CONTINUOUS
 62
    7
 10
358.9475725897293
 20
282.87568391301431
 11
357.08358858972986
 21
282.87568391301431
  0
LINE
  8
_0-f_
  6
CONTINUOUS
 62
    7
 10
361.80358058972985
 20
282.95568391301435
 11
359.29957258972962
 21
282.95568391301435
  0
LINE
  8
_0-f_
  6
CONTINUOUS
 62
    7
 10
358.9475725897293
 20
282.95568391301435
 11
357.08358858972986
 21
282.95568391301435
  0
LINE
  8
_0-f_
  6
CONTINUOUS
 62
    7
 10
361.80358058972985
 20
283.03568391301428
 11
359.29957258972962
 21
283.03568391301428
  0
LINE
  8
_0-f_
  6
CONTINUOUS
 62
    7
 10
358.9475725897293
 20
283.03568391301428
 11
357.08358858972986
 21
283.03568391301428
  0
LINE
  8
_0-f_
  6
CONTINUOUS
 62
    7
 10
361.80358058972985
 20
283.11568391301432
 11
359.29957258972962
 21
283.11568391301432
  0
LINE
  8
_0-f_
  6
CONTINUOUS
 62
    7
 10
358.9475725897293
 20
283.11568391301432
 11
357.08358858972986
 21
283.11568391301432
  0
LINE
  8
_0-f_
  6
CONTINUOUS
 62
    7
 10
360.78358858972939
 20
283.19568391301431
 11
360.26358858972952
 21
283.19568391301436
  0
LINE
  8
_0-f_
  6
CONTINUOUS
 62
    7
 10
359.79957258972951
 20
283.19568391301436
 11
359.29957258972962
 21
283.19568391301436
  0
LINE
  8
_0-f_
  6
CONTINUOUS
 62
    7
 10
358.27958058972985
 20
283.19568391301436
 11
357.75956458972973
 21
283.19568391301436
  0
LINE
  8
_0-f_
  6
CONTINUOUS
 62
    7
 10
360.78358858972939
 20
283.27568391301429
 11
360.26358858972952
 21
283.27568391301429
  0
LINE
  8
_0-f_
  6
CONTINUOUS
 62
    7
 10
359.79957258972951
 20
283.27568391301429
 11
359.29957258972962
 21
283.27568391301429
  0
LINE
  8
_0-f_
  6
CONTINUOUS
 62
    7
 10
358.27958058972985
 20
283.27568391301429
 11
357.75956458972973
 21
283.27568391301429
  0
LINE
  8
_0-f_
  6
CONTINUOUS
 62
    7
 10
360.78358858972939
 20
283.35568391301433
 11
360.26358858972952
 21
283.35568391301433
  0
LINE
  8
_0-f_
  6
CONTINUOUS
 62
    7
 10
359.79957258972951
 20
283.35568391301433
 11
359.29957258972962
 21
283.35568391301433
  0
LINE
  8
_0-f_
  6
CONTINUOUS
 62
    7
 10
358.27958058972985
 20
283.35568391301433
 11
357.75956458972973
 21
283.35568391301433
  0
LINE
  8
_0-f_
  6
CONTINUOUS
 62
    7
 10
360.78358858972939
 20
283.43568391301437
 11
360.26358858972952
 21
283.43568391301437
  0
LINE
  8
_0-f_
  6
CONTINUOUS
 62
    7
 10
359.79957258972951
 20
283.43568391301437
 11
359.29957258972962
 21
283.43568391301437
  0
LINE
  8
_0-f_
  6
CONTINUOUS
 62
    7
 10
358.27958058972985
 20
283.43568391301437
 11
357.75956458972973
 21
283.43568391301437
  0
LINE
  8
_0-f_
  6
CONTINUOUS
 62
    7
 10
360.78358858972939
 20
283.51568391301436
 11
360.26358858972952
 21
283.51568391301436
  0
LINE
  8
_0-f_
  6
CONTINUOUS
 62
    7
 10
359.79957258972951
 20
283.51568391301436
 11
359.29957258972962
 21
283.51568391301436
  0
LINE
  8
_0-f_
  6
CONTINUOUS
 62
    7
 10
358.27958058972985
 20
283.51568391301436
 11
357.75956458972973
 21
283.51568391301436
  0
LINE
  8
_0-f_
  6
CONTINUOUS
 62
    7
 10
360.78358858972939
 20
283.59568391301434
 11
360.26358858972952
 21
283.59568391301434
  0
LINE
  8
_0-f_
  6
CONTINUOUS
 62
    7
 10
359.79957258972951
 20
283.59568391301434
 11
359.29957258972962
 21
283.59568391301434
  0
LINE
  8
_0-f_
  6
CONTINUOUS
 62
    7
 10
358.27958058972985
 20
283.59568391301434
 11
357.75956458972973
 21
283.59568391301434
  0
LINE
  8
_0-f_
  6
CONTINUOUS
 62
    7
 10
360.78358858972939
 20
283.67568391301438
 11
360.26358858972952
 21
283.67568391301438
  0
LINE
  8
_0-f_
  6
CONTINUOUS
 62
    7
 10
359.79957258972951
 20
283.67568391301438
 11
359.29957258972962
 21
283.67568391301438
  0
LINE
  8
_0-f_
  6
CONTINUOUS
 62
    7
 10
358.27958058972985
 20
283.67568391301438
 11
357.75956458972973
 21
283.67568391301438
  0
LINE
  8
_0-f_
  6
CONTINUOUS
 62
    7
 10
360.78358858972939
 20
283.75568391301431
 11
360.26358858972952
 21
283.75568391301431
  0
LINE
  8
_0-f_
  6
CONTINUOUS
 62
    7
 10
359.79957258972951
 20
283.75568391301431
 11
359.29957258972962
 21
283.75568391301431
  0
LINE
  8
_0-f_
  6
CONTINUOUS
 62
    7
 10
358.27958058972985
 20
283.75568391301431
 11
357.75956458972973
 21
283.75568391301431
  0
LINE
  8
_0-f_
  6
CONTINUOUS
 62
    7
 10
361.80358058972968
 20
281.67568391301432
 11
359.29957258972928
 21
281.67568391301432
  0
LINE
  8
_0-f_
  6
CONTINUOUS
 62
    7
 10
358.68454265687336
 20
281.67568391301432
 11
357.34733076532876
 21
281.67568391301432
  0
LINE
  8
_0-f_
  6
CONTINUOUS
 62
    7
 10
361.80358058972968
 20
281.59568391301434
 11
359.29957258972928
 21
281.59568391301434
  0
LINE
  8
_0-f_
  6
CONTINUOUS
 62
    7
 10
358.71719799125043
 20
281.59568391301434
 11
357.31408744252718
 21
281.59568391301434
  0
LINE
  8
_0-f_
  6
CONTINUOUS
 62
    7
 10
361.09492320580745
 20
281.5156839130143
 11
359.95248939783335
 21
281.5156839130143
  0
LINE
  8
_0-f_
  6
CONTINUOUS
 62
    7
 10
358.7498533256275
 20
281.5156839130143
 11
358.29895401681824
 21
281.5156839130143
  0
LINE
  8
_0-f_
  6
CONTINUOUS
 62
    7
 10
358.27958058972979
 20
281.5156839130143
 11
357.75956458972968
 21
281.5156839130143
  0
LINE
  8
_0-f_
  6
CONTINUOUS
 62
    7
 10
357.74129890140063
 20
281.5156839130143
 11
357.2808441197256
 21
281.5156839130143
  0
LINE
  8
_0-f_
  6
CONTINUOUS
 62
    7
 10
361.12838487315668
 20
281.43568391301426
 11
359.91951874990303
 21
281.43568391301426
  0
LINE
  8
_0-f_
  6
CONTINUOUS
 62
    7
 10
358.78250866000468
 20
281.43568391301426
 11
358.32946335081607
 21
281.43568391301426
  0
LINE
  8
_0-f_
  6
CONTINUOUS
 62
    7
 10
358.27958058972979
 20
281.43568391301426
 11
357.75956458972968
 21
281.43568391301426
  0
LINE
  8
_0-f_
  6
CONTINUOUS
 62
    7
 10
357.70917493318206
 20
281.43568391301426
 11
357.24760079692402
 21
281.43568391301426
  0
LINE
  8
_0-f_
  6
CONTINUOUS
 62
    7
 10
361.16184654050602
 20
281.35568391301433
 11
359.88654810197266
 21
281.35568391301433
  0
LINE
  8
_0-f_
  6
CONTINUOUS
 62
    7
 10
358.81516399438175
 20
281.35568391301433
 11
358.35997268481395
 21
281.35568391301433
  0
LINE
  8
_0-f_
  6
CONTINUOUS
 62
    7
 10
358.27958058972979
 20
281.35568391301433
 11
357.75956458972968
 21
281.35568391301433
  0
LINE
  8
_0-f_
  6
CONTINUOUS
 62
    7
 10
357.67705096496348
 20
281.35568391301433
 11
357.21435747412244
 21
281.35568391301433
  0
LINE
  8
_0-f_
  6
CONTINUOUS
 62
    7
 10
361.19530820785525
 20
281.27568391301429
 11
359.85357745404229
 21
281.27568391301429
  0
LINE
  8
_0-f_
  6
CONTINUOUS
 62
    7
 10
358.84781932875882
 20
281.27568391301429
 11
358.39048201881178
 21
281.27568391301429
  0
LINE
  8
_0-f_
  6
CONTINUOUS
 62
    7
 10
358.27958058972979
 20
281.27568391301429
 11
357.75956458972968
 21
281.27568391301429
  0
LINE
  8
_0-f_
  6
CONTINUOUS
 62
    7
 10
357.64492699674491
 20
281.27568391301429
 11
357.18111415132091
 21
281.27568391301429
  0
LINE
  8
_0-f_
  6
CONTINUOUS
 62
    7
 10
361.22876987520459
 20
281.19568391301436
 11
359.82060680611204
 21
281.19568391301425
  0
LINE
  8
_0-f_
  6
CONTINUOUS
 62
    7
 10
358.88047466313589
 20
281.19568391301425
 11
358.42099135280961
 21
281.19568391301425
  0
LINE
  8
_0-f_
  6
CONTINUOUS
 62
    7
 10
358.27958058972979
 20
281.19568391301425
 11
357.75956458972968
 21
281.19568391301425
  0
LINE
  8
_0-f_
  6
CONTINUOUS
 62
    7
 10
357.61280302852634
 20
281.19568391301436
 11
357.14787082851933
 21
281.19568391301425
  0
LINE
  8
_0-f_
  6
CONTINUOUS
 62
    7
 10
361.26223154255382
 20
281.11568391301432
 11
359.78763615818167
 21
281.11568391301432
  0
LINE
  8
_0-f_
  6
CONTINUOUS
 62
    7
 10
359.02758058972967
 20
281.11568391301432
 11
358.45150068680744
 21
281.11568391301432
  0
LINE
  8
_0-f_
  6
CONTINUOUS
 62
    7
 10
358.27958058972979
 20
281.11568391301432
 11
357.75956458972968
 21
281.11568391301432
  0
LINE
  8
_0-f_
  6
CONTINUOUS
 62
    7
 10
357.58067906030777
 20
281.11568391301432
 11
357.11462750571769
 21
281.11568391301432
  0
LINE
  8
_0-f_
  6
CONTINUOUS
 62
    7
 10
361.29569320990316
 20
281.03568391301428
 11
360.78994408877236
 21
281.03568391301428
  0
LINE
  8
_0-f_
  6
CONTINUOUS
 62
    7
 10
360.78358858972962
 20
281.03568391301428
 11
360.26358858972986
 21
281.03568391301428
  0
LINE
  8
_0-f_
  6
CONTINUOUS
 62
    7
 10
360.25736854611813
 20
281.03568391301428
 11
359.7546655102513
 21
281.03568391301428
  0
LINE
  8
_0-f_
  6
CONTINUOUS
 62
    7
 10
359.02758058972967
 20
281.03568391301428
 11
358.48201002080526
 21
281.03568391301428
  0
LINE
  8
_0-f_
  6
CONTINUOUS
 62
    7
 10
358.27958058972979
 20
281.03568391301428
 11
357.75956458972968
 21
281.03568391301428
  0
LINE
  8
_0-f_
  6
CONTINUOUS
 62
    7
 10
357.54855509208926
 20
281.03568391301428
 11
357.08138418291617
 21
281.03568391301428
  0
LINE
  8
_0-f_
  6
CONTINUOUS
 62
    7
 10
361.32915487725239
 20
280.9556839130143
 11
360.8242610382469
 21
280.9556839130143
  0
LINE
  8
_0-f_
  6
CONTINUOUS
 62
    7
 10
360.78358858972962
 20
280.9556839130143
 11
360.26358858972986
 21
280.9556839130143
  0
LINE
  8
_0-f_
  6
CONTINUOUS
 62
    7
 10
360.22363729008936
 20
280.9556839130143
 11
359.72169486232093
 21
280.9556839130143
  0
LINE
  8
_0-f_
  6
CONTINUOUS
 62
    7
 10
359.02758058972967
 20
280.9556839130143
 11
358.51251935480315
 21
280.9556839130143
  0
LINE
  8
_0-f_
  6
CONTINUOUS
 62
    7
 10
358.27958058972979
 20
280.9556839130143
 11
357.75956458972968
 21
280.9556839130143
  0
LINE
  8
_0-f_
  6
CONTINUOUS
 62
    7
 10
357.51643112387063
 20
280.9556839130143
 11
357.00358058972978
 21
280.9556839130143
  0
LINE
  8
_0-f_
  6
CONTINUOUS
 62
    7
 10
361.36261654460174
 20
280.87568391301431
 11
360.8585779877215
 21
280.87568391301431
  0
LINE
  8
_0-f_
  6
CONTINUOUS
 62
    7
 10
360.78358858972962
 20
280.87568391301431
 11
360.26358858972986
 21
280.87568391301431
  0
LINE
  8
_0-f_
  6
CONTINUOUS
 62
    7
 10
360.18990603406058
 20
280.87568391301431
 11
359.68872421439062
 21
280.87568391301431
  0
LINE
  8
_0-f_
  6
CONTINUOUS
 62
    7
 10
359.02758058972967
 20
280.87568391301431
 11
358.54302868880103
 21
280.87568391301431
  0
LINE
  8
_0-f_
  6
CONTINUOUS
 62
    7
 10
358.27958058972979
 20
280.87568391301431
 11
357.75956458972968
 21
280.87568391301431
  0
LINE
  8
_0-f_
  6
CONTINUOUS
 62
    7
 10
357.48430715565217
 20
280.87568391301431
 11
357.00358058972978
 21
280.87568391301431
  0
LINE
  8
_0-f_
  6
CONTINUOUS
 62
    7
 10
361.39607821195102
 20
280.79568391301427
 11
360.8928949371961
 21
280.79568391301427
  0
LINE
  8
_0-f_
  6
CONTINUOUS
 62
    7
 10
360.78358858972962
 20
280.79568391301427
 11
360.26358858972986
 21
280.79568391301427
  0
LINE
  8
_0-f_
  6
CONTINUOUS
 62
    7
 10
360.15617477803187
 20
280.79568391301427
 11
359.65575356646031
 21
280.79568391301427
  0
LINE
  8
_0-f_
  6
CONTINUOUS
 62
    7
 10
359.02758058972967
 20
280.79568391301427
 11
358.58025984634895
 21
280.79568391301427
  0
LINE
  8
_0-f_
  6
CONTINUOUS
 62
    7
 10
358.27958058972979
 20
280.79568391301427
 11
357.75956458972968
 21
280.79568391301427
  0
LINE
  8
_0-f_
  6
CONTINUOUS
 62
    7
 10
357.4521831874336
 20
280.79568391301427
 11
357.00358058972978
 21
280.79568391301427
  0
LINE
  8
_0-f_
  6
CONTINUOUS
 62
    7
 10
361.42953987930031
 20
280.71568391301435
 11
360.92721188667065
 21
280.71568391301435
  0
LINE
  8
_0-f_
  6
CONTINUOUS
 62
    7
 10
360.78358858972962
 20
280.71568391301435
 11
360.26358858972986
 21
280.71568391301435
  0
LINE
  8
_0-f_
  6
CONTINUOUS
 62
    7
 10
360.1224435220031
 20
280.71568391301435
 11
359.62278291852999
 21
280.71568391301435
  0
LINE
  8
_0-f_
  6
CONTINUOUS
 62
    7
 10
359.02758058972967
 20
280.71568391301435
 11
358.69252234259716
 21
280.71568391301435
  0
LINE
  8
_0-f_
  6
CONTINUOUS
 62
    7
 10
358.27958058972979
 20
280.71568391301435
 11
357.75956458972968
 21
280.71568391301435
  0
LINE
  8
_0-f_
  6
CONTINUOUS
 62
    7
 10
357.42005921921503
 20
280.71568391301435
 11
357.00358058972978
 21
280.71568391301435
  0
LINE
  8
_0-f_
  6
CONTINUOUS
 62
    7
 10
361.46300154664959
 20
280.6356839130143
 11
360.96152883614519
 21
280.6356839130143
  0
LINE
  8
_0-f_
  6
CONTINUOUS
 62
    7
 10
360.78358858972962
 20
280.6356839130143
 11
360.26358858972986
 21
280.6356839130143
  0
LINE
  8
_0-f_
  6
CONTINUOUS
 62
    7
 10
360.08871226597432
 20
280.6356839130143
 11
359.58981227059968
 21
280.6356839130143
  0
LINE
  8
_0-f_
  6
CONTINUOUS
 62
    7
 10
358.27958058972979
 20
280.6356839130143
 11
357.75956458972968
 21
280.6356839130143
  0
LINE
  8
_0-f_
  6
CONTINUOUS
 62
    7
 10
357.38793525099646
 20
280.6356839130143
 11
357.00358058972978
 21
280.6356839130143
  0
LINE
  8
_0-f_
  6
CONTINUOUS
 62
    7
 10
361.49646321399888
 20
280.55568391301432
 11
360.99584578561979
 21
280.55568391301432
  0
LINE
  8
_0-f_
  6
CONTINUOUS
 62
    7
 10
360.78358858972962
 20
280.55568391301432
 11
360.26358858972986
 21
280.55568391301432
  0
LINE
  8
_0-f_
  6
CONTINUOUS
 62
    7
 10
360.05498100994555
 20
280.55568391301432
 11
359.55684162266931
 21
280.55568391301432
  0
LINE
  8
_0-f_
  6
CONTINUOUS
 62
    7
 10
358.27958058972979
 20
280.55568391301432
 11
357.75956458972968
 21
280.55568391301432
  0
LINE
  8
_0-f_
  6
CONTINUOUS
 62
    7
 10
357.32949801558181
 20
280.55568391301432
 11
357.00358058972978
 21
280.55568391301432
  0
LINE
  8
_0-f_
  6
CONTINUOUS
 62
    7
 10
361.52992488134817
 20
280.47568391301434
 11
361.03016273509439
 21
280.47568391301434
  0
LINE
  8
_0-f_
  6
CONTINUOUS
 62
    7
 10
360.78358858972962
 20
280.47568391301434
 11
360.26358858972986
 21
280.47568391301434
  0
LINE
  8
_0-f_
  6
CONTINUOUS
 62
    7
 10
360.02124975391678
 20
280.47568391301434
 11
359.523870974739
 21
280.47568391301434
  0
LINE
  8
_0-f_
  6
CONTINUOUS
 62
    7
 10
358.27958058972979
 20
280.47568391301434
 11
357.75956458972968
 21
280.47568391301434
  0
LINE
  8
_0-f_
  6
CONTINUOUS
 62
    7
 10
361.56338654869751
 20
280.3956839130143
 11
361.06447968456899
 21
280.3956839130143
  0
LINE
  8
_0-f_
  6
CONTINUOUS
 62
    7
 10
360.78358858972962
 20
280.3956839130143
 11
360.26358858972986
 21
280.3956839130143
  0
LINE
  8
_0-f_
  6
CONTINUOUS
 62
    7
 10
359.98751849788806
 20
280.3956839130143
 11
359.49090032680868
 21
280.3956839130143
  0
LINE
  8
_0-f_
  6
CONTINUOUS
 62
    7
 10
358.27958058972979
 20
280.3956839130143
 11
357.75956458972968
 21
280.3956839130143
  0
LINE
  8
_0-f_
  6
CONTINUOUS
 62
    7
 10
361.59684821604679
 20
280.31568391301425
 11
361.09879663404354
 21
280.31568391301425
  0
LINE
  8
_0-f_
  6
CONTINUOUS
 62
    7
 10
360.78358858972962
 20
280.31568391301425
 11
360.26358858972986
 21
280.31568391301425
  0
LINE
  8
_0-f_
  6
CONTINUOUS
 62
    7
 10
359.95378724185929
 20
280.31568391301425
 11
359.45792967887832
 21
280.31568391301425
  0
LINE
  8
_0-f_
  6
CONTINUOUS
 62
    7
 10
358.27958058972979
 20
280.31568391301425
 11
357.75956458972968
 21
280.31568391301425
  0
LINE
  8
_0-f_
  6
CONTINUOUS
 62
    7
 10
361.63770777389021
 20
280.23568391301433
 11
361.13311358351808
 21
280.23568391301427
  0
LINE
  8
_0-f_
  6
CONTINUOUS
 62
    7
 10
360.78358858972962
 20
280.23568391301427
 11
360.26358858972986
 21
280.23568391301427
  0
LINE
  8
_0-f_
  6
CONTINUOUS
 62
    7
 10
359.92005598583052
 20
280.23568391301427
 11
359.41713513450918
 21
280.23568391301427
  0
LINE
  8
_0-f_
  6
CONTINUOUS
 62
    7
 10
358.27958058972979
 20
280.23568391301427
 11
357.75956458972968
 21
280.23568391301427
  0
LINE
  8
_0-f_
  6
CONTINUOUS
 62
    7
 10
361.80358058972917
 20
280.15568391301429
 11
361.16743053299268
 21
280.15568391301429
  0
LINE
  8
_0-f_
  6
CONTINUOUS
 62
    7
 10
360.78358858972962
 20
280.15568391301429
 11
360.26358858972986
 21
280.15568391301429
  0
LINE
  8
_0-f_
  6
CONTINUOUS
 62
    7
 10
359.88632472980174
 20
280.15568391301429
 11
359.26759658973009
 21
280.15568391301429
  0
LINE
  8
_0-f_
  6
CONTINUOUS
 62
    7
 10
358.27958058972979
 20
280.15568391301429
 11
357.75956458972968
 21
280.15568391301429
  0
LINE
  8
_0-f_
  6
CONTINUOUS
 62
    7
 10
361.80358058972917
 20
280.07568391301425
 11
361.20174748246728
 21
280.07568391301425
  0
LINE
  8
_0-f_
  6
CONTINUOUS
 62
    7
 10
360.78358858972962
 20
280.07568391301425
 11
360.26358858972986
 21
280.07568391301425
  0
LINE
  8
_0-f_
  6
CONTINUOUS
 62
    7
 10
359.85259347377297
 20
280.07568391301425
 11
359.26759658973009
 21
280.07568391301425
  0
LINE
  8
_0-f_
  6
CONTINUOUS
 62
    7
 10
358.27958058972979
 20
280.07568391301425
 11
357.75956458972968
 21
280.07568391301425
  0
LINE
  8
_0-f_
  6
CONTINUOUS
 62
    7
 10
361.80358058972917
 20
279.99568391301432
 11
361.23606443194188
 21
279.99568391301432
  0
LINE
  8
_0-f_
  6
CONTINUOUS
 62
    7
 10
360.78358858972962
 20
279.99568391301432
 11
360.26358858972986
 21
279.99568391301432
  0
LINE
  8
_0-f_
  6
CONTINUOUS
 62
    7
 10
359.8188622177442
 20
279.99568391301432
 11
359.26759658973009
 21
279.99568391301432
  0
LINE
  8
_0-f_
  6
CONTINUOUS
 62
    7
 10
358.27958058972979
 20
279.99568391301432
 11
357.75956458972968
 21
279.99568391301432
  0
LINE
  8
_0-f_
  6
CONTINUOUS
 62
    7
 10
361.80358058972917
 20
279.91568391301428
 11
361.2728303275548
 21
279.91568391301428
  0
LINE
  8
_0-f_
  6
CONTINUOUS
 62
    7
 10
360.78358858972962
 20
279.91568391301428
 11
360.26358858972986
 21
279.91568391301428
  0
LINE
  8
_0-f_
  6
CONTINUOUS
 62
    7
 10
359.78234091033818
 20
279.91568391301428
 11
359.26759658973009
 21
279.91568391301428
  0
LINE
  8
_0-f_
  6
CONTINUOUS
 62
    7
 10
358.27958058972979
 20
279.91568391301428
 11
357.75956458972968
 21
279.91568391301428
  0
LINE
  8
_0-f_
  6
CONTINUOUS
 62
    7
 10
361.80358058972917
 20
279.83568391301429
 11
361.34848365328133
 21
279.83568391301429
  0
LINE
  8
_0-f_
  6
CONTINUOUS
 62
    7
 10
360.78358858972962
 20
279.83568391301429
 11
360.26358858972986
 21
279.83568391301429
  0
LINE
  8
_0-f_
  6
CONTINUOUS
 62
    7
 10
359.70681067098729
 20
279.83568391301429
 11
359.26759658973009
 21
279.83568391301429
  0
LINE
  8
_0-f_
  6
CONTINUOUS
 62
    7
 10
358.27958058972979
 20
279.83568391301429
 11
357.75956458972968
 21
279.83568391301429
  0
LINE
  8
_0-f_
  6
CONTINUOUS
 62
    7
 10
359.29957258972962
 20
283.79572391301434
 11
359.79957258972962
 21
283.79572391301434
  0
LINE
  8
_0-f_
  6
CONTINUOUS
 62
    7
 10
360.26358858972975
 20
282.67580391301431
 11
359.29957258972962
 21
282.67580391301431
  0
LINE
  8
_0-f_
  6
CONTINUOUS
 62
    7
 10
360.26358858972975
 20
282.00392391301432
 11
359.29957258972962
 21
282.00392391301432
  0
LINE
  8
_0-f_
  6
CONTINUOUS
 62
    7
 10
359.29957258972962
 20
281.56388391301437
 11
359.97235421321136
 21
281.56388391301437
  0
LINE
  8
_0-f_
  6
CONTINUOUS
 62
    7
 10
359.97235421321136
 20
281.56388391301437
 11
359.43908492538287
 21
280.26995899178064
  0
ARC
  8
_0-f_
  6
CONTINUOUS
 62
    7
 10
359.57526637317659
 20
280.03568391301428
 40
0.2399999999999999
 50
270
 51
337.13773188217988
  0
LINE
  8
_0-f_
  6
CONTINUOUS
 62
    7
 10
357.76292216533267
 20
282.67580391301431
 11
357.08234392070432
 21
281.03799352037561
  0
LINE
  8
_0-f_
  6
CONTINUOUS
 62
    7
 10
358.27630199415825
 20
282.67580391301431
 11
358.86301449417937
 21
281.23845834920292
  0
LINE
  8
_0-f_
  6
CONTINUOUS
 62
    7
 10
357.75956458972968
 20
281.56117191301428
 11
357.38737067219091
 21
280.6342779128546
  0
LINE
  8
_0-f_
  6
CONTINUOUS
 62
    7
 10
357.00358058972967
 20
280.98869191301435
 11
357.00358058972967
 21
280.50880391301433
  0
LINE
  8
_0-f_
  6
CONTINUOUS
 62
    7
 10
357.00358058972967
 20
280.50880391301433
 11
357.20177467196407
 21
280.50880391301433
  0
ARC
  8
_0-f_
  6
CONTINUOUS
 62
    7
 10
357.20177467196407
 20
280.70880391301432
 40
0.2
 50
270
 51
338.12209204226036
  0
LINE
  8
_0-f_
  6
CONTINUOUS
 62
    7
 10
357.00846829082946
 20
280.98869191301435
 11
357.00358058972967
 21
280.98869191301435
  0
ARC
  8
_0-f_
  6
CONTINUOUS
 62
    7
 10
357.00846829082946
 20
281.06869191301428
 40
0.08
 50
270
 51
337.43508599410586
  0
ARC
  8
_0-f_
  6
CONTINUOUS
 62
    7
 10
358.74444833639456
 20
280.90880391301431
 40
0.2
 50
200.8751841896235
 51
270
  0
LINE
  8
_0-f_
  6
CONTINUOUS
 62
    7
 10
357.75956458972968
 20
279.79568391301433
 11
357.75956458972968
 21
281.56117191301428
  0
LINE
  8
_0-f_
  6
CONTINUOUS
 62
    7
 10
358.27958058972973
 20
279.79568391301433
 11
358.27958058972973
 21
281.56648391301428
  0
LINE
  8
_0-f_
  6
CONTINUOUS
 62
    7
 10
357.75956458972968
 20
279.79568391301433
 11
358.27958058972973
 21
279.79568391301433
  0
LINE
  8
_0-f_
  6
CONTINUOUS
 62
    7
 10
358.27958058972973
 20
281.56648391301428
 11
358.55757655715507
 21
280.83753724391943
  0
LINE
  8
_0-f_
  6
CONTINUOUS
 62
    7
 10
359.02758058972967
 20
280.70880391301432
 11
359.02758058972967
 21
281.18869191301434
  0
LINE
  8
_0-f_
  6
CONTINUOUS
 62
    7
 10
359.02758058972967
 20
280.70880391301432
 11
358.74444833639456
 21
280.70880391301432
  0
ARC
  8
_0-f_
  6
CONTINUOUS
 62
    7
 10
359.3281379489564
 20
280.31568391301437
 40
0.12
 50
270
 51
337.60181985621841
  0
LINE
  8
_0-f_
  6
CONTINUOUS
 62
    7
 10
359.26759658972975
 20
280.19568391301431
 11
359.3281379489564
 21
280.19568391301431
  0
LINE
  8
_0-f_
  6
CONTINUOUS
 62
    7
 10
359.26759658972975
 20
280.19568391301431
 11
359.26759658972975
 21
279.79568391301433
  0
LINE
  8
_0-f_
  6
CONTINUOUS
 62
    7
 10
359.26759658972975
 20
279.79568391301433
 11
359.57526637317659
 21
279.79568391301433
  0
LINE
  8
_0-f_
  6
CONTINUOUS
 62
    7
 10
359.02758058972967
 20
281.18869191301434
 11
358.93708156931581
 21
281.18869191301434
  0
ARC
  8
_0-f_
  6
CONTINUOUS
 62
    7
 10
358.93708156931581
 20
281.26869191301432
 40
0.08
 50
202.2048740517549
 51
270
  0
LINE
  8
_0-f_
  6
CONTINUOUS
 62
    7
 10
359.29957258972962
 20
281.56388391301437
 11
359.29957258972962
 21
282.00392391301432
  0
LINE
  8
_0-f_
  6
CONTINUOUS
 62
    7
 10
357.08358858972969
 20
283.11584391301432
 11
357.75956458972968
 21
283.11584391301432
  0
LINE
  8
_0-f_
  6
CONTINUOUS
 62
    7
 10
357.08358858972969
 20
282.67580391301431
 11
357.76292216533267
 21
282.67580391301431
  0
LINE
  8
_0-f_
  6
CONTINUOUS
 62
    7
 10
357.08358858972969
 20
283.11584391301432
 11
357.08358858972969
 21
282.67580391301431
  0
LINE
  8
_0-f_
  6
CONTINUOUS
 62
    7
 10
358.27630199415825
 20
282.67580391301431
 11
358.94757258972965
 21
282.67580391301431
  0
LINE
  8
_0-f_
  6
CONTINUOUS
 62
    7
 10
358.27958058972973
 20
283.11584391301432
 11
358.94757258972965
 21
283.11584391301432
  0
LINE
  8
_0-f_
  6
CONTINUOUS
 62
    7
 10
358.27958058972973
 20
283.11584391301432
 11
358.27958058972973
 21
283.79572391301434
  0
LINE
  8
_0-f_
  6
CONTINUOUS
 62
    7
 10
357.75956458972968
 20
283.11584391301432
 11
357.75956458972968
 21
283.79572391301434
  0
LINE
  8
_0-f_
  6
CONTINUOUS
 62
    7
 10
357.75956458972968
 20
282.66779591301429
 11
357.75956458972968
 21
282.67580391301431
  0
LINE
  8
_0-f_
  6
CONTINUOUS
 62
    7
 10
358.27958058972973
 20
282.66779591301429
 11
358.27958058972973
 21
282.67580391301431
  0
LINE
  8
_0-f_
  6
CONTINUOUS
 62
    7
 10
357.75956458972968
 20
283.79572391301434
 11
358.27958058972973
 21
283.79572391301434
  0
LINE
  8
_0-f_
  6
CONTINUOUS
 62
    7
 10
359.29957258972962
 20
282.67580391301431
 11
359.29957258972962
 21
283.79572391301434
  0
LINE
  8
_0-f_
  6
CONTINUOUS
 62
    7
 10
358.94757258972965
 20
282.67580391301431
 11
358.94757258972965
 21
283.11584391301432
  0
LINE
  8
_0-f_
  6
CONTINUOUS
 62
    7
 10
360.78358858972973
 20
282.67580391301431
 11
360.78358858972973
 21
282.00392391301432
  0
LINE
  8
_0-f_
  6
CONTINUOUS
 62
    7
 10
360.26358858972975
 20
282.67580391301431
 11
360.26358858972975
 21
282.00392391301432
  0
LINE
  8
_0-f_
  6
CONTINUOUS
 62
    7
 10
361.80358058972973
 20
282.00392391301432
 11
360.78358858972973
 21
282.00392391301432
  0
LINE
  8
_0-f_
  6
CONTINUOUS
 62
    7
 10
360.78358858972973
 20
281.05049991301433
 11
361.25949148963468
 21
279.94107053262587
  0
LINE
  8
_0-f_
  6
CONTINUOUS
 62
    7
 10
360.26358858972975
 20
281.05043591301433
 11
359.79641232397324
 21
279.9424397794387
  0
LINE
  8
_0-f_
  6
CONTINUOUS
 62
    7
 10
360.26358858972975
 20
281.05043591301433
 11
360.26358858972975
 21
279.79568391301433
  0
LINE
  8
_0-f_
  6
CONTINUOUS
 62
    7
 10
360.78358858972973
 20
281.05049991301433
 11
360.78358858972973
 21
279.79568391301433
  0
LINE
  8
_0-f_
  6
CONTINUOUS
 62
    7
 10
360.26358858972975
 20
279.79568391301433
 11
360.78358858972973
 21
279.79568391301433
  0
LINE
  8
_0-f_
  6
CONTINUOUS
 62
    7
 10
361.07476255122947
 20
281.56388391301437
 11
361.61621629925884
 21
280.26937878898116
  0
ARC
  8
_0-f_
  6
CONTINUOUS
 62
    7
 10
361.48005510461115
 20
280.03568391301428
 40
0.2399999999999999
 50
203.21748710460054
 51
270
  0
LINE
  8
_0-f_
  6
CONTINUOUS
 62
    7
 10
361.80358058972973
 20
279.79568391301433
 11
361.48005510461115
 21
279.79568391301433
  0
LINE
  8
_0-f_
  6
CONTINUOUS
 62
    7
 10
361.80358058972973
 20
280.19568391301431
 11
361.80358058972973
 21
279.79568391301433
  0
LINE
  8
_0-f_
  6
CONTINUOUS
 62
    7
 10
361.80358058972973
 20
280.19568391301431
 11
361.7269223762749
 21
280.19568391301431
  0
ARC
  8
_0-f_
  6
CONTINUOUS
 62
    7
 10
361.7269223762749
 20
280.31568391301437
 40
0.12
 50
202.6981362709997
 51
270
  0
LINE
  8
_0-f_
  6
CONTINUOUS
 62
    7
 10
361.07476255122947
 20
281.56388391301437
 11
361.80358058972973
 21
281.56388391301437
  0
LINE
  8
_0-f_
  6
CONTINUOUS
 62
    7
 10
361.80358058972973
 20
282.00392391301432
 11
361.80358058972973
 21
281.56388391301437
  0
LINE
  8
_0-f_
  6
CONTINUOUS
 62
    7
 10
361.80358058972973
 20
282.67580391301431
 11
360.78358858972973
 21
282.67580391301431
  0
LINE
  8
_0-f_
  6
CONTINUOUS
 62
    7
 10
361.80358058972973
 20
283.11584391301432
 11
360.78358858972973
 21
283.11584391301432
  0
LINE
  8
_0-f_
  6
CONTINUOUS
 62
    7
 10
360.78358858972973
 20
283.79572391301434
 11
360.78358858972973
 21
283.11584391301432
  0
LINE
  8
_0-f_
  6
CONTINUOUS
 62
    7
 10
360.26358858972975
 20
283.79572391301434
 11
360.26358858972975
 21
283.11584391301432
  0
LINE
  8
_0-f_
  6
CONTINUOUS
 62
    7
 10
359.79957258972962
 20
283.11584391301432
 11
359.79957258972962
 21
283.79572391301434
  0
LINE
  8
_0-f_
  6
CONTINUOUS
 62
    7
 10
360.26358858972975
 20
283.11584391301432
 11
359.79957258972962
 21
283.11584391301432
  0
LINE
  8
_0-f_
  6
CONTINUOUS
 62
    7
 10
360.26358858972975
 20
283.79572391301434
 11
360.78358858972973
 21
283.79572391301434
  0
LINE
  8
_0-f_
  6
CONTINUOUS
 62
    7
 10
361.80358058972973
 20
283.11584391301432
 11
361.80358058972973
 21
282.67580391301431
  0
LINE
  8
_0-f_
  6
CONTINUOUS
 62
    7
 10
364.97815883327803
 20
281.56388391301437
 11
364.97815883327803
 21
282.00392391301432
  0
LINE
  8
_0-f_
  6
CONTINUOUS
 62
    7
 10
364.97815883327803
 20
282.00392391301432
 11
362.57815883327811
 21
282.00392391301432
  0
LINE
  8
_0-f_
  6
CONTINUOUS
 62
    7
 10
362.57815883327811
 20
282.00392391301432
 11
362.57815883327811
 21
281.56388391301437
  0
LINE
  8
_0-f_
  6
CONTINUOUS
 62
    7
 10
362.57815883327811
 20
281.56388391301437
 11
363.33816683327814
 21
281.56388391301437
  0
LINE
  8
_0-f_
  6
CONTINUOUS
 62
    7
 10
363.33816683327814
 20
281.56388391301437
 11
363.33816683327814
 21
280.23576391301435
  0
LINE
  8
_0-f_
  6
CONTINUOUS
 62
    7
 10
363.33816683327814
 20
280.23576391301435
 11
362.57815883327811
 21
280.23576391301435
  0
LINE
  8
_0-f_
  6
CONTINUOUS
 62
    7
 10
362.57815883327811
 20
280.23576391301435
 11
362.57815883327811
 21
279.79568391301433
  0
LINE
  8
_0-f_
  6
CONTINUOUS
 62
    7
 10
362.57815883327811
 20
279.79568391301433
 11
364.06536683327812
 21
279.79568391301433
  0
ARC
  8
_0-f_
  6
CONTINUOUS
 62
    7
 10
364.06536683327812
 20
280.59568391301434
 40
0.8000000000000078
 50
270
 51
285.45094822953388
  0
LINE
  8
_0-f_
  6
CONTINUOUS
 62
    7
 10
364.27849747316412
 20
279.82459680357613
 11
364.97815883327803
 21
280.02656391301434
  0
LINE
  8
_0-f_
  6
CONTINUOUS
 62
    7
 10
364.97815883327803
 20
280.02656391301434
 11
364.97815883327803
 21
280.46664391301431
  0
LINE
  8
_0-f_
  6
CONTINUOUS
 62
    7
 10
364.97815883327803
 20
280.46664391301431
 11
364.17818283327819
 21
280.23576391301435
  0
LINE
  8
_0-f_
  6
CONTINUOUS
 62
    7
 10
364.17818283327819
 20
280.23576391301435
 11
364.078158833278
 21
280.23576391301435
  0
LINE
  8
_0-f_
  6
CONTINUOUS
 62
    7
 10
364.078158833278
 20
280.23576391301435
 11
364.078158833278
 21
281.56388391301437
  0
LINE
  8
_0-f_
  6
CONTINUOUS
 62
    7
 10
364.078158833278
 20
281.56388391301437
 11
364.97815883327803
 21
281.56388391301437
  0
LINE
  8
_0-f_
  6
CONTINUOUS
 62
    7
 10
366.05212556683972
 20
283.11584391301432
 11
365.89568743441788
 21
283.79572391301434
  0
LINE
  8
_0-f_
  6
CONTINUOUS
 62
    7
 10
365.89568743441788
 20
283.79572391301434
 11
365.05696917461086
 21
283.79572391301434
  0
LINE
  8
_0-f_
  6
CONTINUOUS
 62
    7
 10
365.05696917461086
 20
283.79572391301434
 11
365.21502856338191
 21
283.11584391301432
  0
LINE
  8
_0-f_
  6
CONTINUOUS
 62
    7
 10
365.21502856338191
 20
283.11584391301432
 11
362.57815883327811
 21
283.11584391301432
  0
LINE
  8
_0-f_
  6
CONTINUOUS
 62
    7
 10
362.57815883327811
 20
283.11584391301432
 11
362.57815883327811
 21
282.67580391301431
  0
LINE
  8
_0-f_
  6
CONTINUOUS
 62
    7
 10
362.57815883327811
 20
282.67580391301431
 11
365.31732963626945
 21
282.67580391301431
  0
LINE
  8
_0-f_
  6
CONTINUOUS
 62
    7
 10
365.31732963626945
 20
282.67580391301431
 11
365.90058161313351
 21
280.16699151589285
  0
ARC
  8
_0-f_
  6
CONTINUOUS
 62
    7
 10
366.36811339045772
 20
280.27568391301429
 40
0.4800000000000017
 50
193.0877165037698
 51
270
  0
LINE
  8
_0-f_
  6
CONTINUOUS
 62
    7
 10
366.36811339045772
 20
279.79568391301433
 11
367.37815883327812
 21
279.79568391301433
  0
LINE
  8
_0-f_
  6
CONTINUOUS
 62
    7
 10
367.37815883327812
 20
279.79568391301433
 11
367.37815883327812
 21
280.23576391301435
  0
LINE
  8
_0-f_
  6
CONTINUOUS
 62
    7
 10
367.37815883327812
 20
280.23576391301435
 11
366.78157601231845
 21
280.23576391301435
  0
ARC
  8
_0-f_
  6
CONTINUOUS
 62
    7
 10
366.77818283327809
 20
280.31568391301437
 40
0.0799919999999998
 50
267.56884201629123
 51
272.43115798371281
  0
LINE
  8
_0-f_
  6
CONTINUOUS
 62
    7
 10
366.77478965423785
 20
280.23576391301435
 11
366.7148224198516
 21
280.23576391301435
  0
LINE
  8
_0-f_
  6
CONTINUOUS
 62
    7
 10
366.7148224198516
 20
280.23576391301435
 11
366.70215657326975
 21
280.29080967225934
  0
ARC
  8
_0-f_
  6
CONTINUOUS
 62
    7
 10
366.77818283327809
 20
280.31568391301437
 40
0.0799919999999998
 50
187.79901102615551
 51
198.1170401314526
  0
LINE
  8
_0-f_
  6
CONTINUOUS
 62
    7
 10
366.69893074464841
 20
280.30482912090099
 11
366.15337731095769
 21
282.67580391301431
  0
LINE
  8
_0-f_
  6
CONTINUOUS
 62
    7
 10
366.15337731095769
 20
282.67580391301431
 11
367.37815883327812
 21
282.67580391301431
  0
LINE
  8
_0-f_
  6
CONTINUOUS
 62
    7
 10
367.37815883327812
 20
282.67580391301431
 11
367.37815883327812
 21
283.11584391301432
  0
LINE
  8
_0-f_
  6
CONTINUOUS
 62
    7
 10
367.37815883327812
 20
283.11584391301432
 11
366.05212556683972
 21
283.11584391301432
  0
LINE
  8
_0-f_
  6
CONTINUOUS
 62
    7
 10
367.05816683327811
 20
283.79572391301434
 11
366.53816683327813
 21
283.79572391301434
  0
LINE
  8
_0-f_
  6
CONTINUOUS
 62
    7
 10
366.53816683327813
 20
283.79572391301434
 11
366.53816683327813
 21
283.43966791301432
  0
LINE
  8
_0-f_
  6
CONTINUOUS
 62
    7
 10
366.53816683327813
 20
283.43966791301432
 11
367.05816683327811
 21
283.43966791301432
  0
LINE
  8
_0-f_
  6
CONTINUOUS
 62
    7
 10
367.05816683327811
 20
283.43966791301432
 11
367.05816683327811
 21
283.79572391301434
  0
LINE
  8
_0-f_
  6
CONTINUOUS
 62
    7
 10
366.36509387035647
 20
281.75568391301431
 11
365.53124033344551
 21
281.75568391301431
  0
LINE
  8
_0-f_
  6
CONTINUOUS
 62
    7
 10
364.97815883327775
 20
281.75568391301431
 11
362.57815883327822
 21
281.75568391301431
  0
LINE
  8
_0-f_
  6
CONTINUOUS
 62
    7
 10
366.34668613576542
 20
281.83568391301435
 11
365.51264182914821
 21
281.83568391301435
  0
LINE
  8
_0-f_
  6
CONTINUOUS
 62
    7
 10
364.97815883327775
 20
281.83568391301435
 11
362.57815883327822
 21
281.83568391301435
  0
LINE
  8
_0-f_
  6
CONTINUOUS
 62
    7
 10
366.32827840117437
 20
281.91568391301428
 11
365.49404332485085
 21
281.91568391301428
  0
LINE
  8
_0-f_
  6
CONTINUOUS
 62
    7
 10
364.97815883327775
 20
281.91568391301428
 11
362.57815883327822
 21
281.91568391301428
  0
LINE
  8
_0-f_
  6
CONTINUOUS
 62
    7
 10
366.30987066658332
 20
281.99568391301432
 11
365.47544482055349
 21
281.99568391301432
  0
LINE
  8
_0-f_
  6
CONTINUOUS
 62
    7
 10
364.97815883327775
 20
281.99568391301432
 11
362.57815883327822
 21
281.99568391301432
  0
LINE
  8
_0-f_
  6
CONTINUOUS
 62
    7
 10
366.29146293199227
 20
282.0756839130143
 11
365.45684631625608
 21
282.0756839130143
  0
LINE
  8
_0-f_
  6
CONTINUOUS
 62
    7
 10
366.27305519740128
 20
282.15568391301429
 11
365.43824781195877
 21
282.15568391301429
  0
LINE
  8
_0-f_
  6
CONTINUOUS
 62
    7
 10
366.25464746281023
 20
282.23568391301433
 11
365.41964930766142
 21
282.23568391301433
  0
LINE
  8
_0-f_
  6
CONTINUOUS
 62
    7
 10
366.23623972821923
 20
282.31568391301437
 11
365.40105080336406
 21
282.31568391301437
  0
LINE
  8
_0-f_
  6
CONTINUOUS
 62
    7
 10
366.21783199362818
 20
282.39568391301435
 11
365.38245229906676
 21
282.39568391301435
  0
LINE
  8
_0-f_
  6
CONTINUOUS
 62
    7
 10
366.19942425903713
 20
282.47568391301434
 11
365.36385379476934
 21
282.47568391301434
  0
LINE
  8
_0-f_
  6
CONTINUOUS
 62
    7
 10
366.18101652444608
 20
282.55568391301438
 11
365.34525529047198
 21
282.55568391301438
  0
LINE
  8
_0-f_
  6
CONTINUOUS
 62
    7
 10
366.16260878985508
 20
282.6356839130143
 11
365.32665678617462
 21
282.6356839130143
  0
LINE
  8
_0-f_
  6
CONTINUOUS
 62
    7
 10
367.37815883327818
 20
282.71568391301435
 11
362.57815883327788
 21
282.71568391301435
  0
LINE
  8
_0-f_
  6
CONTINUOUS
 62
    7
 10
367.37815883327818
 20
282.79568391301433
 11
362.57815883327788
 21
282.79568391301433
  0
LINE
  8
_0-f_
  6
CONTINUOUS
 62
    7
 10
367.37815883327818
 20
282.87568391301431
 11
362.57815883327788
 21
282.87568391301431
  0
LINE
  8
_0-f_
  6
CONTINUOUS
 62
    7
 10
367.37815883327818
 20
282.95568391301435
 11
362.57815883327788
 21
282.95568391301435
  0
LINE
  8
_0-f_
  6
CONTINUOUS
 62
    7
 10
367.37815883327818
 20
283.03568391301428
 11
362.57815883327788
 21
283.03568391301428
  0
LINE
  8
_0-f_
  6
CONTINUOUS
 62
    7
 10
367.37815883327818
 20
283.11568391301432
 11
362.57815883327788
 21
283.11568391301432
  0
LINE
  8
_0-f_
  6
CONTINUOUS
 62
    7
 10
366.03375464771767
 20
283.19568391301431
 11
365.19646725609329
 21
283.19568391301436
  0
LINE
  8
_0-f_
  6
CONTINUOUS
 62
    7
 10
366.01534691312662
 20
283.27568391301429
 11
365.17786875179587
 21
283.27568391301429
  0
LINE
  8
_0-f_
  6
CONTINUOUS
 62
    7
 10
365.99693917853557
 20
283.35568391301433
 11
365.15927024749857
 21
283.35568391301433
  0
LINE
  8
_0-f_
  6
CONTINUOUS
 62
    7
 10
365.97853144394458
 20
283.43568391301437
 11
365.14067174320127
 21
283.43568391301437
  0
LINE
  8
_0-f_
  6
CONTINUOUS
 62
    7
 10
367.05816683327811
 20
283.51568391301436
 11
366.53816683327739
 21
283.51568391301436
  0
LINE
  8
_0-f_
  6
CONTINUOUS
 62
    7
 10
365.96012370935352
 20
283.51568391301436
 11
365.12207323890385
 21
283.51568391301436
  0
LINE
  8
_0-f_
  6
CONTINUOUS
 62
    7
 10
367.05816683327811
 20
283.59568391301434
 11
366.53816683327739
 21
283.59568391301434
  0
LINE
  8
_0-f_
  6
CONTINUOUS
 62
    7
 10
365.94171597476253
 20
283.59568391301434
 11
365.10347473460655
 21
283.59568391301434
  0
LINE
  8
_0-f_
  6
CONTINUOUS
 62
    7
 10
367.05816683327811
 20
283.67568391301438
 11
366.53816683327739
 21
283.67568391301438
  0
LINE
  8
_0-f_
  6
CONTINUOUS
 62
    7
 10
365.92330824017148
 20
283.67568391301438
 11
365.08487623030913
 21
283.67568391301438
  0
LINE
  8
_0-f_
  6
CONTINUOUS
 62
    7
 10
367.05816683327811
 20
283.75568391301431
 11
366.53816683327739
 21
283.75568391301431
  0
LINE
  8
_0-f_
  6
CONTINUOUS
 62
    7
 10
365.90490050558043
 20
283.75568391301431
 11
365.06627772601178
 21
283.75568391301431
  0
LINE
  8
_0-f_
  6
CONTINUOUS
 62
    7
 10
366.38350160494753
 20
281.67568391301432
 11
365.54983883774293
 21
281.67568391301432
  0
LINE
  8
_0-f_
  6
CONTINUOUS
 62
    7
 10
364.97815883327775
 20
281.67568391301432
 11
362.57815883327822
 21
281.67568391301432
  0
LINE
  8
_0-f_
  6
CONTINUOUS
 62
    7
 10
366.40190933953858
 20
281.59568391301434
 11
365.56843734204023
 21
281.59568391301434
  0
LINE
  8
_0-f_
  6
CONTINUOUS
 62
    7
 10
364.97815883327775
 20
281.59568391301434
 11
362.57815883327822
 21
281.59568391301434
  0
LINE
  8
_0-f_
  6
CONTINUOUS
 62
    7
 10
366.42031707412957
 20
281.5156839130143
 11
365.58703584633759
 21
281.5156839130143
  0
LINE
  8
_0-f_
  6
CONTINUOUS
 62
    7
 10
364.07815883327788
 20
281.5156839130143
 11
363.33816683327825
 21
281.5156839130143
  0
LINE
  8
_0-f_
  6
CONTINUOUS
 62
    7
 10
366.43872480872056
 20
281.43568391301426
 11
365.60563435063494
 21
281.43568391301426
  0
LINE
  8
_0-f_
  6
CONTINUOUS
 62
    7
 10
364.07815883327788
 20
281.43568391301426
 11
363.33816683327825
 21
281.43568391301426
  0
LINE
  8
_0-f_
  6
CONTINUOUS
 62
    7
 10
366.45713254331162
 20
281.35568391301433
 11
365.62423285493236
 21
281.35568391301433
  0
LINE
  8
_0-f_
  6
CONTINUOUS
 62
    7
 10
364.07815883327788
 20
281.35568391301433
 11
363.33816683327825
 21
281.35568391301433
  0
LINE
  8
_0-f_
  6
CONTINUOUS
 62
    7
 10
366.47554027790267
 20
281.27568391301429
 11
365.64283135922966
 21
281.27568391301429
  0
LINE
  8
_0-f_
  6
CONTINUOUS
 62
    7
 10
364.07815883327788
 20
281.27568391301429
 11
363.33816683327825
 21
281.27568391301429
  0
LINE
  8
_0-f_
  6
CONTINUOUS
 62
    7
 10
366.49394801249372
 20
281.19568391301425
 11
365.66142986352708
 21
281.19568391301425
  0
LINE
  8
_0-f_
  6
CONTINUOUS
 62
    7
 10
364.07815883327788
 20
281.19568391301425
 11
363.33816683327825
 21
281.19568391301425
  0
LINE
  8
_0-f_
  6
CONTINUOUS
 62
    7
 10
366.51235574708477
 20
281.11568391301432
 11
365.68002836782438
 21
281.11568391301432
  0
LINE
  8
_0-f_
  6
CONTINUOUS
 62
    7
 10
364.07815883327788
 20
281.11568391301432
 11
363.33816683327825
 21
281.11568391301432
  0
LINE
  8
_0-f_
  6
CONTINUOUS
 62
    7
 10
366.53076348167576
 20
281.03568391301428
 11
365.69862687212174
 21
281.03568391301428
  0
LINE
  8
_0-f_
  6
CONTINUOUS
 62
    7
 10
364.07815883327788
 20
281.03568391301428
 11
363.33816683327825
 21
281.03568391301428
  0
LINE
  8
_0-f_
  6
CONTINUOUS
 62
    7
 10
366.54917121626681
 20
280.9556839130143
 11
365.71722537641909
 21
280.9556839130143
  0
LINE
  8
_0-f_
  6
CONTINUOUS
 62
    7
 10
364.07815883327788
 20
280.9556839130143
 11
363.33816683327825
 21
280.9556839130143
  0
LINE
  8
_0-f_
  6
CONTINUOUS
 62
    7
 10
366.56757895085781
 20
280.87568391301431
 11
365.73582388071645
 21
280.87568391301431
  0
LINE
  8
_0-f_
  6
CONTINUOUS
 62
    7
 10
364.07815883327788
 20
280.87568391301431
 11
363.33816683327825
 21
280.87568391301431
  0
LINE
  8
_0-f_
  6
CONTINUOUS
 62
    7
 10
366.58598668544886
 20
280.79568391301427
 11
365.75442238501381
 21
280.79568391301427
  0
LINE
  8
_0-f_
  6
CONTINUOUS
 62
    7
 10
364.07815883327788
 20
280.79568391301427
 11
363.33816683327825
 21
280.79568391301427
  0
LINE
  8
_0-f_
  6
CONTINUOUS
 62
    7
 10
366.60439442003991
 20
280.71568391301435
 11
365.77302088931117
 21
280.71568391301435
  0
LINE
  8
_0-f_
  6
CONTINUOUS
 62
    7
 10
364.07815883327788
 20
280.71568391301435
 11
363.33816683327825
 21
280.71568391301435
  0
LINE
  8
_0-f_
  6
CONTINUOUS
 62
    7
 10
366.6228021546309
 20
280.6356839130143
 11
365.79161939360853
 21
280.6356839130143
  0
LINE
  8
_0-f_
  6
CONTINUOUS
 62
    7
 10
364.07815883327788
 20
280.6356839130143
 11
363.33816683327825
 21
280.6356839130143
  0
LINE
  8
_0-f_
  6
CONTINUOUS
 62
    7
 10
366.64120988922195
 20
280.55568391301432
 11
365.81021789790583
 21
280.55568391301432
  0
LINE
  8
_0-f_
  6
CONTINUOUS
 62
    7
 10
364.07815883327788
 20
280.55568391301432
 11
363.33816683327825
 21
280.55568391301432
  0
LINE
  8
_0-f_
  6
CONTINUOUS
 62
    7
 10
366.65961762381295
 20
280.47568391301434
 11
365.82881640220319
 21
280.47568391301434
  0
LINE
  8
_0-f_
  6
CONTINUOUS
 62
    7
 10
364.07815883327788
 20
280.47568391301434
 11
363.33816683327825
 21
280.47568391301434
  0
LINE
  8
_0-f_
  6
CONTINUOUS
 62
    7
 10
366.678025358404
 20
280.3956839130143
 11
365.84741490650055
 21
280.3956839130143
  0
LINE
  8
_0-f_
  6
CONTINUOUS
 62
    7
 10
364.97815883327831
 20
280.3956839130143
 11
364.73228956370127
 21
280.3956839130143
  0
LINE
  8
_0-f_
  6
CONTINUOUS
 62
    7
 10
364.07815883327788
 20
280.3956839130143
 11
363.33816683327825
 21
280.3956839130143
  0
LINE
  8
_0-f_
  6
CONTINUOUS
 62
    7
 10
366.69643309299505
 20
280.31568391301425
 11
365.86601341079796
 21
280.31568391301425
  0
LINE
  8
_0-f_
  6
CONTINUOUS
 62
    7
 10
364.97815883327831
 20
280.31568391301425
 11
364.4550976025094
 21
280.31568391301425
  0
LINE
  8
_0-f_
  6
CONTINUOUS
 62
    7
 10
364.07815883327788
 20
280.31568391301425
 11
363.33816683327825
 21
280.31568391301425
  0
LINE
  8
_0-f_
  6
CONTINUOUS
 62
    7
 10
367.37815883327812
 20
280.23568391301427
 11
365.88461191509526
 21
280.23568391301427
  0
LINE
  8
_0-f_
  6
CONTINUOUS
 62
    7
 10
364.97815883327831
 20
280.23568391301427
 11
362.57815883327811
 21
280.23568391301427
  0
LINE
  8
_0-f_
  6
CONTINUOUS
 62
    7
 10
367.37815883327812
 20
280.15568391301429
 11
365.90416660596674
 21
280.15568391301429
  0
LINE
  8
_0-f_
  6
CONTINUOUS
 62
    7
 10
364.97815883327831
 20
280.15568391301429
 11
362.57815883327811
 21
280.15568391301429
  0
LINE
  8
_0-f_
  6
CONTINUOUS
 62
    7
 10
367.37815883327812
 20
280.07568391301425
 11
365.93310506399899
 21
280.07568391301425
  0
LINE
  8
_0-f_
  6
CONTINUOUS
 62
    7
 10
364.97815883327831
 20
280.07568391301425
 11
362.57815883327811
 21
280.07568391301425
  0
LINE
  8
_0-f_
  6
CONTINUOUS
 62
    7
 10
367.37815883327812
 20
279.99568391301432
 11
365.98006100343929
 21
279.99568391301432
  0
LINE
  8
_0-f_
  6
CONTINUOUS
 62
    7
 10
364.8711832823555
 20
279.99568391301432
 11
362.57815883327811
 21
279.99568391301432
  0
LINE
  8
_0-f_
  6
CONTINUOUS
 62
    7
 10
367.37815883327812
 20
279.91568391301428
 11
366.05105776656166
 21
279.91568391301428
  0
LINE
  8
_0-f_
  6
CONTINUOUS
 62
    7
 10
364.59404454939641
 20
279.91568391301428
 11
362.57815883327811
 21
279.91568391301428
  0
LINE
  8
_0-f_
  6
CONTINUOUS
 62
    7
 10
367.37815883327812
 20
279.83568391301429
 11
366.17713544675729
 21
279.83568391301429
  0
LINE
  8
_0-f_
  6
CONTINUOUS
 62
    7
 10
364.31690581643733
 20
279.83568391301429
 11
362.57815883327811
 21
279.83568391301429
  0
LINE
  8
_0-f_
  6
CONTINUOUS
 62
    7
 10
366.05212556683972
 20
283.11584391301432
 11
367.37815883327812
 21
283.11584391301432
  0
LINE
  8
_0-f_
  6
CONTINUOUS
 62
    7
 10
366.36811339045772
 20
279.79568391301433
 11
367.37815883327812
 21
279.79568391301433
  0
LINE
  8
_0-f_
  6
CONTINUOUS
 62
    7
 10
366.7148224198516
 20
280.23576391301435
 11
367.37815883327812
 21
280.23576391301435
  0
LINE
  8
_0-f_
  6
CONTINUOUS
 62
    7
 10
366.15337731095769
 20
282.67580391301431
 11
367.37815883327812
 21
282.67580391301431
  0
LINE
  8
_0-f_
  6
CONTINUOUS
 62
    7
 10
366.53816683327813
 20
283.79572391301434
 11
367.05816683327811
 21
283.79572391301434
  0
LINE
  8
_0-f_
  6
CONTINUOUS
 62
    7
 10
367.05816683327811
 20
283.43966791301432
 11
366.53816683327813
 21
283.43966791301432
  0
LINE
  8
_0-f_
  6
CONTINUOUS
 62
    7
 10
365.31732963626945
 20
282.67580391301431
 11
365.90058161313351
 21
280.16699151589285
  0
LINE
  8
_0-f_
  6
CONTINUOUS
 62
    7
 10
366.15337731095769
 20
282.67580391301431
 11
366.7148224198516
 21
280.23576391301435
  0
LINE
  8
_0-f_
  6
CONTINUOUS
 62
    7
 10
364.078158833278
 20
281.56388391301437
 11
364.97815883327803
 21
281.56388391301437
  0
LINE
  8
_0-f_
  6
CONTINUOUS
 62
    7
 10
364.97815883327803
 20
282.00392391301432
 11
362.57815883327811
 21
282.00392391301432
  0
LINE
  8
_0-f_
  6
CONTINUOUS
 62
    7
 10
364.28697483327818
 20
279.82704391301434
 11
364.97815883327803
 21
280.02656391301434
  0
LINE
  8
_0-f_
  6
CONTINUOUS
 62
    7
 10
364.17818283327824
 20
280.23576391301435
 11
364.97815883327803
 21
280.46664391301431
  0
LINE
  8
_0-f_
  6
CONTINUOUS
 62
    7
 10
362.57815883327811
 20
279.79568391301433
 11
364.06536683327812
 21
279.79568391301433
  0
LINE
  8
_0-f_
  6
CONTINUOUS
 62
    7
 10
363.33816683327814
 20
281.56388391301437
 11
363.33816683327814
 21
280.23576391301435
  0
LINE
  8
_0-f_
  6
CONTINUOUS
 62
    7
 10
363.33816683327814
 20
280.23576391301435
 11
362.57815883327811
 21
280.23576391301435
  0
LINE
  8
_0-f_
  6
CONTINUOUS
 62
    7
 10
362.57815883327811
 20
280.23576391301435
 11
362.57815883327811
 21
279.79568391301433
  0
LINE
  8
_0-f_
  6
CONTINUOUS
 62
    7
 10
362.57815883327811
 20
281.56388391301437
 11
363.33816683327814
 21
281.56388391301437
  0
LINE
  8
_0-f_
  6
CONTINUOUS
 62
    7
 10
362.57815883327811
 20
282.00392391301432
 11
362.57815883327811
 21
281.56388391301437
  0
LINE
  8
_0-f_
  6
CONTINUOUS
 62
    7
 10
364.078158833278
 20
280.23576391301435
 11
364.078158833278
 21
281.56388391301437
  0
ARC
  8
_0-f_
  6
CONTINUOUS
 62
    7
 10
364.06536683327812
 20
280.59568391301434
 40
0.8000000000000001
 50
270
 51
286.10199
  0
LINE
  8
_0-f_
  6
CONTINUOUS
 62
    7
 10
364.17818283327824
 20
280.23576391301435
 11
364.078158833278
 21
280.23576391301435
  0
LINE
  8
_0-f_
  6
CONTINUOUS
 62
    7
 10
364.97815883327803
 20
280.46664391301431
 11
364.97815883327803
 21
280.02656391301434
  0
LINE
  8
_0-f_
  6
CONTINUOUS
 62
    7
 10
364.97815883327803
 20
281.56388391301437
 11
364.97815883327803
 21
282.00392391301432
  0
ARC
  8
_0-f_
  6
CONTINUOUS
 62
    7
 10
366.36811339045772
 20
280.27568391301429
 40
0.4799999999999999
 50
193.08771650376977
 51
269.99999999999972
  0
ARC
  8
_0-f_
  6
CONTINUOUS
 62
    7
 10
366.77818283327809
 20
280.31568391301437
 40
0.0799919999999998
 50
192.96201000000002
 51
270
  0
LINE
  8
_0-f_
  6
CONTINUOUS
 62
    7
 10
362.57815883327811
 20
283.11584391301432
 11
365.21502856338191
 21
283.11584391301432
  0
LINE
  8
_0-f_
  6
CONTINUOUS
 62
    7
 10
362.57815883327811
 20
282.67580391301431
 11
365.31732963626945
 21
282.67580391301431
  0
LINE
  8
_0-f_
  6
CONTINUOUS
 62
    7
 10
362.57815883327811
 20
283.11584391301432
 11
362.57815883327811
 21
282.67580391301431
  0
LINE
  8
_0-f_
  6
CONTINUOUS
 62
    7
 10
365.05696917461086
 20
283.79572391301434
 11
365.89568743441788
 21
283.79572391301434
  0
LINE
  8
_0-f_
  6
CONTINUOUS
 62
    7
 10
365.05696917461086
 20
283.79572391301434
 11
365.21502856338191
 21
283.11584391301432
  0
LINE
  8
_0-f_
  6
CONTINUOUS
 62
    7
 10
365.89568743441788
 20
283.79572391301434
 11
366.05212556683972
 21
283.11584391301432
  0
LINE
  8
_0-f_
  6
CONTINUOUS
 62
    7
 10
366.53816683327813
 20
283.79572391301434
 11
366.53816683327813
 21
283.43966791301432
  0
LINE
  8
_0-f_
  6
CONTINUOUS
 62
    7
 10
367.37815883327812
 20
280.23576391301435
 11
367.37815883327812
 21
279.79568391301433
  0
LINE
  8
_0-f_
  6
CONTINUOUS
 62
    7
 10
367.37815883327812
 20
280.23576391301435
 11
367.37815883327812
 21
279.79568391301433
  0
LINE
  8
_0-f_
  6
CONTINUOUS
 62
    7
 10
367.37815883327812
 20
283.11584391301432
 11
367.37815883327812
 21
282.67580391301431
  0
LINE
  8
_0-f_
  6
CONTINUOUS
 62
    7
 10
367.05816683327811
 20
283.7957639130143
 11
367.05816683327811
 21
283.43971591301431
  0
LINE
  8
_0-f_
  6
CONTINUOUS
 62
    7
 10
370.63223460280329
 20
283.35344895386822
 11
372.88463947046176
 21
282.79573191301438
  0
LINE
  8
_0-f_
  6
CONTINUOUS
 62
    7
 10
372.88463947046176
 20
282.79573191301438
 11
372.88463947046176
 21
283.23576391301435
  0
LINE
  8
_0-f_
  6
CONTINUOUS
 62
    7
 10
372.88463947046176
 20
283.23576391301435
 11
370.75997657998477
 21
283.7637034759187
  0
ARC
  8
_0-f_
  6
CONTINUOUS
 62
    7
 10
370.48461547046179
 20
282.59572391301435
 40
1.1999999999999964
 50
76.734271344360408
 51
103.26596249111499
  0
LINE
  8
_0-f_
  6
CONTINUOUS
 62
    7
 10
370.20924959418414
 20
283.7637023521055
 11
368.08461547046176
 21
283.23577991301431
  0
LINE
  8
_0-f_
  6
CONTINUOUS
 62
    7
 10
368.08461547046176
 20
283.23577991301431
 11
368.08461547046176
 21
282.79572391301429
  0
LINE
  8
_0-f_
  6
CONTINUOUS
 62
    7
 10
368.08461547046176
 20
282.79572391301429
 11
370.32483086177604
 21
283.35022475734115
  0
ARC
  8
_0-f_
  6
CONTINUOUS
 62
    7
 10
370.48461547046185
 20
282.77189191301431
 40
0.5999999999999982
 50
75.757176751039125
 51
105.44466990909265
  0
LINE
  8
_0-f_
  6
CONTINUOUS
 62
    7
 10
372.19022347046172
 20
282.62775591301431
 11
368.7790234704616
 21
282.62775591301431
  0
LINE
  8
_0-f_
  6
CONTINUOUS
 62
    7
 10
368.7790234704616
 20
282.62775591301431
 11
368.7790234704616
 21
282.18771591301436
  0
LINE
  8
_0-f_
  6
CONTINUOUS
 62
    7
 10
368.7790234704616
 20
282.18771591301436
 11
372.19022347046172
 21
282.18771591301436
  0
LINE
  8
_0-f_
  6
CONTINUOUS
 62
    7
 10
372.19022347046172
 20
282.18771591301436
 11
372.19022347046172
 21
282.62775591301431
  0
LINE
  8
_0-f_
  6
CONTINUOUS
 62
    7
 10
372.88463947046176
 20
281.70763591301431
 11
368.0846154704617
 21
281.70763591301431
  0
LINE
  8
_0-f_
  6
CONTINUOUS
 62
    7
 10
368.0846154704617
 20
281.70763591301431
 11
368.08461547046176
 21
281.26779591301431
  0
LINE
  8
_0-f_
  6
CONTINUOUS
 62
    7
 10
368.08461547046176
 20
281.26779591301431
 11
369.33429735669694
 21
281.26779591301431
  0
LINE
  8
_0-f_
  6
CONTINUOUS
 62
    7
 10
369.33429735669694
 20
281.26779591301431
 11
368.56623147046167
 21
279.93720391301429
  0
LINE
  8
_0-f_
  6
CONTINUOUS
 62
    7
 10
368.56623147046167
 20
279.93720391301429
 11
368.56623147046167
 21
279.79568391301433
  0
LINE
  8
_0-f_
  6
CONTINUOUS
 62
    7
 10
368.56623147046167
 20
279.79568391301433
 11
372.40302347046173
 21
279.79568391301433
  0
LINE
  8
_0-f_
  6
CONTINUOUS
 62
    7
 10
372.40302347046173
 20
279.79568391301433
 11
372.40302347046173
 21
279.93712391301432
  0
LINE
  8
_0-f_
  6
CONTINUOUS
 62
    7
 10
372.40302347046173
 20
279.93712391301432
 11
371.63492987933193
 21
281.26779591301431
  0
LINE
  8
_0-f_
  6
CONTINUOUS
 62
    7
 10
371.63492987933193
 20
281.26779591301431
 11
372.88463947046176
 21
281.26779591301431
  0
LINE
  8
_0-f_
  6
CONTINUOUS
 62
    7
 10
372.88463947046176
 20
281.26779591301431
 11
372.88463947046176
 21
281.70763591301431
  0
LINE
  8
_0-f_
  6
CONTINUOUS
 62
    7
 10
369.84231456423578
 20
281.26779591301431
 11
371.12701639140778
 21
281.26779591301431
  0
LINE
  8
_0-f_
  6
CONTINUOUS
 62
    7
 10
371.12701639140778
 20
281.26779591301431
 11
371.67022347046168
 21
280.32632391301433
  0
LINE
  8
_0-f_
  6
CONTINUOUS
 62
    7
 10
371.67022347046168
 20
280.32632391301433
 11
371.67022347046168
 21
280.26776391301428
  0
LINE
  8
_0-f_
  6
CONTINUOUS
 62
    7
 10
371.67022347046168
 20
280.26776391301428
 11
369.29904747046174
 21
280.26776391301428
  0
LINE
  8
_0-f_
  6
CONTINUOUS
 62
    7
 10
369.29904747046174
 20
280.26776391301428
 11
369.29904747046174
 21
280.32632391301433
  0
LINE
  8
_0-f_
  6
CONTINUOUS
 62
    7
 10
369.29904747046174
 20
280.32632391301433
 11
369.84231456423578
 21
281.26779591301431
  0
LINE
  8
_0-f_
  6
CONTINUOUS
 62
    7
 10
372.19022347046183
 20
282.23568391301433
 11
368.77902347046165
 21
282.23568391301433
  0
LINE
  8
_0-f_
  6
CONTINUOUS
 62
    7
 10
372.19022347046183
 20
282.31568391301437
 11
368.77902347046165
 21
282.31568391301437
  0
LINE
  8
_0-f_
  6
CONTINUOUS
 62
    7
 10
372.19022347046183
 20
282.39568391301435
 11
368.77902347046165
 21
282.39568391301435
  0
LINE
  8
_0-f_
  6
CONTINUOUS
 62
    7
 10
372.19022347046183
 20
282.47568391301434
 11
368.77902347046165
 21
282.47568391301434
  0
LINE
  8
_0-f_
  6
CONTINUOUS
 62
    7
 10
372.19022347046183
 20
282.55568391301438
 11
368.77902347046165
 21
282.55568391301438
  0
LINE
  8
_0-f_
  6
CONTINUOUS
 62
    7
 10
372.88463947046142
 20
282.87568391301431
 11
372.56174405793621
 21
282.87568391301431
  0
LINE
  8
_0-f_
  6
CONTINUOUS
 62
    7
 10
368.40765848206797
 20
282.87568391301431
 11
368.08461547046176
 21
282.87568391301431
  0
LINE
  8
_0-f_
  6
CONTINUOUS
 62
    7
 10
372.88463947046142
 20
282.95568391301435
 11
372.23865479185093
 21
282.95568391301435
  0
LINE
  8
_0-f_
  6
CONTINUOUS
 62
    7
 10
368.73086309598108
 20
282.95568391301435
 11
368.08461547046176
 21
282.95568391301435
  0
LINE
  8
_0-f_
  6
CONTINUOUS
 62
    7
 10
372.88463947046142
 20
283.03568391301428
 11
371.91556552576589
 21
283.03568391301428
  0
LINE
  8
_0-f_
  6
CONTINUOUS
 62
    7
 10
369.05406770989424
 20
283.03568391301428
 11
368.08461547046176
 21
283.03568391301428
  0
LINE
  8
_0-f_
  6
CONTINUOUS
 62
    7
 10
372.88463947046142
 20
283.11568391301432
 11
371.59247625968067
 21
283.11568391301432
  0
LINE
  8
_0-f_
  6
CONTINUOUS
 62
    7
 10
369.3772723238074
 20
283.11568391301432
 11
368.08461547046176
 21
283.11568391301432
  0
LINE
  8
_0-f_
  6
CONTINUOUS
 62
    7
 10
372.88463947046142
 20
283.19568391301431
 11
371.26938699359545
 21
283.19568391301436
  0
LINE
  8
_0-f_
  6
CONTINUOUS
 62
    7
 10
369.70047693772051
 20
283.19568391301431
 11
368.08461547046176
 21
283.19568391301436
  0
LINE
  8
_0-f_
  6
CONTINUOUS
 62
    7
 10
372.723983689862
 20
283.27568391301429
 11
370.94629772751028
 21
283.27568391301429
  0
LINE
  8
_0-f_
  6
CONTINUOUS
 62
    7
 10
370.02368155163362
 20
283.27568391301429
 11
368.24520989455743
 21
283.27568391301429
  0
LINE
  8
_0-f_
  6
CONTINUOUS
 62
    7
 10
372.4020282177184
 20
283.35568391301433
 11
370.61921911491936
 21
283.35568391301433
  0
LINE
  8
_0-f_
  6
CONTINUOUS
 62
    7
 10
370.34656371886899
 20
283.35568391301433
 11
368.56717145048293
 21
283.35568391301433
  0
LINE
  8
_0-f_
  6
CONTINUOUS
 62
    7
 10
372.0800727455748
 20
283.43568391301437
 11
368.88913300640849
 21
283.43568391301437
  0
LINE
  8
_0-f_
  6
CONTINUOUS
 62
    7
 10
371.7581172734312
 20
283.51568391301436
 11
369.21109456233398
 21
283.51568391301436
  0
LINE
  8
_0-f_
  6
CONTINUOUS
 62
    7
 10
371.4361618012876
 20
283.59568391301434
 11
369.53305611825959
 21
283.59568391301434
  0
LINE
  8
_0-f_
  6
CONTINUOUS
 62
    7
 10
371.114206329144
 20
283.67568391301438
 11
369.85501767418509
 21
283.67568391301438
  0
LINE
  8
_0-f_
  6
CONTINUOUS
 62
    7
 10
370.7922508570004
 20
283.75568391301431
 11
370.17697923011059
 21
283.75568391301431
  0
LINE
  8
_0-f_
  6
CONTINUOUS
 62
    7
 10
372.88463947046199
 20
281.67568391301432
 11
368.08461547046176
 21
281.67568391301432
  0
LINE
  8
_0-f_
  6
CONTINUOUS
 62
    7
 10
372.88463947046199
 20
281.59568391301434
 11
368.08461547046176
 21
281.59568391301434
  0
LINE
  8
_0-f_
  6
CONTINUOUS
 62
    7
 10
372.88463947046199
 20
281.5156839130143
 11
368.08461547046176
 21
281.5156839130143
  0
LINE
  8
_0-f_
  6
CONTINUOUS
 62
    7
 10
372.88463947046199
 20
281.43568391301426
 11
368.08461547046176
 21
281.43568391301426
  0
LINE
  8
_0-f_
  6
CONTINUOUS
 62
    7
 10
372.88463947046199
 20
281.35568391301433
 11
368.08461547046176
 21
281.35568391301433
  0
LINE
  8
_0-f_
  6
CONTINUOUS
 62
    7
 10
372.88463947046199
 20
281.27568391301429
 11
368.08461547046176
 21
281.27568391301429
  0
LINE
  8
_0-f_
  6
CONTINUOUS
 62
    7
 10
371.67655453592914
 20
281.19568391301436
 11
371.16862331002523
 21
281.19568391301436
  0
LINE
  8
_0-f_
  6
CONTINUOUS
 62
    7
 10
369.80070304879388
 20
281.19568391301425
 11
369.29267169895343
 21
281.19568391301425
  0
LINE
  8
_0-f_
  6
CONTINUOUS
 62
    7
 10
371.72273232225842
 20
281.11568391301432
 11
371.21478141809888
 21
281.11568391301432
  0
LINE
  8
_0-f_
  6
CONTINUOUS
 62
    7
 10
369.75453984107031
 20
281.11568391301432
 11
369.24649280196712
 21
281.11568391301432
  0
LINE
  8
_0-f_
  6
CONTINUOUS
 62
    7
 10
371.76891010858776
 20
281.03568391301428
 11
371.26093952617254
 21
281.03568391301428
  0
LINE
  8
_0-f_
  6
CONTINUOUS
 62
    7
 10
369.70837663334675
 20
281.03568391301428
 11
369.20031390498076
 21
281.03568391301428
  0
LINE
  8
_0-f_
  6
CONTINUOUS
 62
    7
 10
371.8150878949171
 20
280.9556839130143
 11
371.30709763424619
 21
280.9556839130143
  0
LINE
  8
_0-f_
  6
CONTINUOUS
 62
    7
 10
369.66221342562318
 20
280.9556839130143
 11
369.15413500799446
 21
280.9556839130143
  0
LINE
  8
_0-f_
  6
CONTINUOUS
 62
    7
 10
371.86126568124638
 20
280.87568391301431
 11
371.35325574231985
 21
280.87568391301431
  0
LINE
  8
_0-f_
  6
CONTINUOUS
 62
    7
 10
369.61605021789961
 20
280.87568391301431
 11
369.10795611100815
 21
280.87568391301431
  0
LINE
  8
_0-f_
  6
CONTINUOUS
 62
    7
 10
371.90744346757566
 20
280.79568391301427
 11
371.3994138503935
 21
280.79568391301427
  0
LINE
  8
_0-f_
  6
CONTINUOUS
 62
    7
 10
369.56988701017605
 20
280.79568391301427
 11
369.06177721402179
 21
280.79568391301427
  0
LINE
  8
_0-f_
  6
CONTINUOUS
 62
    7
 10
371.95362125390494
 20
280.71568391301435
 11
371.44557195846716
 21
280.71568391301435
  0
LINE
  8
_0-f_
  6
CONTINUOUS
 62
    7
 10
369.52372380245248
 20
280.71568391301435
 11
369.01559831703548
 21
280.71568391301435
  0
LINE
  8
_0-f_
  6
CONTINUOUS
 62
    7
 10
371.99979904023428
 20
280.6356839130143
 11
371.49173006654081
 21
280.6356839130143
  0
LINE
  8
_0-f_
  6
CONTINUOUS
 62
    7
 10
369.47756059472891
 20
280.6356839130143
 11
368.96941942004918
 21
280.6356839130143
  0
LINE
  8
_0-f_
  6
CONTINUOUS
 62
    7
 10
372.04597682656356
 20
280.55568391301432
 11
371.53788817461447
 21
280.55568391301432
  0
LINE
  8
_0-f_
  6
CONTINUOUS
 62
    7
 10
369.43139738700535
 20
280.55568391301432
 11
368.92324052306282
 21
280.55568391301432
  0
LINE
  8
_0-f_
  6
CONTINUOUS
 62
    7
 10
372.0921546128929
 20
280.47568391301434
 11
371.58404628268812
 21
280.47568391301434
  0
LINE
  8
_0-f_
  6
CONTINUOUS
 62
    7
 10
369.38523417928178
 20
280.47568391301434
 11
368.87706162607657
 21
280.47568391301434
  0
LINE
  8
_0-f_
  6
CONTINUOUS
 62
    7
 10
372.13833239922218
 20
280.3956839130143
 11
371.63020439076172
 21
280.3956839130143
  0
LINE
  8
_0-f_
  6
CONTINUOUS
 62
    7
 10
369.33907097155821
 20
280.3956839130143
 11
368.83088272909021
 21
280.3956839130143
  0
LINE
  8
_0-f_
  6
CONTINUOUS
 62
    7
 10
372.18451018555146
 20
280.31568391301425
 11
371.67022347046174
 21
280.31568391301425
  0
LINE
  8
_0-f_
  6
CONTINUOUS
 62
    7
 10
369.29904747045742
 20
280.31568391301425
 11
368.78470383210396
 21
280.31568391301425
  0
LINE
  8
_0-f_
  6
CONTINUOUS
 62
    7
 10
372.23068797188074
 20
280.23568391301427
 11
368.7385249351176
 21
280.23568391301427
  0
LINE
  8
_0-f_
  6
CONTINUOUS
 62
    7
 10
372.27686575821008
 20
280.15568391301429
 11
368.69234603813123
 21
280.15568391301429
  0
LINE
  8
_0-f_
  6
CONTINUOUS
 62
    7
 10
372.32304354453942
 20
280.07568391301425
 11
368.64616714114499
 21
280.07568391301425
  0
LINE
  8
_0-f_
  6
CONTINUOUS
 62
    7
 10
372.3692213308687
 20
279.99568391301432
 11
368.59998824415862
 21
279.99568391301432
  0
LINE
  8
_0-f_
  6
CONTINUOUS
 62
    7
 10
372.40302347046025
 20
279.91568391301428
 11
368.56623147046292
 21
279.91568391301428
  0
LINE
  8
_0-f_
  6
CONTINUOUS
 62
    7
 10
372.40302347046025
 20
279.83568391301429
 11
368.56623147046292
 21
279.83568391301429
  0
LINE
  8
_0-f_
  6
CONTINUOUS
 62
    7
 10
368.08461547046176
 20
283.23577991301431
 11
370.21181547046172
 21
283.76433991301428
  0
LINE
  8
_0-f_
  6
CONTINUOUS
 62
    7
 10
368.08461547046176
 20
282.79572391301429
 11
370.34863147046173
 21
283.35611591301426
  0
LINE
  8
_0-f_
  6
CONTINUOUS
 62
    7
 10
368.7790234704616
 20
282.62775591301431
 11
372.19022347046172
 21
282.62775591301431
  0
LINE
  8
_0-f_
  6
CONTINUOUS
 62
    7
 10
368.7790234704616
 20
282.18771591301436
 11
372.19022347046172
 21
282.18771591301436
  0
LINE
  8
_0-f_
  6
CONTINUOUS
 62
    7
 10
368.08461547046176
 20
281.70763591301431
 11
372.88463947046176
 21
281.70763591301431
  0
LINE
  8
_0-f_
  6
CONTINUOUS
 62
    7
 10
368.56623147046167
 20
279.79568391301433
 11
372.40302347046173
 21
279.79568391301433
  0
LINE
  8
_0-f_
  6
CONTINUOUS
 62
    7
 10
369.29904747046174
 20
280.26776391301428
 11
371.67022347046168
 21
280.26776391301428
  0
LINE
  8
_0-f_
  6
CONTINUOUS
 62
    7
 10
369.84223147046185
 20
281.26765191301433
 11
369.29904747046174
 21
280.32632391301433
  0
LINE
  8
_0-f_
  6
CONTINUOUS
 62
    7
 10
368.08461547046176
 20
281.26779591301431
 11
369.33503147046184
 21
281.26779591301431
  0
LINE
  8
_0-f_
  6
CONTINUOUS
 62
    7
 10
368.08461547046176
 20
281.70763591301431
 11
368.08461547046176
 21
281.26779591301431
  0
LINE
  8
_0-f_
  6
CONTINUOUS
 62
    7
 10
369.33422347046167
 20
281.26766791301429
 11
368.56623147046167
 21
279.93720391301429
  0
LINE
  8
_0-f_
  6
CONTINUOUS
 62
    7
 10
368.56623147046167
 20
279.79568391301433
 11
368.56623147046167
 21
279.93712391301432
  0
LINE
  8
_0-f_
  6
CONTINUOUS
 62
    7
 10
369.29904747046174
 20
280.26776391301428
 11
369.29904747046174
 21
280.32640391301436
  0
LINE
  8
_0-f_
  6
CONTINUOUS
 62
    7
 10
368.08461547046176
 20
283.23576391301435
 11
368.08461547046176
 21
282.79572391301429
  0
LINE
  8
_0-f_
  6
CONTINUOUS
 62
    7
 10
368.7790234704616
 20
282.62775591301431
 11
368.7790234704616
 21
282.18771591301436
  0
LINE
  8
_0-f_
  6
CONTINUOUS
 62
    7
 10
371.63503147046185
 20
281.2676199130143
 11
372.40302347046173
 21
279.93712391301432
  0
LINE
  8
_0-f_
  6
CONTINUOUS
 62
    7
 10
371.63503147046185
 20
281.26779591301431
 11
372.88463947046176
 21
281.26779591301431
  0
LINE
  8
_0-f_
  6
CONTINUOUS
 62
    7
 10
369.8430394704618
 20
281.26779591301431
 11
371.1270394704618
 21
281.26779591301431
  0
LINE
  8
_0-f_
  6
CONTINUOUS
 62
    7
 10
371.1270394704618
 20
281.2677559130143
 11
371.67022347046168
 21
280.32632391301433
  0
LINE
  8
_0-f_
  6
CONTINUOUS
 62
    7
 10
371.67022347046168
 20
280.26776391301428
 11
371.67022347046168
 21
280.32640391301436
  0
LINE
  8
_0-f_
  6
CONTINUOUS
 62
    7
 10
372.40302347046173
 20
279.79568391301433
 11
372.40302347046173
 21
279.93712391301432
  0
LINE
  8
_0-f_
  6
CONTINUOUS
 62
    7
 10
372.88463947046176
 20
281.70763591301431
 11
372.88463947046176
 21
281.26779591301431
  0
LINE
  8
_0-f_
  6
CONTINUOUS
 62
    7
 10
370.6214314704618
 20
283.35612391301436
 11
372.88463947046176
 21
282.79573191301427
  0
LINE
  8
_0-f_
  6
CONTINUOUS
 62
    7
 10
370.75744747046178
 20
283.7643319130143
 11
372.88463947046176
 21
283.23576391301435
  0
ARC
  8
_0-f_
  6
CONTINUOUS
 62
    7
 10
370.48461547046185
 20
282.59572391301435
 40
1.2000000000000004
 50
76.866900000000015
 51
103.133
  0
ARC
  8
_0-f_
  6
CONTINUOUS
 62
    7
 10
370.48461547046185
 20
282.77189191301431
 40
0.6000000000000002
 50
76.866900000000015
 51
103.133
  0
LINE
  8
_0-f_
  6
CONTINUOUS
 62
    7
 10
372.19022347046172
 20
282.62775591301431
 11
372.19022347046172
 21
282.18771591301436
  0
LINE
  8
_0-f_
  6
CONTINUOUS
 62
    7
 10
372.88463947046176
 20
283.23576391301435
 11
372.88463947046176
 21
282.79572391301429
  0
LINE
  8
_0-f_
  6
CONTINUOUS
 62
    7
 10
376.03921738318076
 20
283.79572391301434
 11
373.27920938318078
 21
283.79572391301434
  0
LINE
  8
_0-f_
  6
CONTINUOUS
 62
    7
 10
373.27920938318078
 20
283.79572391301434
 11
373.27920938318078
 21
283.35568391301433
  0
LINE
  8
_0-f_
  6
CONTINUOUS
 62
    7
 10
373.27920938318078
 20
283.35568391301433
 11
376.03921738318076
 21
283.35568391301433
  0
LINE
  8
_0-f_
  6
CONTINUOUS
 62
    7
 10
376.03921738318076
 20
283.35568391301433
 11
376.03921738318076
 21
283.79572391301434
  0
LINE
  8
_0-f_
  6
CONTINUOUS
 62
    7
 10
376.03921738318076
 20
282.67580391301431
 11
373.27920938318078
 21
282.67580391301431
  0
LINE
  8
_0-f_
  6
CONTINUOUS
 62
    7
 10
373.27920938318078
 20
282.67580391301431
 11
373.27920938318078
 21
282.23576391301435
  0
LINE
  8
_0-f_
  6
CONTINUOUS
 62
    7
 10
373.27920938318078
 20
282.23576391301435
 11
374.39522538318084
 21
282.23576391301435
  0
LINE
  8
_0-f_
  6
CONTINUOUS
 62
    7
 10
374.39522538318084
 20
282.23576391301435
 11
374.39522538318084
 21
279.79568391301433
  0
LINE
  8
_0-f_
  6
CONTINUOUS
 62
    7
 10
374.39522538318084
 20
279.79568391301433
 11
374.92321738318071
 21
279.79568391301433
  0
LINE
  8
_0-f_
  6
CONTINUOUS
 62
    7
 10
374.92321738318071
 20
279.79568391301433
 11
374.92321738318071
 21
282.23576391301435
  0
LINE
  8
_0-f_
  6
CONTINUOUS
 62
    7
 10
374.92321738318071
 20
282.23576391301435
 11
376.03921738318076
 21
282.23576391301435
  0
LINE
  8
_0-f_
  6
CONTINUOUS
 62
    7
 10
376.03921738318076
 20
282.23576391301435
 11
376.03921738318076
 21
282.67580391301431
  0
LINE
  8
_0-f_
  6
CONTINUOUS
 62
    7
 10
373.49520938318079
 20
281.75568391301431
 11
373.49520938318079
 21
280.43736389301785
  0
ARC
  8
_0-f_
  6
CONTINUOUS
 62
    7
 10
373.3352173831808
 20
280.43576391301428
 40
0.1600000000000022
 50
270
 51
0.5729601837918403
  0
LINE
  8
_0-f_
  6
CONTINUOUS
 62
    7
 10
373.3352173831808
 20
280.27576391301432
 11
373.27920938318078
 21
280.27576391301432
  0
LINE
  8
_0-f_
  6
CONTINUOUS
 62
    7
 10
373.27920938318078
 20
280.27576391301432
 11
373.27920938318078
 21
279.79568391301433
  0
LINE
  8
_0-f_
  6
CONTINUOUS
 62
    7
 10
373.27920938318078
 20
279.79568391301433
 11
373.57521738318081
 21
279.79568391301433
  0
ARC
  8
_0-f_
  6
CONTINUOUS
 62
    7
 10
373.57521738318081
 20
280.19568391301431
 40
0.4
 50
270
 51
0
  0
LINE
  8
_0-f_
  6
CONTINUOUS
 62
    7
 10
373.97521738318079
 20
280.19568391301431
 11
373.97521738318079
 21
281.75568391301431
  0
LINE
  8
_0-f_
  6
CONTINUOUS
 62
    7
 10
373.97521738318079
 20
281.75568391301431
 11
373.49520938318079
 21
281.75568391301431
  0
LINE
  8
_0-f_
  6
CONTINUOUS
 62
    7
 10
375.34322538318082
 20
281.75568391301431
 11
375.34322538318082
 21
280.1921062400321
  0
ARC
  8
_0-f_
  6
CONTINUOUS
 62
    7
 10
375.74320938318084
 20
280.19568391301431
 40
0.4
 50
180.51247073885855
 51
270
  0
LINE
  8
_0-f_
  6
CONTINUOUS
 62
    7
 10
375.74320938318084
 20
279.79568391301433
 11
376.03921738318076
 21
279.79568391301433
  0
LINE
  8
_0-f_
  6
CONTINUOUS
 62
    7
 10
376.03921738318076
 20
279.79568391301433
 11
376.03921738318076
 21
280.27576391301432
  0
LINE
  8
_0-f_
  6
CONTINUOUS
 62
    7
 10
376.03921738318076
 20
280.27576391301432
 11
375.98320938318079
 21
280.27576391301432
  0
ARC
  8
_0-f_
  6
CONTINUOUS
 62
    7
 10
375.98320938318079
 20
280.43576391301428
 40
0.1600000000000022
 50
179.42703981620815
 51
270
  0
LINE
  8
_0-f_
  6
CONTINUOUS
 62
    7
 10
375.82321738318086
 20
280.43736389301785
 11
375.82321738318086
 21
281.75568391301431
  0
LINE
  8
_0-f_
  6
CONTINUOUS
 62
    7
 10
375.82321738318086
 20
281.75568391301431
 11
375.34322538318082
 21
281.75568391301431
  0
LINE
  8
_0-f_
  6
CONTINUOUS
 62
    7
 10
377.45922538318092
 20
282.43576391301428
 11
378.07921738318089
 21
282.43576391301428
  0
LINE
  8
_0-f_
  6
CONTINUOUS
 62
    7
 10
378.07921738318089
 20
282.43576391301428
 11
378.07921738318089
 21
282.87580391301429
  0
LINE
  8
_0-f_
  6
CONTINUOUS
 62
    7
 10
378.07921738318089
 20
282.87580391301429
 11
377.45922538318092
 21
282.87580391301435
  0
LINE
  8
_0-f_
  6
CONTINUOUS
 62
    7
 10
377.45922538318092
 20
282.87580391301435
 11
377.45922538318092
 21
283.79572391301434
  0
LINE
  8
_0-f_
  6
CONTINUOUS
 62
    7
 10
377.45922538318092
 20
283.79572391301434
 11
377.01922538318081
 21
283.79572391301434
  0
LINE
  8
_0-f_
  6
CONTINUOUS
 62
    7
 10
377.01922538318081
 20
283.79572391301434
 11
377.01922538318081
 21
282.87580391301435
  0
LINE
  8
_0-f_
  6
CONTINUOUS
 62
    7
 10
377.01922538318081
 20
282.87580391301435
 11
376.43921738318085
 21
282.87580391301435
  0
LINE
  8
_0-f_
  6
CONTINUOUS
 62
    7
 10
376.43921738318085
 20
282.87580391301435
 11
376.43921738318085
 21
282.43576391301428
  0
LINE
  8
_0-f_
  6
CONTINUOUS
 62
    7
 10
376.43921738318085
 20
282.43576391301428
 11
377.01922538318087
 21
282.43576391301428
  0
LINE
  8
_0-f_
  6
CONTINUOUS
 62
    7
 10
377.01922538318087
 20
282.43576391301428
 11
377.01922538318081
 21
280.27576391301432
  0
LINE
  8
_0-f_
  6
CONTINUOUS
 62
    7
 10
377.01922538318081
 20
280.27576391301432
 11
376.43921738318085
 21
280.27576391301432
  0
LINE
  8
_0-f_
  6
CONTINUOUS
 62
    7
 10
376.43921738318085
 20
280.27576391301432
 11
376.43921738318085
 21
279.79568391301433
  0
LINE
  8
_0-f_
  6
CONTINUOUS
 62
    7
 10
376.43921738318085
 20
279.79568391301433
 11
378.07921738318089
 21
279.79568391301433
  0
LINE
  8
_0-f_
  6
CONTINUOUS
 62
    7
 10
378.07921738318089
 20
279.79568391301433
 11
378.07921738318089
 21
280.27576391301432
  0
LINE
  8
_0-f_
  6
CONTINUOUS
 62
    7
 10
378.07921738318089
 20
280.27576391301432
 11
377.45922538318092
 21
280.27576391301432
  0
LINE
  8
_0-f_
  6
CONTINUOUS
 62
    7
 10
377.45922538318092
 20
280.27576391301432
 11
377.45922538318092
 21
282.43576391301428
  0
LINE
  8
_0-f_
  6
CONTINUOUS
 62
    7
 10
377.45922538318092
 20
281.75568391301431
 11
377.01922538318064
 21
281.75568391301431
  0
LINE
  8
_0-f_
  6
CONTINUOUS
 62
    7
 10
375.82321738318069
 20
281.75568391301431
 11
375.34322538318082
 21
281.75568391301431
  0
LINE
  8
_0-f_
  6
CONTINUOUS
 62
    7
 10
374.92321738318071
 20
281.75568391301431
 11
374.39522538318084
 21
281.75568391301431
  0
LINE
  8
_0-f_
  6
CONTINUOUS
 62
    7
 10
373.97521738318079
 20
281.75568391301431
 11
373.49520938318074
 21
281.75568391301431
  0
LINE
  8
_0-f_
  6
CONTINUOUS
 62
    7
 10
377.45922538318092
 20
281.83568391301435
 11
377.01922538318064
 21
281.83568391301435
  0
LINE
  8
_0-f_
  6
CONTINUOUS
 62
    7
 10
374.92321738318071
 20
281.83568391301435
 11
374.39522538318084
 21
281.83568391301435
  0
LINE
  8
_0-f_
  6
CONTINUOUS
 62
    7
 10
377.45922538318092
 20
281.91568391301428
 11
377.01922538318064
 21
281.91568391301428
  0
LINE
  8
_0-f_
  6
CONTINUOUS
 62
    7
 10
374.92321738318071
 20
281.91568391301428
 11
374.39522538318084
 21
281.91568391301428
  0
LINE
  8
_0-f_
  6
CONTINUOUS
 62
    7
 10
377.45922538318092
 20
281.99568391301432
 11
377.01922538318064
 21
281.99568391301432
  0
LINE
  8
_0-f_
  6
CONTINUOUS
 62
    7
 10
374.92321738318071
 20
281.99568391301432
 11
374.39522538318084
 21
281.99568391301432
  0
LINE
  8
_0-f_
  6
CONTINUOUS
 62
    7
 10
377.45922538318092
 20
282.0756839130143
 11
377.01922538318064
 21
282.0756839130143
  0
LINE
  8
_0-f_
  6
CONTINUOUS
 62
    7
 10
374.92321738318071
 20
282.0756839130143
 11
374.39522538318084
 21
282.0756839130143
  0
LINE
  8
_0-f_
  6
CONTINUOUS
 62
    7
 10
377.45922538318092
 20
282.15568391301429
 11
377.01922538318064
 21
282.15568391301429
  0
LINE
  8
_0-f_
  6
CONTINUOUS
 62
    7
 10
374.92321738318071
 20
282.15568391301429
 11
374.39522538318084
 21
282.15568391301429
  0
LINE
  8
_0-f_
  6
CONTINUOUS
 62
    7
 10
377.45922538318092
 20
282.23568391301433
 11
377.01922538318064
 21
282.23568391301433
  0
LINE
  8
_0-f_
  6
CONTINUOUS
 62
    7
 10
374.92321738318071
 20
282.23568391301433
 11
374.39522538318084
 21
282.23568391301433
  0
LINE
  8
_0-f_
  6
CONTINUOUS
 62
    7
 10
377.45922538318092
 20
282.31568391301437
 11
377.01922538318064
 21
282.31568391301437
  0
LINE
  8
_0-f_
  6
CONTINUOUS
 62
    7
 10
376.03921738318076
 20
282.31568391301437
 11
373.27920938318067
 21
282.31568391301437
  0
LINE
  8
_0-f_
  6
CONTINUOUS
 62
    7
 10
377.45922538318092
 20
282.39568391301435
 11
377.01922538318064
 21
282.39568391301435
  0
LINE
  8
_0-f_
  6
CONTINUOUS
 62
    7
 10
376.03921738318076
 20
282.39568391301435
 11
373.27920938318067
 21
282.39568391301435
  0
LINE
  8
_0-f_
  6
CONTINUOUS
 62
    7
 10
378.07921738318095
 20
282.47568391301434
 11
376.43921738318073
 21
282.47568391301434
  0
LINE
  8
_0-f_
  6
CONTINUOUS
 62
    7
 10
376.03921738318076
 20
282.47568391301434
 11
373.27920938318067
 21
282.47568391301434
  0
LINE
  8
_0-f_
  6
CONTINUOUS
 62
    7
 10
378.07921738318095
 20
282.55568391301438
 11
376.43921738318073
 21
282.55568391301438
  0
LINE
  8
_0-f_
  6
CONTINUOUS
 62
    7
 10
376.03921738318076
 20
282.55568391301438
 11
373.27920938318067
 21
282.55568391301438
  0
LINE
  8
_0-f_
  6
CONTINUOUS
 62
    7
 10
378.07921738318095
 20
282.6356839130143
 11
376.43921738318073
 21
282.6356839130143
  0
LINE
  8
_0-f_
  6
CONTINUOUS
 62
    7
 10
376.03921738318076
 20
282.6356839130143
 11
373.27920938318067
 21
282.6356839130143
  0
LINE
  8
_0-f_
  6
CONTINUOUS
 62
    7
 10
378.07921738318095
 20
282.71568391301435
 11
376.43921738318073
 21
282.71568391301435
  0
LINE
  8
_0-f_
  6
CONTINUOUS
 62
    7
 10
378.07921738318095
 20
282.79568391301433
 11
376.43921738318073
 21
282.79568391301433
  0
LINE
  8
_0-f_
  6
CONTINUOUS
 62
    7
 10
378.07921738318095
 20
282.87568391301431
 11
376.43921738318073
 21
282.87568391301431
  0
LINE
  8
_0-f_
  6
CONTINUOUS
 62
    7
 10
377.45922538318092
 20
282.95568391301435
 11
377.01922538318087
 21
282.95568391301435
  0
LINE
  8
_0-f_
  6
CONTINUOUS
 62
    7
 10
377.45922538318092
 20
283.03568391301428
 11
377.01922538318087
 21
283.03568391301428
  0
LINE
  8
_0-f_
  6
CONTINUOUS
 62
    7
 10
377.45922538318092
 20
283.11568391301432
 11
377.01922538318087
 21
283.11568391301432
  0
LINE
  8
_0-f_
  6
CONTINUOUS
 62
    7
 10
377.45922538318092
 20
283.19568391301436
 11
377.01922538318087
 21
283.19568391301436
  0
LINE
  8
_0-f_
  6
CONTINUOUS
 62
    7
 10
377.45922538318092
 20
283.27568391301429
 11
377.01922538318087
 21
283.27568391301429
  0
LINE
  8
_0-f_
  6
CONTINUOUS
 62
    7
 10
377.45922538318092
 20
283.35568391301433
 11
377.01922538318087
 21
283.35568391301433
  0
LINE
  8
_0-f_
  6
CONTINUOUS
 62
    7
 10
376.03921738318076
 20
283.35568391301433
 11
373.27920938318067
 21
283.35568391301433
  0
LINE
  8
_0-f_
  6
CONTINUOUS
 62
    7
 10
377.45922538318092
 20
283.43568391301437
 11
377.01922538318087
 21
283.43568391301437
  0
LINE
  8
_0-f_
  6
CONTINUOUS
 62
    7
 10
376.03921738318076
 20
283.43568391301437
 11
373.27920938318067
 21
283.43568391301437
  0
LINE
  8
_0-f_
  6
CONTINUOUS
 62
    7
 10
377.45922538318092
 20
283.51568391301436
 11
377.01922538318087
 21
283.51568391301436
  0
LINE
  8
_0-f_
  6
CONTINUOUS
 62
    7
 10
376.03921738318076
 20
283.51568391301436
 11
373.27920938318067
 21
283.51568391301436
  0
LINE
  8
_0-f_
  6
CONTINUOUS
 62
    7
 10
377.45922538318092
 20
283.59568391301434
 11
377.01922538318087
 21
283.59568391301434
  0
LINE
  8
_0-f_
  6
CONTINUOUS
 62
    7
 10
376.03921738318076
 20
283.59568391301434
 11
373.27920938318067
 21
283.59568391301434
  0
LINE
  8
_0-f_
  6
CONTINUOUS
 62
    7
 10
377.45922538318092
 20
283.67568391301438
 11
377.01922538318087
 21
283.67568391301438
  0
LINE
  8
_0-f_
  6
CONTINUOUS
 62
    7
 10
376.03921738318076
 20
283.67568391301438
 11
373.27920938318067
 21
283.67568391301438
  0
LINE
  8
_0-f_
  6
CONTINUOUS
 62
    7
 10
377.45922538318092
 20
283.75568391301431
 11
377.01922538318087
 21
283.75568391301431
  0
LINE
  8
_0-f_
  6
CONTINUOUS
 62
    7
 10
376.03921738318076
 20
283.75568391301431
 11
373.27920938318067
 21
283.75568391301431
  0
LINE
  8
_0-f_
  6
CONTINUOUS
 62
    7
 10
377.45922538318092
 20
281.67568391301432
 11
377.01922538318064
 21
281.67568391301432
  0
LINE
  8
_0-f_
  6
CONTINUOUS
 62
    7
 10
375.82321738318069
 20
281.67568391301432
 11
375.34322538318082
 21
281.67568391301432
  0
LINE
  8
_0-f_
  6
CONTINUOUS
 62
    7
 10
374.92321738318071
 20
281.67568391301432
 11
374.39522538318084
 21
281.67568391301432
  0
LINE
  8
_0-f_
  6
CONTINUOUS
 62
    7
 10
373.97521738318079
 20
281.67568391301432
 11
373.49520938318074
 21
281.67568391301432
  0
LINE
  8
_0-f_
  6
CONTINUOUS
 62
    7
 10
377.45922538318092
 20
281.59568391301434
 11
377.01922538318064
 21
281.59568391301434
  0
LINE
  8
_0-f_
  6
CONTINUOUS
 62
    7
 10
375.82321738318069
 20
281.59568391301434
 11
375.34322538318082
 21
281.59568391301434
  0
LINE
  8
_0-f_
  6
CONTINUOUS
 62
    7
 10
374.92321738318071
 20
281.59568391301434
 11
374.39522538318084
 21
281.59568391301434
  0
LINE
  8
_0-f_
  6
CONTINUOUS
 62
    7
 10
373.97521738318079
 20
281.59568391301434
 11
373.49520938318074
 21
281.59568391301434
  0
LINE
  8
_0-f_
  6
CONTINUOUS
 62
    7
 10
377.45922538318092
 20
281.5156839130143
 11
377.01922538318064
 21
281.5156839130143
  0
LINE
  8
_0-f_
  6
CONTINUOUS
 62
    7
 10
375.82321738318069
 20
281.5156839130143
 11
375.34322538318082
 21
281.5156839130143
  0
LINE
  8
_0-f_
  6
CONTINUOUS
 62
    7
 10
374.92321738318071
 20
281.5156839130143
 11
374.39522538318084
 21
281.5156839130143
  0
LINE
  8
_0-f_
  6
CONTINUOUS
 62
    7
 10
373.97521738318079
 20
281.5156839130143
 11
373.49520938318074
 21
281.5156839130143
  0
LINE
  8
_0-f_
  6
CONTINUOUS
 62
    7
 10
377.45922538318092
 20
281.43568391301426
 11
377.01922538318064
 21
281.43568391301426
  0
LINE
  8
_0-f_
  6
CONTINUOUS
 62
    7
 10
375.82321738318069
 20
281.43568391301426
 11
375.34322538318082
 21
281.43568391301426
  0
LINE
  8
_0-f_
  6
CONTINUOUS
 62
    7
 10
374.92321738318071
 20
281.43568391301426
 11
374.39522538318084
 21
281.43568391301426
  0
LINE
  8
_0-f_
  6
CONTINUOUS
 62
    7
 10
373.97521738318079
 20
281.43568391301426
 11
373.49520938318074
 21
281.43568391301426
  0
LINE
  8
_0-f_
  6
CONTINUOUS
 62
    7
 10
377.45922538318092
 20
281.35568391301433
 11
377.01922538318064
 21
281.35568391301433
  0
LINE
  8
_0-f_
  6
CONTINUOUS
 62
    7
 10
375.82321738318069
 20
281.35568391301433
 11
375.34322538318082
 21
281.35568391301433
  0
LINE
  8
_0-f_
  6
CONTINUOUS
 62
    7
 10
374.92321738318071
 20
281.35568391301433
 11
374.39522538318084
 21
281.35568391301433
  0
LINE
  8
_0-f_
  6
CONTINUOUS
 62
    7
 10
373.97521738318079
 20
281.35568391301433
 11
373.49520938318074
 21
281.35568391301433
  0
LINE
  8
_0-f_
  6
CONTINUOUS
 62
    7
 10
377.45922538318092
 20
281.27568391301429
 11
377.01922538318064
 21
281.27568391301429
  0
LINE
  8
_0-f_
  6
CONTINUOUS
 62
    7
 10
375.82321738318069
 20
281.27568391301429
 11
375.34322538318082
 21
281.27568391301429
  0
LINE
  8
_0-f_
  6
CONTINUOUS
 62
    7
 10
374.92321738318071
 20
281.27568391301429
 11
374.39522538318084
 21
281.27568391301429
  0
LINE
  8
_0-f_
  6
CONTINUOUS
 62
    7
 10
373.97521738318079
 20
281.27568391301429
 11
373.49520938318074
 21
281.27568391301429
  0
LINE
  8
_0-f_
  6
CONTINUOUS
 62
    7
 10
377.45922538318092
 20
281.19568391301425
 11
377.01922538318064
 21
281.19568391301425
  0
LINE
  8
_0-f_
  6
CONTINUOUS
 62
    7
 10
375.82321738318069
 20
281.19568391301425
 11
375.34322538318082
 21
281.19568391301425
  0
LINE
  8
_0-f_
  6
CONTINUOUS
 62
    7
 10
374.92321738318071
 20
281.19568391301425
 11
374.39522538318084
 21
281.19568391301425
  0
LINE
  8
_0-f_
  6
CONTINUOUS
 62
    7
 10
373.97521738318079
 20
281.19568391301425
 11
373.49520938318074
 21
281.19568391301425
  0
LINE
  8
_0-f_
  6
CONTINUOUS
 62
    7
 10
377.45922538318092
 20
281.11568391301432
 11
377.01922538318064
 21
281.11568391301432
  0
LINE
  8
_0-f_
  6
CONTINUOUS
 62
    7
 10
375.82321738318069
 20
281.11568391301432
 11
375.34322538318082
 21
281.11568391301432
  0
LINE
  8
_0-f_
  6
CONTINUOUS
 62
    7
 10
374.92321738318071
 20
281.11568391301432
 11
374.39522538318084
 21
281.11568391301432
  0
LINE
  8
_0-f_
  6
CONTINUOUS
 62
    7
 10
373.97521738318079
 20
281.11568391301432
 11
373.49520938318074
 21
281.11568391301432
  0
LINE
  8
_0-f_
  6
CONTINUOUS
 62
    7
 10
377.45922538318092
 20
281.03568391301428
 11
377.01922538318064
 21
281.03568391301428
  0
LINE
  8
_0-f_
  6
CONTINUOUS
 62
    7
 10
375.82321738318069
 20
281.03568391301428
 11
375.34322538318082
 21
281.03568391301428
  0
LINE
  8
_0-f_
  6
CONTINUOUS
 62
    7
 10
374.92321738318071
 20
281.03568391301428
 11
374.39522538318084
 21
281.03568391301428
  0
LINE
  8
_0-f_
  6
CONTINUOUS
 62
    7
 10
373.97521738318079
 20
281.03568391301428
 11
373.49520938318074
 21
281.03568391301428
  0
LINE
  8
_0-f_
  6
CONTINUOUS
 62
    7
 10
377.45922538318092
 20
280.9556839130143
 11
377.01922538318064
 21
280.9556839130143
  0
LINE
  8
_0-f_
  6
CONTINUOUS
 62
    7
 10
375.82321738318069
 20
280.9556839130143
 11
375.34322538318082
 21
280.9556839130143
  0
LINE
  8
_0-f_
  6
CONTINUOUS
 62
    7
 10
374.92321738318071
 20
280.9556839130143
 11
374.39522538318084
 21
280.9556839130143
  0
LINE
  8
_0-f_
  6
CONTINUOUS
 62
    7
 10
373.97521738318079
 20
280.9556839130143
 11
373.49520938318074
 21
280.9556839130143
  0
LINE
  8
_0-f_
  6
CONTINUOUS
 62
    7
 10
377.45922538318092
 20
280.87568391301431
 11
377.01922538318064
 21
280.87568391301431
  0
LINE
  8
_0-f_
  6
CONTINUOUS
 62
    7
 10
375.82321738318069
 20
280.87568391301431
 11
375.34322538318082
 21
280.87568391301431
  0
LINE
  8
_0-f_
  6
CONTINUOUS
 62
    7
 10
374.92321738318071
 20
280.87568391301431
 11
374.39522538318084
 21
280.87568391301431
  0
LINE
  8
_0-f_
  6
CONTINUOUS
 62
    7
 10
373.97521738318079
 20
280.87568391301431
 11
373.49520938318074
 21
280.87568391301431
  0
LINE
  8
_0-f_
  6
CONTINUOUS
 62
    7
 10
377.45922538318092
 20
280.79568391301427
 11
377.01922538318064
 21
280.79568391301427
  0
LINE
  8
_0-f_
  6
CONTINUOUS
 62
    7
 10
375.82321738318069
 20
280.79568391301427
 11
375.34322538318082
 21
280.79568391301427
  0
LINE
  8
_0-f_
  6
CONTINUOUS
 62
    7
 10
374.92321738318071
 20
280.79568391301427
 11
374.39522538318084
 21
280.79568391301427
  0
LINE
  8
_0-f_
  6
CONTINUOUS
 62
    7
 10
373.97521738318079
 20
280.79568391301427
 11
373.49520938318074
 21
280.79568391301427
  0
LINE
  8
_0-f_
  6
CONTINUOUS
 62
    7
 10
377.45922538318092
 20
280.71568391301435
 11
377.01922538318064
 21
280.71568391301435
  0
LINE
  8
_0-f_
  6
CONTINUOUS
 62
    7
 10
375.82321738318069
 20
280.71568391301435
 11
375.34322538318082
 21
280.71568391301435
  0
LINE
  8
_0-f_
  6
CONTINUOUS
 62
    7
 10
374.92321738318071
 20
280.71568391301435
 11
374.39522538318084
 21
280.71568391301435
  0
LINE
  8
_0-f_
  6
CONTINUOUS
 62
    7
 10
373.97521738318079
 20
280.71568391301435
 11
373.49520938318074
 21
280.71568391301435
  0
LINE
  8
_0-f_
  6
CONTINUOUS
 62
    7
 10
377.45922538318092
 20
280.6356839130143
 11
377.01922538318064
 21
280.6356839130143
  0
LINE
  8
_0-f_
  6
CONTINUOUS
 62
    7
 10
375.82321738318069
 20
280.6356839130143
 11
375.34322538318082
 21
280.6356839130143
  0
LINE
  8
_0-f_
  6
CONTINUOUS
 62
    7
 10
374.92321738318071
 20
280.6356839130143
 11
374.39522538318084
 21
280.6356839130143
  0
LINE
  8
_0-f_
  6
CONTINUOUS
 62
    7
 10
373.97521738318079
 20
280.6356839130143
 11
373.49520938318074
 21
280.6356839130143
  0
LINE
  8
_0-f_
  6
CONTINUOUS
 62
    7
 10
377.45922538318092
 20
280.55568391301432
 11
377.01922538318064
 21
280.55568391301432
  0
LINE
  8
_0-f_
  6
CONTINUOUS
 62
    7
 10
375.82321738318069
 20
280.55568391301432
 11
375.34322538318082
 21
280.55568391301432
  0
LINE
  8
_0-f_
  6
CONTINUOUS
 62
    7
 10
374.92321738318071
 20
280.55568391301432
 11
374.39522538318084
 21
280.55568391301432
  0
LINE
  8
_0-f_
  6
CONTINUOUS
 62
    7
 10
373.97521738318079
 20
280.55568391301432
 11
373.49520938318074
 21
280.55568391301432
  0
LINE
  8
_0-f_
  6
CONTINUOUS
 62
    7
 10
377.45922538318092
 20
280.47568391301434
 11
377.01922538318064
 21
280.47568391301434
  0
LINE
  8
_0-f_
  6
CONTINUOUS
 62
    7
 10
375.82321738318069
 20
280.47568391301434
 11
375.34322538318082
 21
280.47568391301434
  0
LINE
  8
_0-f_
  6
CONTINUOUS
 62
    7
 10
374.92321738318071
 20
280.47568391301434
 11
374.39522538318084
 21
280.47568391301434
  0
LINE
  8
_0-f_
  6
CONTINUOUS
 62
    7
 10
373.97521738318079
 20
280.47568391301434
 11
373.49520938318074
 21
280.47568391301434
  0
LINE
  8
_0-f_
  6
CONTINUOUS
 62
    7
 10
377.45922538318092
 20
280.3956839130143
 11
377.01922538318064
 21
280.3956839130143
  0
LINE
  8
_0-f_
  6
CONTINUOUS
 62
    7
 10
375.82875482021569
 20
280.3956839130143
 11
375.34322538318082
 21
280.3956839130143
  0
LINE
  8
_0-f_
  6
CONTINUOUS
 62
    7
 10
374.92321738318071
 20
280.3956839130143
 11
374.39522538318084
 21
280.3956839130143
  0
LINE
  8
_0-f_
  6
CONTINUOUS
 62
    7
 10
373.97521738318079
 20
280.3956839130143
 11
373.48963418504883
 21
280.3956839130143
  0
LINE
  8
_0-f_
  6
CONTINUOUS
 62
    7
 10
377.45922538318092
 20
280.31568391301425
 11
377.01922538318064
 21
280.31568391301425
  0
LINE
  8
_0-f_
  6
CONTINUOUS
 62
    7
 10
375.87821847802138
 20
280.31568391301425
 11
375.34322538318082
 21
280.31568391301425
  0
LINE
  8
_0-f_
  6
CONTINUOUS
 62
    7
 10
374.92321738318071
 20
280.31568391301425
 11
374.39522538318084
 21
280.31568391301425
  0
LINE
  8
_0-f_
  6
CONTINUOUS
 62
    7
 10
373.97521738318079
 20
280.31568391301425
 11
373.44022505731158
 21
280.31568391301425
  0
LINE
  8
_0-f_
  6
CONTINUOUS
 62
    7
 10
378.07921738318072
 20
280.23568391301427
 11
376.43921738318096
 21
280.23568391301427
  0
LINE
  8
_0-f_
  6
CONTINUOUS
 62
    7
 10
376.03921738318058
 20
280.23568391301427
 11
375.34322538318082
 21
280.23568391301427
  0
LINE
  8
_0-f_
  6
CONTINUOUS
 62
    7
 10
374.92321738318071
 20
280.23568391301427
 11
374.39522538318084
 21
280.23568391301427
  0
LINE
  8
_0-f_
  6
CONTINUOUS
 62
    7
 10
373.97521738318079
 20
280.23568391301427
 11
373.27920938318084
 21
280.23568391301427
  0
LINE
  8
_0-f_
  6
CONTINUOUS
 62
    7
 10
378.07921738318072
 20
280.15568391301429
 11
376.43921738318096
 21
280.15568391301429
  0
LINE
  8
_0-f_
  6
CONTINUOUS
 62
    7
 10
376.03921738318058
 20
280.15568391301429
 11
375.3464202751008
 21
280.15568391301429
  0
LINE
  8
_0-f_
  6
CONTINUOUS
 62
    7
 10
374.92321738318071
 20
280.15568391301429
 11
374.39522538318084
 21
280.15568391301429
  0
LINE
  8
_0-f_
  6
CONTINUOUS
 62
    7
 10
373.97206919833474
 20
280.15568391301429
 11
373.27920938318084
 21
280.15568391301429
  0
LINE
  8
_0-f_
  6
CONTINUOUS
 62
    7
 10
378.07921738318072
 20
280.07568391301425
 11
376.43921738318096
 21
280.07568391301425
  0
LINE
  8
_0-f_
  6
CONTINUOUS
 62
    7
 10
376.03921738318058
 20
280.07568391301425
 11
375.36215987692293
 21
280.07568391301425
  0
LINE
  8
_0-f_
  6
CONTINUOUS
 62
    7
 10
374.92321738318071
 20
280.07568391301425
 11
374.39522538318084
 21
280.07568391301425
  0
LINE
  8
_0-f_
  6
CONTINUOUS
 62
    7
 10
373.95650598106715
 20
280.07568391301425
 11
373.27920938318084
 21
280.07568391301425
  0
LINE
  8
_0-f_
  6
CONTINUOUS
 62
    7
 10
378.07921738318072
 20
279.99568391301432
 11
376.43921738318096
 21
279.99568391301432
  0
LINE
  8
_0-f_
  6
CONTINUOUS
 62
    7
 10
376.03921738318058
 20
279.99568391301432
 11
375.39796316472467
 21
279.99568391301432
  0
LINE
  8
_0-f_
  6
CONTINUOUS
 62
    7
 10
374.92321738318071
 20
279.99568391301432
 11
374.39522538318084
 21
279.99568391301432
  0
LINE
  8
_0-f_
  6
CONTINUOUS
 62
    7
 10
373.92034190853445
 20
279.99568391301432
 11
373.27920938318084
 21
279.99568391301432
  0
LINE
  8
_0-f_
  6
CONTINUOUS
 62
    7
 10
378.07921738318072
 20
279.91568391301428
 11
376.43921738318096
 21
279.91568391301428
  0
LINE
  8
_0-f_
  6
CONTINUOUS
 62
    7
 10
376.03921738318058
 20
279.91568391301428
 11
375.45824606875516
 21
279.91568391301428
  0
LINE
  8
_0-f_
  6
CONTINUOUS
 62
    7
 10
374.92321738318071
 20
279.91568391301428
 11
374.39522538318084
 21
279.91568391301428
  0
LINE
  8
_0-f_
  6
CONTINUOUS
 62
    7
 10
373.86048780745625
 20
279.91568391301428
 11
373.27920938318084
 21
279.91568391301428
  0
LINE
  8
_0-f_
  6
CONTINUOUS
 62
    7
 10
378.07921738318072
 20
279.83568391301429
 11
376.43921738318096
 21
279.83568391301429
  0
LINE
  8
_0-f_
  6
CONTINUOUS
 62
    7
 10
376.03921738318058
 20
279.83568391301429
 11
375.56973214091283
 21
279.83568391301429
  0
LINE
  8
_0-f_
  6
CONTINUOUS
 62
    7
 10
374.92321738318071
 20
279.83568391301429
 11
374.39522538318084
 21
279.83568391301429
  0
LINE
  8
_0-f_
  6
CONTINUOUS
 62
    7
 10
373.74812803988806
 20
279.83568391301429
 11
373.27920938318084
 21
279.83568391301429
  0
LINE
  8
_0-f_
  6
CONTINUOUS
 62
    7
 10
374.39522538318084
 20
282.23576391301435
 11
374.39522538318084
 21
279.79568391301433
  0
LINE
  8
_0-f_
  6
CONTINUOUS
 62
    7
 10
374.92321738318071
 20
282.23576391301435
 11
374.92321738318071
 21
279.79568391301433
  0
LINE
  8
_0-f_
  6
CONTINUOUS
 62
    7
 10
373.49520938318079
 20
281.75568391301431
 11
373.49520938318079
 21
280.43576391301428
  0
LINE
  8
_0-f_
  6
CONTINUOUS
 62
    7
 10
373.97521738318079
 20
281.75568391301431
 11
373.97521738318079
 21
280.19568391301431
  0
ARC
  8
_0-f_
  6
CONTINUOUS
 62
    7
 10
373.3352173831808
 20
280.43576391301428
 40
0.16
 50
270
 51
0
  0
LINE
  8
_0-f_
  6
CONTINUOUS
 62
    7
 10
373.27920938318078
 20
279.79568391301433
 11
373.57521738318081
 21
279.79568391301433
  0
LINE
  8
_0-f_
  6
CONTINUOUS
 62
    7
 10
373.27920938318078
 20
280.27576391301432
 11
373.3352173831808
 21
280.27576391301432
  0
LINE
  8
_0-f_
  6
CONTINUOUS
 62
    7
 10
373.27920938318078
 20
280.27576391301432
 11
373.27920938318078
 21
279.79568391301433
  0
ARC
  8
_0-f_
  6
CONTINUOUS
 62
    7
 10
373.57521738318081
 20
280.19568391301431
 40
0.4
 50
270
 51
0
  0
LINE
  8
_0-f_
  6
CONTINUOUS
 62
    7
 10
373.49520938318079
 20
281.75568391301431
 11
373.97521738318079
 21
281.75568391301431
  0
LINE
  8
_0-f_
  6
CONTINUOUS
 62
    7
 10
374.39522538318084
 20
279.79568391301433
 11
374.92321738318071
 21
279.79568391301433
  0
LINE
  8
_0-f_
  6
CONTINUOUS
 62
    7
 10
375.34322538318082
 20
281.75568391301431
 11
375.34322538318082
 21
280.19568391301431
  0
LINE
  8
_0-f_
  6
CONTINUOUS
 62
    7
 10
375.82321738318086
 20
281.75568391301431
 11
375.82321738318086
 21
280.43576391301428
  0
ARC
  8
_0-f_
  6
CONTINUOUS
 62
    7
 10
375.74320938318084
 20
280.19568391301431
 40
0.4
 50
180
 51
270
  0
LINE
  8
_0-f_
  6
CONTINUOUS
 62
    7
 10
375.74320938318084
 20
279.79568391301433
 11
376.03921738318076
 21
279.79568391301433
  0
LINE
  8
_0-f_
  6
CONTINUOUS
 62
    7
 10
376.03921738318076
 20
280.27576391301432
 11
376.03921738318076
 21
279.79568391301433
  0
LINE
  8
_0-f_
  6
CONTINUOUS
 62
    7
 10
375.98320938318079
 20
280.27576391301432
 11
376.03921738318076
 21
280.27576391301432
  0
ARC
  8
_0-f_
  6
CONTINUOUS
 62
    7
 10
375.98320938318079
 20
280.43576391301428
 40
0.16
 50
180
 51
270
  0
LINE
  8
_0-f_
  6
CONTINUOUS
 62
    7
 10
375.34322538318082
 20
281.75568391301431
 11
375.82321738318086
 21
281.75568391301431
  0
LINE
  8
_0-f_
  6
CONTINUOUS
 62
    7
 10
373.27920938318078
 20
283.79572391301434
 11
376.03921738318076
 21
283.79572391301434
  0
LINE
  8
_0-f_
  6
CONTINUOUS
 62
    7
 10
373.27920938318078
 20
283.35568391301433
 11
376.03921738318076
 21
283.35568391301433
  0
LINE
  8
_0-f_
  6
CONTINUOUS
 62
    7
 10
373.27920938318078
 20
282.67580391301431
 11
376.03921738318076
 21
282.67580391301431
  0
LINE
  8
_0-f_
  6
CONTINUOUS
 62
    7
 10
373.27920938318078
 20
282.23576391301435
 11
374.39522538318084
 21
282.23576391301435
  0
LINE
  8
_0-f_
  6
CONTINUOUS
 62
    7
 10
373.27920938318078
 20
282.67580391301431
 11
373.27920938318078
 21
282.23576391301435
  0
LINE
  8
_0-f_
  6
CONTINUOUS
 62
    7
 10
373.27920938318078
 20
283.79572391301434
 11
373.27920938318078
 21
283.35568391301433
  0
LINE
  8
_0-f_
  6
CONTINUOUS
 62
    7
 10
374.92321738318071
 20
282.23576391301435
 11
376.03921738318076
 21
282.23576391301435
  0
LINE
  8
_0-f_
  6
CONTINUOUS
 62
    7
 10
376.03921738318076
 20
282.67580391301431
 11
376.03921738318076
 21
282.23576391301435
  0
LINE
  8
_0-f_
  6
CONTINUOUS
 62
    7
 10
376.03921738318076
 20
283.79572391301434
 11
376.03921738318076
 21
283.35568391301433
  0
LINE
  8
_0-f_
  6
CONTINUOUS
 62
    7
 10
377.01922538318081
 20
282.43576391301428
 11
377.01922538318081
 21
280.27576391301432
  0
LINE
  8
_0-f_
  6
CONTINUOUS
 62
    7
 10
377.45922538318092
 20
282.43576391301428
 11
377.45922538318092
 21
280.27576391301432
  0
LINE
  8
_0-f_
  6
CONTINUOUS
 62
    7
 10
376.43921738318085
 20
279.79568391301433
 11
378.07921738318089
 21
279.79568391301433
  0
LINE
  8
_0-f_
  6
CONTINUOUS
 62
    7
 10
376.43921738318085
 20
280.27576391301432
 11
377.01922538318081
 21
280.27576391301432
  0
LINE
  8
_0-f_
  6
CONTINUOUS
 62
    7
 10
376.43921738318085
 20
280.27576391301432
 11
376.43921738318085
 21
279.79568391301433
  0
LINE
  8
_0-f_
  6
CONTINUOUS
 62
    7
 10
378.07921738318089
 20
280.27576391301432
 11
377.45922538318092
 21
280.27576391301432
  0
LINE
  8
_0-f_
  6
CONTINUOUS
 62
    7
 10
378.07921738318089
 20
280.27576391301432
 11
378.07921738318089
 21
279.79568391301433
  0
LINE
  8
_0-f_
  6
CONTINUOUS
 62
    7
 10
377.01922538318081
 20
283.79572391301434
 11
377.45922538318092
 21
283.79572391301434
  0
LINE
  8
_0-f_
  6
CONTINUOUS
 62
    7
 10
377.01922538318081
 20
283.79572391301434
 11
377.01922538318081
 21
282.87580391301435
  0
LINE
  8
_0-f_
  6
CONTINUOUS
 62
    7
 10
376.43921738318085
 20
282.87580391301435
 11
377.01922538318081
 21
282.87580391301435
  0
LINE
  8
_0-f_
  6
CONTINUOUS
 62
    7
 10
376.43921738318085
 20
282.43576391301428
 11
377.01922538318081
 21
282.43576391301428
  0
LINE
  8
_0-f_
  6
CONTINUOUS
 62
    7
 10
376.43921738318085
 20
282.87580391301435
 11
376.43921738318085
 21
282.43576391301428
  0
LINE
  8
_0-f_
  6
CONTINUOUS
 62
    7
 10
377.45922538318092
 20
283.79572391301434
 11
377.45922538318092
 21
282.87580391301435
  0
LINE
  8
_0-f_
  6
CONTINUOUS
 62
    7
 10
378.07921738318089
 20
282.43576391301428
 11
377.45922538318092
 21
282.43576391301428
  0
LINE
  8
_0-f_
  6
CONTINUOUS
 62
    7
 10
377.45922538318092
 20
282.87580391301435
 11
378.07921738318089
 21
282.87580391301435
  0
LINE
  8
_0-f_
  6
CONTINUOUS
 62
    7
 10
378.07921738318089
 20
282.87443591301434
 11
378.07921738318089
 21
282.43576391301428
  0
LINE
  8
_0-f_
  6
CONTINUOUS
 62
    7
 10
350.60256700861595
 20
283.79572391301434
 11
346.44255900861577
 21
283.79572391301434
  0
LINE
  8
_0-f_
  6
CONTINUOUS
 62
    7
 10
346.44255900861577
 20
283.79572391301434
 11
346.44255900861577
 21
283.3156439130143
  0
LINE
  8
_0-f_
  6
CONTINUOUS
 62
    7
 10
346.44255900861577
 20
283.3156439130143
 11
348.12254300861582
 21
283.31564391301436
  0
LINE
  8
_0-f_
  6
CONTINUOUS
 62
    7
 10
348.12254300861582
 20
283.31564391301436
 11
348.12254300861582
 21
280.27576391301432
  0
LINE
  8
_0-f_
  6
CONTINUOUS
 62
    7
 10
348.12254300861582
 20
280.27576391301432
 11
346.1225670086157
 21
280.27576391301432
  0
LINE
  8
_0-f_
  6
CONTINUOUS
 62
    7
 10
346.1225670086157
 20
280.27576391301432
 11
346.1225670086157
 21
279.79568391301433
  0
LINE
  8
_0-f_
  6
CONTINUOUS
 62
    7
 10
346.1225670086157
 20
279.79568391301433
 11
350.92254300861589
 21
279.79568391301433
  0
LINE
  8
_0-f_
  6
CONTINUOUS
 62
    7
 10
350.92254300861589
 20
279.79568391301433
 11
350.92254300861589
 21
280.27576391301432
  0
LINE
  8
_0-f_
  6
CONTINUOUS
 62
    7
 10
350.92254300861589
 20
280.27576391301432
 11
348.92254300861578
 21
280.27576391301432
  0
LINE
  8
_0-f_
  6
CONTINUOUS
 62
    7
 10
348.92254300861578
 20
280.27576391301432
 11
348.92254300861578
 21
283.3156439130143
  0
LINE
  8
_0-f_
  6
CONTINUOUS
 62
    7
 10
348.92254300861578
 20
283.3156439130143
 11
350.60256700861595
 21
283.31564391301436
  0
LINE
  8
_0-f_
  6
CONTINUOUS
 62
    7
 10
350.60256700861595
 20
283.31564391301436
 11
350.60256700861595
 21
283.79572391301434
  0
LINE
  8
_0-f_
  6
CONTINUOUS
 62
    7
 10
348.92254300861578
 20
281.75568391301431
 11
348.12254300861582
 21
281.75568391301431
  0
LINE
  8
_0-f_
  6
CONTINUOUS
 62
    7
 10
348.92254300861578
 20
281.83568391301435
 11
348.12254300861582
 21
281.83568391301435
  0
LINE
  8
_0-f_
  6
CONTINUOUS
 62
    7
 10
348.92254300861578
 20
281.91568391301428
 11
348.12254300861582
 21
281.91568391301428
  0
LINE
  8
_0-f_
  6
CONTINUOUS
 62
    7
 10
348.92254300861578
 20
281.99568391301432
 11
348.12254300861582
 21
281.99568391301432
  0
LINE
  8
_0-f_
  6
CONTINUOUS
 62
    7
 10
348.92254300861578
 20
282.0756839130143
 11
348.12254300861582
 21
282.0756839130143
  0
LINE
  8
_0-f_
  6
CONTINUOUS
 62
    7
 10
348.92254300861578
 20
282.15568391301429
 11
348.12254300861582
 21
282.15568391301429
  0
LINE
  8
_0-f_
  6
CONTINUOUS
 62
    7
 10
348.92254300861578
 20
282.23568391301433
 11
348.12254300861582
 21
282.23568391301433
  0
LINE
  8
_0-f_
  6
CONTINUOUS
 62
    7
 10
348.92254300861578
 20
282.31568391301437
 11
348.12254300861582
 21
282.31568391301437
  0
LINE
  8
_0-f_
  6
CONTINUOUS
 62
    7
 10
348.92254300861578
 20
282.39568391301435
 11
348.12254300861582
 21
282.39568391301435
  0
LINE
  8
_0-f_
  6
CONTINUOUS
 62
    7
 10
348.92254300861578
 20
282.47568391301434
 11
348.12254300861582
 21
282.47568391301434
  0
LINE
  8
_0-f_
  6
CONTINUOUS
 62
    7
 10
348.92254300861578
 20
282.55568391301438
 11
348.12254300861582
 21
282.55568391301438
  0
LINE
  8
_0-f_
  6
CONTINUOUS
 62
    7
 10
348.92254300861578
 20
282.6356839130143
 11
348.12254300861582
 21
282.6356839130143
  0
LINE
  8
_0-f_
  6
CONTINUOUS
 62
    7
 10
348.92254300861578
 20
282.71568391301435
 11
348.12254300861582
 21
282.71568391301435
  0
LINE
  8
_0-f_
  6
CONTINUOUS
 62
    7
 10
348.92254300861578
 20
282.79568391301433
 11
348.12254300861582
 21
282.79568391301433
  0
LINE
  8
_0-f_
  6
CONTINUOUS
 62
    7
 10
348.92254300861578
 20
282.87568391301431
 11
348.12254300861582
 21
282.87568391301431
  0
LINE
  8
_0-f_
  6
CONTINUOUS
 62
    7
 10
348.92254300861578
 20
282.95568391301435
 11
348.12254300861582
 21
282.95568391301435
  0
LINE
  8
_0-f_
  6
CONTINUOUS
 62
    7
 10
348.92254300861578
 20
283.03568391301428
 11
348.12254300861582
 21
283.03568391301428
  0
LINE
  8
_0-f_
  6
CONTINUOUS
 62
    7
 10
348.92254300861578
 20
283.11568391301432
 11
348.12254300861582
 21
283.11568391301432
  0
LINE
  8
_0-f_
  6
CONTINUOUS
 62
    7
 10
348.92254300861578
 20
283.19568391301436
 11
348.12254300861582
 21
283.19568391301436
  0
LINE
  8
_0-f_
  6
CONTINUOUS
 62
    7
 10
348.92254300861578
 20
283.27568391301429
 11
348.12254300861582
 21
283.27568391301429
  0
LINE
  8
_0-f_
  6
CONTINUOUS
 62
    7
 10
350.60256700861578
 20
283.35568391301433
 11
346.44255900861577
 21
283.35568391301433
  0
LINE
  8
_0-f_
  6
CONTINUOUS
 62
    7
 10
350.60256700861578
 20
283.43568391301437
 11
346.44255900861577
 21
283.43568391301437
  0
LINE
  8
_0-f_
  6
CONTINUOUS
 62
    7
 10
350.60256700861578
 20
283.51568391301436
 11
346.44255900861577
 21
283.51568391301436
  0
LINE
  8
_0-f_
  6
CONTINUOUS
 62
    7
 10
350.60256700861578
 20
283.59568391301434
 11
346.44255900861577
 21
283.59568391301434
  0
LINE
  8
_0-f_
  6
CONTINUOUS
 62
    7
 10
350.60256700861578
 20
283.67568391301438
 11
346.44255900861577
 21
283.67568391301438
  0
LINE
  8
_0-f_
  6
CONTINUOUS
 62
    7
 10
350.60256700861578
 20
283.75568391301431
 11
346.44255900861577
 21
283.75568391301431
  0
LINE
  8
_0-f_
  6
CONTINUOUS
 62
    7
 10
348.92254300861578
 20
281.67568391301432
 11
348.12254300861582
 21
281.67568391301432
  0
LINE
  8
_0-f_
  6
CONTINUOUS
 62
    7
 10
348.92254300861578
 20
281.59568391301434
 11
348.12254300861582
 21
281.59568391301434
  0
LINE
  8
_0-f_
  6
CONTINUOUS
 62
    7
 10
348.92254300861578
 20
281.5156839130143
 11
348.12254300861582
 21
281.5156839130143
  0
LINE
  8
_0-f_
  6
CONTINUOUS
 62
    7
 10
348.92254300861578
 20
281.43568391301426
 11
348.12254300861582
 21
281.43568391301426
  0
LINE
  8
_0-f_
  6
CONTINUOUS
 62
    7
 10
348.92254300861578
 20
281.35568391301433
 11
348.12254300861582
 21
281.35568391301433
  0
LINE
  8
_0-f_
  6
CONTINUOUS
 62
    7
 10
348.92254300861578
 20
281.27568391301429
 11
348.12254300861582
 21
281.27568391301429
  0
LINE
  8
_0-f_
  6
CONTINUOUS
 62
    7
 10
348.92254300861578
 20
281.19568391301425
 11
348.12254300861582
 21
281.19568391301425
  0
LINE
  8
_0-f_
  6
CONTINUOUS
 62
    7
 10
348.92254300861578
 20
281.11568391301432
 11
348.12254300861582
 21
281.11568391301432
  0
LINE
  8
_0-f_
  6
CONTINUOUS
 62
    7
 10
348.92254300861578
 20
281.03568391301428
 11
348.12254300861582
 21
281.03568391301428
  0
LINE
  8
_0-f_
  6
CONTINUOUS
 62
    7
 10
348.92254300861578
 20
280.9556839130143
 11
348.12254300861582
 21
280.9556839130143
  0
LINE
  8
_0-f_
  6
CONTINUOUS
 62
    7
 10
348.92254300861578
 20
280.87568391301431
 11
348.12254300861582
 21
280.87568391301431
  0
LINE
  8
_0-f_
  6
CONTINUOUS
 62
    7
 10
348.92254300861578
 20
280.79568391301427
 11
348.12254300861582
 21
280.79568391301427
  0
LINE
  8
_0-f_
  6
CONTINUOUS
 62
    7
 10
348.92254300861578
 20
280.71568391301435
 11
348.12254300861582
 21
280.71568391301435
  0
LINE
  8
_0-f_
  6
CONTINUOUS
 62
    7
 10
348.92254300861578
 20
280.6356839130143
 11
348.12254300861582
 21
280.6356839130143
  0
LINE
  8
_0-f_
  6
CONTINUOUS
 62
    7
 10
348.92254300861578
 20
280.55568391301432
 11
348.12254300861582
 21
280.55568391301432
  0
LINE
  8
_0-f_
  6
CONTINUOUS
 62
    7
 10
348.92254300861578
 20
280.47568391301434
 11
348.12254300861582
 21
280.47568391301434
  0
LINE
  8
_0-f_
  6
CONTINUOUS
 62
    7
 10
348.92254300861578
 20
280.3956839130143
 11
348.12254300861582
 21
280.3956839130143
  0
LINE
  8
_0-f_
  6
CONTINUOUS
 62
    7
 10
348.92254300861578
 20
280.31568391301425
 11
348.12254300861582
 21
280.31568391301425
  0
LINE
  8
_0-f_
  6
CONTINUOUS
 62
    7
 10
350.92254300861583
 20
280.23568391301427
 11
346.1225670086157
 21
280.23568391301427
  0
LINE
  8
_0-f_
  6
CONTINUOUS
 62
    7
 10
350.92254300861583
 20
280.15568391301429
 11
346.1225670086157
 21
280.15568391301429
  0
LINE
  8
_0-f_
  6
CONTINUOUS
 62
    7
 10
350.92254300861583
 20
280.07568391301425
 11
346.1225670086157
 21
280.07568391301425
  0
LINE
  8
_0-f_
  6
CONTINUOUS
 62
    7
 10
350.92254300861583
 20
279.99568391301432
 11
346.1225670086157
 21
279.99568391301432
  0
LINE
  8
_0-f_
  6
CONTINUOUS
 62
    7
 10
350.92254300861583
 20
279.91568391301428
 11
346.1225670086157
 21
279.91568391301428
  0
LINE
  8
_0-f_
  6
CONTINUOUS
 62
    7
 10
350.92254300861583
 20
279.83568391301429
 11
346.1225670086157
 21
279.83568391301429
  0
LINE
  8
_0-f_
  6
CONTINUOUS
 62
    7
 10
346.44255900861577
 20
283.79572391301434
 11
350.60256700861595
 21
283.79572391301434
  0
LINE
  8
_0-f_
  6
CONTINUOUS
 62
    7
 10
346.1225670086157
 20
279.79568391301433
 11
350.92254300861589
 21
279.79568391301433
  0
LINE
  8
_0-f_
  6
CONTINUOUS
 62
    7
 10
348.92254300861578
 20
280.27576391301432
 11
350.92254300861589
 21
280.27576391301432
  0
LINE
  8
_0-f_
  6
CONTINUOUS
 62
    7
 10
348.92254300861578
 20
283.31564391301436
 11
350.60256700861595
 21
283.31564391301436
  0
LINE
  8
_0-f_
  6
CONTINUOUS
 62
    7
 10
348.12254300861582
 20
283.31564391301436
 11
348.12254300861582
 21
280.27576391301432
  0
LINE
  8
_0-f_
  6
CONTINUOUS
 62
    7
 10
348.92254300861578
 20
283.31564391301436
 11
348.92254300861578
 21
280.27576391301432
  0
LINE
  8
_0-f_
  6
CONTINUOUS
 62
    7
 10
346.1225670086157
 20
280.27576391301432
 11
348.12254300861582
 21
280.27576391301432
  0
LINE
  8
_0-f_
  6
CONTINUOUS
 62
    7
 10
346.1225670086157
 20
280.27576391301432
 11
346.1225670086157
 21
279.79568391301433
  0
LINE
  8
_0-f_
  6
CONTINUOUS
 62
    7
 10
346.44255900861577
 20
283.3156439130143
 11
348.12254300861582
 21
283.31564391301436
  0
LINE
  8
_0-f_
  6
CONTINUOUS
 62
    7
 10
346.44255900861577
 20
283.79572391301434
 11
346.44255900861577
 21
283.3156439130143
  0
LINE
  8
_0-f_
  6
CONTINUOUS
 62
    7
 10
350.92254300861589
 20
280.27576391301432
 11
350.92254300861589
 21
279.79568391301433
  0
LINE
  8
_0-f_
  6
CONTINUOUS
 62
    7
 10
350.60256700861595
 20
283.79572391301434
 11
350.60256700861595
 21
283.3156439130143
  0
LINE
  8
_0-f_
  6
CONTINUOUS
 62
    7
 10
344.20262485060988
 20
282.35568391301433
 11
343.53306051784909
 21
280.51568391301436
  0
LINE
  8
_0-f_
  6
CONTINUOUS
 62
    7
 10
343.53306051784909
 20
280.51568391301436
 11
343.13300740635623
 21
280.51568391301436
  0
LINE
  8
_0-f_
  6
CONTINUOUS
 62
    7
 10
343.13300740635623
 20
280.51568391301436
 11
342.87063140635632
 21
279.79568391301433
  0
LINE
  8
_0-f_
  6
CONTINUOUS
 62
    7
 10
342.87063140635632
 20
279.79568391301433
 11
344.34514342520225
 21
279.79568391301433
  0
ARC
  8
_0-f_
  6
CONTINUOUS
 62
    7
 10
344.34514342520225
 20
280.19568391301431
 40
0.4000000000000004
 50
270
 51
339.99904441127069
  0
LINE
  8
_0-f_
  6
CONTINUOUS
 62
    7
 10
344.72101819175634
 20
280.05886958676194
 11
345.70191272307261
 21
282.75371531726285
  0
ARC
  8
_0-f_
  6
CONTINUOUS
 62
    7
 10
345.47638786314008
 20
282.83580391301433
 40
0.2399999999999993
 50
339.99904441126887
 51
90.000000000000014
  0
LINE
  8
_0-f_
  6
CONTINUOUS
 62
    7
 10
345.47638786314008
 20
283.07580391301428
 11
343.43705907605886
 21
283.07580391301428
  0
LINE
  8
_0-f_
  6
CONTINUOUS
 62
    7
 10
343.43705907605886
 20
283.07580391301428
 11
343.58184099938319
 21
283.47365024010708
  0
ARC
  8
_0-f_
  6
CONTINUOUS
 62
    7
 10
343.35631070825684
 20
283.55572391301428
 40
0.2399999999999989
 50
340.002835592856
 51
90.000000000000043
  0
LINE
  8
_0-f_
  6
CONTINUOUS
 62
    7
 10
343.35631070825684
 20
283.79572391301434
 11
342.34427138226778
 21
283.79572391301434
  0
LINE
  8
_0-f_
  6
CONTINUOUS
 62
    7
 10
342.34427138226778
 20
283.79572391301434
 11
342.08267935817901
 21
283.07580391301428
  0
LINE
  8
_0-f_
  6
CONTINUOUS
 62
    7
 10
342.08267935817901
 20
283.07580391301428
 11
341.44263140635633
 21
283.07580391301428
  0
LINE
  8
_0-f_
  6
CONTINUOUS
 62
    7
 10
341.44263140635633
 20
283.07580391301428
 11
341.18020008301494
 21
282.35568391301433
  0
LINE
  8
_0-f_
  6
CONTINUOUS
 62
    7
 10
341.18020008301494
 20
282.35568391301433
 11
341.82025978610699
 21
282.35568391301433
  0
LINE
  8
_0-f_
  6
CONTINUOUS
 62
    7
 10
341.82025978610699
 20
282.35568391301433
 11
341.15063940635628
 21
280.51568391301436
  0
LINE
  8
_0-f_
  6
CONTINUOUS
 62
    7
 10
341.15063940635628
 20
280.51568391301436
 11
340.51062340635622
 21
280.51568391301436
  0
LINE
  8
_0-f_
  6
CONTINUOUS
 62
    7
 10
340.51062340635622
 20
280.51568391301436
 11
340.24824455956139
 21
279.79568391301433
  0
LINE
  8
_0-f_
  6
CONTINUOUS
 62
    7
 10
340.24824455956139
 20
279.79568391301433
 11
341.90759654546991
 21
279.79568391301433
  0
ARC
  8
_0-f_
  6
CONTINUOUS
 62
    7
 10
341.90759654546991
 20
280.27568391301429
 40
0.4800000000000009
 50
270
 51
340.00100452272619
  0
LINE
  8
_0-f_
  6
CONTINUOUS
 62
    7
 10
342.3586518816378
 20
280.11152215219835
 11
343.17541540635625
 21
282.35568391301433
  0
LINE
  8
_0-f_
  6
CONTINUOUS
 62
    7
 10
343.17541540635625
 20
282.35568391301433
 11
344.20262485060988
 21
282.35568391301433
  0
LINE
  8
_0-f_
  6
CONTINUOUS
 62
    7
 10
345.33864014853179
 20
281.75568391301431
 11
343.98428865514438
 21
281.75568391301431
  0
LINE
  8
_0-f_
  6
CONTINUOUS
 62
    7
 10
342.95704517860008
 20
281.75568391301431
 11
341.60190531444914
 21
281.75568391301431
  0
LINE
  8
_0-f_
  6
CONTINUOUS
 62
    7
 10
345.36775927829012
 20
281.83568391301435
 11
344.01340014787314
 21
281.83568391301435
  0
LINE
  8
_0-f_
  6
CONTINUOUS
 62
    7
 10
342.98616120896753
 20
281.83568391301435
 11
341.63101924400354
 21
281.83568391301435
  0
LINE
  8
_0-f_
  6
CONTINUOUS
 62
    7
 10
345.39687840804856
 20
281.91568391301428
 11
344.04251164060184
 21
281.91568391301428
  0
LINE
  8
_0-f_
  6
CONTINUOUS
 62
    7
 10
343.01527723933503
 20
281.91568391301428
 11
341.66013317355794
 21
281.91568391301428
  0
LINE
  8
_0-f_
  6
CONTINUOUS
 62
    7
 10
345.42599753780701
 20
281.99568391301432
 11
344.0716231333306
 21
281.99568391301432
  0
LINE
  8
_0-f_
  6
CONTINUOUS
 62
    7
 10
343.04439326970254
 20
281.99568391301432
 11
341.68924710311228
 21
281.99568391301432
  0
LINE
  8
_0-f_
  6
CONTINUOUS
 62
    7
 10
345.45511666756533
 20
282.0756839130143
 11
344.10073462605931
 21
282.0756839130143
  0
LINE
  8
_0-f_
  6
CONTINUOUS
 62
    7
 10
343.07350930007004
 20
282.07568391301436
 11
341.71836103266662
 21
282.0756839130143
  0
LINE
  8
_0-f_
  6
CONTINUOUS
 62
    7
 10
345.48423579732372
 20
282.15568391301429
 11
344.12984611878801
 21
282.15568391301429
  0
LINE
  8
_0-f_
  6
CONTINUOUS
 62
    7
 10
343.10262533043749
 20
282.15568391301429
 11
341.74747496222102
 21
282.15568391301429
  0
LINE
  8
_0-f_
  6
CONTINUOUS
 62
    7
 10
345.5133549270821
 20
282.23568391301433
 11
344.15895761151683
 21
282.23568391301433
  0
LINE
  8
_0-f_
  6
CONTINUOUS
 62
    7
 10
343.13174136080499
 20
282.23568391301433
 11
341.77658889177542
 21
282.23568391301433
  0
LINE
  8
_0-f_
  6
CONTINUOUS
 62
    7
 10
345.54247405684049
 20
282.31568391301437
 11
344.18806910424553
 21
282.31568391301437
  0
LINE
  8
_0-f_
  6
CONTINUOUS
 62
    7
 10
343.1608573911725
 20
282.31568391301437
 11
341.80570282132982
 21
282.31568391301437
  0
LINE
  8
_0-f_
  6
CONTINUOUS
 62
    7
 10
345.57159318659888
 20
282.39568391301435
 11
341.19477717146367
 21
282.39568391301435
  0
LINE
  8
_0-f_
  6
CONTINUOUS
 62
    7
 10
345.60071231635732
 20
282.47568391301434
 11
341.22393134836102
 21
282.47568391301434
  0
LINE
  8
_0-f_
  6
CONTINUOUS
 62
    7
 10
345.6298314461157
 20
282.55568391301438
 11
341.25308552525837
 21
282.55568391301438
  0
LINE
  8
_0-f_
  6
CONTINUOUS
 62
    7
 10
345.65895057587409
 20
282.6356839130143
 11
341.28223970215566
 21
282.6356839130143
  0
LINE
  8
_0-f_
  6
CONTINUOUS
 62
    7
 10
345.68806970563242
 20
282.71568391301435
 11
341.31139387905307
 21
282.71568391301435
  0
LINE
  8
_0-f_
  6
CONTINUOUS
 62
    7
 10
345.71262445887385
 20
282.79568391301433
 11
341.34054805595036
 21
282.79568391301433
  0
LINE
  8
_0-f_
  6
CONTINUOUS
 62
    7
 10
345.71243590466133
 20
282.87568391301431
 11
341.36970223284766
 21
282.87568391301431
  0
LINE
  8
_0-f_
  6
CONTINUOUS
 62
    7
 10
345.68346229495182
 20
282.95568391301435
 11
341.39885640974501
 21
282.95568391301435
  0
LINE
  8
_0-f_
  6
CONTINUOUS
 62
    7
 10
345.60789401616023
 20
283.03568391301428
 11
341.42801058664236
 21
283.03568391301428
  0
LINE
  8
_0-f_
  6
CONTINUOUS
 62
    7
 10
343.45157197390148
 20
283.11568391301432
 11
342.09717025983565
 21
283.11568391301432
  0
LINE
  8
_0-f_
  6
CONTINUOUS
 62
    7
 10
343.48068510899213
 20
283.19568391301436
 11
342.12623927018001
 21
283.19568391301436
  0
LINE
  8
_0-f_
  6
CONTINUOUS
 62
    7
 10
343.50979824408267
 20
283.27568391301429
 11
342.15530828052431
 21
283.27568391301429
  0
LINE
  8
_0-f_
  6
CONTINUOUS
 62
    7
 10
343.53891137917321
 20
283.35568391301433
 11
342.18437729086867
 21
283.35568391301433
  0
LINE
  8
_0-f_
  6
CONTINUOUS
 62
    7
 10
343.56802451426387
 20
283.43568391301437
 11
342.21344630121303
 21
283.43568391301437
  0
LINE
  8
_0-f_
  6
CONTINUOUS
 62
    7
 10
343.59255746746487
 20
283.51568391301436
 11
342.24251531155744
 21
283.51568391301436
  0
LINE
  8
_0-f_
  6
CONTINUOUS
 62
    7
 10
343.59234292921747
 20
283.59568391301434
 11
342.27158432190174
 21
283.59568391301434
  0
LINE
  8
_0-f_
  6
CONTINUOUS
 62
    7
 10
343.56333971263439
 20
283.67568391301438
 11
342.3006533322461
 21
283.67568391301438
  0
LINE
  8
_0-f_
  6
CONTINUOUS
 62
    7
 10
343.48769579305565
 20
283.75568391301431
 11
342.32972234259046
 21
283.75568391301431
  0
LINE
  8
_0-f_
  6
CONTINUOUS
 62
    7
 10
345.30952101877341
 20
281.67568391301432
 11
343.95517716241568
 21
281.67568391301432
  0
LINE
  8
_0-f_
  6
CONTINUOUS
 62
    7
 10
342.92792914823258
 20
281.67568391301432
 11
341.57279138489474
 21
281.67568391301432
  0
LINE
  8
_0-f_
  6
CONTINUOUS
 62
    7
 10
345.28040188901502
 20
281.59568391301434
 11
343.92606566968692
 21
281.59568391301434
  0
LINE
  8
_0-f_
  6
CONTINUOUS
 62
    7
 10
342.89881311786507
 20
281.59568391301434
 11
341.5436774553404
 21
281.59568391301434
  0
LINE
  8
_0-f_
  6
CONTINUOUS
 62
    7
 10
345.25128275925664
 20
281.5156839130143
 11
343.89695417695822
 21
281.5156839130143
  0
LINE
  8
_0-f_
  6
CONTINUOUS
 62
    7
 10
342.86969708749757
 20
281.5156839130143
 11
341.514563525786
 21
281.5156839130143
  0
LINE
  8
_0-f_
  6
CONTINUOUS
 62
    7
 10
345.22216362949825
 20
281.43568391301426
 11
343.86784268422946
 21
281.43568391301426
  0
LINE
  8
_0-f_
  6
CONTINUOUS
 62
    7
 10
342.84058105713007
 20
281.43568391301426
 11
341.4854495962316
 21
281.43568391301426
  0
LINE
  8
_0-f_
  6
CONTINUOUS
 62
    7
 10
345.19304449973981
 20
281.35568391301433
 11
343.83873119150076
 21
281.35568391301433
  0
LINE
  8
_0-f_
  6
CONTINUOUS
 62
    7
 10
342.81146502676262
 20
281.35568391301433
 11
341.45633566667721
 21
281.35568391301433
  0
LINE
  8
_0-f_
  6
CONTINUOUS
 62
    7
 10
345.16392536998148
 20
281.27568391301429
 11
343.80961969877205
 21
281.27568391301429
  0
LINE
  8
_0-f_
  6
CONTINUOUS
 62
    7
 10
342.78234899639511
 20
281.27568391301429
 11
341.42722173712286
 21
281.27568391301429
  0
LINE
  8
_0-f_
  6
CONTINUOUS
 62
    7
 10
345.13480624022304
 20
281.19568391301425
 11
343.78050820604324
 21
281.19568391301425
  0
LINE
  8
_0-f_
  6
CONTINUOUS
 62
    7
 10
342.75323296602767
 20
281.19568391301436
 11
341.39810780756852
 21
281.19568391301425
  0
LINE
  8
_0-f_
  6
CONTINUOUS
 62
    7
 10
345.10568711046471
 20
281.11568391301432
 11
343.75139671331453
 21
281.11568391301432
  0
LINE
  8
_0-f_
  6
CONTINUOUS
 62
    7
 10
342.72411693566016
 20
281.11568391301432
 11
341.36899387801412
 21
281.11568391301432
  0
LINE
  8
_0-f_
  6
CONTINUOUS
 62
    7
 10
345.07656798070627
 20
281.03568391301428
 11
343.72228522058583
 21
281.03568391301428
  0
LINE
  8
_0-f_
  6
CONTINUOUS
 62
    7
 10
342.69500090529266
 20
281.03568391301428
 11
341.33987994845972
 21
281.03568391301428
  0
LINE
  8
_0-f_
  6
CONTINUOUS
 62
    7
 10
345.04744885094789
 20
280.9556839130143
 11
343.69317372785707
 21
280.9556839130143
  0
LINE
  8
_0-f_
  6
CONTINUOUS
 62
    7
 10
342.66588487492515
 20
280.9556839130143
 11
341.31076601890533
 21
280.9556839130143
  0
LINE
  8
_0-f_
  6
CONTINUOUS
 62
    7
 10
345.0183297211895
 20
280.87568391301431
 11
343.66406223512837
 21
280.87568391301431
  0
LINE
  8
_0-f_
  6
CONTINUOUS
 62
    7
 10
342.63676884455771
 20
280.87568391301431
 11
341.28165208935098
 21
280.87568391301431
  0
LINE
  8
_0-f_
  6
CONTINUOUS
 62
    7
 10
344.98921059143112
 20
280.79568391301427
 11
343.63495074239961
 21
280.79568391301427
  0
LINE
  8
_0-f_
  6
CONTINUOUS
 62
    7
 10
342.60765281419026
 20
280.79568391301427
 11
341.25253815979659
 21
280.79568391301427
  0
LINE
  8
_0-f_
  6
CONTINUOUS
 62
    7
 10
344.96009146167273
 20
280.71568391301435
 11
343.60583924967091
 21
280.71568391301435
  0
LINE
  8
_0-f_
  6
CONTINUOUS
 62
    7
 10
342.57853678382276
 20
280.71568391301435
 11
341.22342423024219
 21
280.71568391301435
  0
LINE
  8
_0-f_
  6
CONTINUOUS
 62
    7
 10
344.9309723319144
 20
280.6356839130143
 11
343.57672775694215
 21
280.6356839130143
  0
LINE
  8
_0-f_
  6
CONTINUOUS
 62
    7
 10
342.54942075345525
 20
280.6356839130143
 11
341.19431030068779
 21
280.6356839130143
  0
LINE
  8
_0-f_
  6
CONTINUOUS
 62
    7
 10
344.90185320215596
 20
280.55568391301432
 11
343.54761626421345
 21
280.55568391301432
  0
LINE
  8
_0-f_
  6
CONTINUOUS
 62
    7
 10
342.52030472308775
 20
280.55568391301432
 11
341.16519637113345
 21
280.55568391301432
  0
LINE
  8
_0-f_
  6
CONTINUOUS
 62
    7
 10
344.87273407239752
 20
280.47568391301434
 11
343.11843096191177
 21
280.47568391301434
  0
LINE
  8
_0-f_
  6
CONTINUOUS
 62
    7
 10
342.49118869272024
 20
280.47568391301434
 11
340.49604680375643
 21
280.47568391301434
  0
LINE
  8
_0-f_
  6
CONTINUOUS
 62
    7
 10
344.84361494263919
 20
280.3956839130143
 11
343.08927807302291
 21
280.3956839130143
  0
LINE
  8
_0-f_
  6
CONTINUOUS
 62
    7
 10
342.46207266235274
 20
280.3956839130143
 11
340.46689359855696
 21
280.3956839130143
  0
LINE
  8
_0-f_
  6
CONTINUOUS
 62
    7
 10
344.81449581288081
 20
280.31568391301425
 11
343.06012518413399
 21
280.31568391301425
  0
LINE
  8
_0-f_
  6
CONTINUOUS
 62
    7
 10
342.43295663198529
 20
280.31568391301425
 11
340.43774039335756
 21
280.31568391301425
  0
LINE
  8
_0-f_
  6
CONTINUOUS
 62
    7
 10
344.78537668312242
 20
280.23568391301427
 11
343.03097229524514
 21
280.23568391301427
  0
LINE
  8
_0-f_
  6
CONTINUOUS
 62
    7
 10
342.40384060161779
 20
280.23568391301433
 11
340.40858718815809
 21
280.23568391301427
  0
LINE
  8
_0-f_
  6
CONTINUOUS
 62
    7
 10
344.75625755336404
 20
280.15568391301429
 11
343.00181940635628
 21
280.15568391301429
  0
LINE
  8
_0-f_
  6
CONTINUOUS
 62
    7
 10
342.37472457125028
 20
280.15568391301429
 11
340.37943398295874
 21
280.15568391301429
  0
LINE
  8
_0-f_
  6
CONTINUOUS
 62
    7
 10
344.72713842360565
 20
280.07568391301425
 11
342.97266651746736
 21
280.07568391301425
  0
LINE
  8
_0-f_
  6
CONTINUOUS
 62
    7
 10
342.34306919470868
 20
280.07568391301425
 11
340.35028077775934
 21
280.07568391301425
  0
LINE
  8
_0-f_
  6
CONTINUOUS
 62
    7
 10
344.69026795055856
 20
279.99568391301432
 11
342.9435136285785
 21
279.99568391301432
  0
LINE
  8
_0-f_
  6
CONTINUOUS
 62
    7
 10
342.29723374631419
 20
279.99568391301432
 11
340.32112757255993
 21
279.99568391301432
  0
LINE
  8
_0-f_
  6
CONTINUOUS
 62
    7
 10
344.63041384947826
 20
279.91568391301428
 11
342.91436073968964
 21
279.91568391301428
  0
LINE
  8
_0-f_
  6
CONTINUOUS
 62
    7
 10
342.22290081131791
 20
279.91568391301428
 11
340.29197436736047
 21
279.91568391301428
  0
LINE
  8
_0-f_
  6
CONTINUOUS
 62
    7
 10
344.51805408190899
 20
279.83568391301429
 11
342.88520785080073
 21
279.83568391301429
  0
LINE
  8
_0-f_
  6
CONTINUOUS
 62
    7
 10
342.09577566244349
 20
279.83568391301429
 11
340.26282116216106
 21
279.83568391301429
  0
LINE
  8
_0-f_
  6
CONTINUOUS
 62
    7
 10
343.17541540635625
 20
282.35568391301433
 11
344.20262485060988
 21
282.35568391301433
  0
LINE
  8
_0-f_
  6
CONTINUOUS
 62
    7
 10
343.53306051784909
 20
280.51568391301436
 11
344.20262485060988
 21
282.35568391301433
  0
LINE
  8
_0-f_
  6
CONTINUOUS
 62
    7
 10
342.87063140635632
 20
279.79568391301433
 11
344.34514342520225
 21
279.79568391301433
  0
LINE
  8
_0-f_
  6
CONTINUOUS
 62
    7
 10
343.43701540635618
 20
283.07580391301428
 11
345.47638786314008
 21
283.07580391301428
  0
ARC
  8
_0-f_
  6
CONTINUOUS
 62
    7
 10
343.35631070825684
 20
283.55572391301428
 40
0.2399999999999999
 50
340.00283559285606
 51
90.000000000000014
  0
LINE
  8
_0-f_
  6
CONTINUOUS
 62
    7
 10
341.15063940635628
 20
280.51568391301436
 11
341.82023940635628
 21
282.35562791301436
  0
LINE
  8
_0-f_
  6
CONTINUOUS
 62
    7
 10
342.3586516935639
 20
280.11152163544148
 11
343.17541540635625
 21
282.35568391301433
  0
LINE
  8
_0-f_
  6
CONTINUOUS
 62
    7
 10
340.24824455956139
 20
279.79568391301433
 11
341.90759654546991
 21
279.79568391301433
  0
LINE
  8
_0-f_
  6
CONTINUOUS
 62
    7
 10
340.51062340635622
 20
280.51568391301436
 11
341.15063940635628
 21
280.51568391301436
  0
LINE
  8
_0-f_
  6
CONTINUOUS
 62
    7
 10
340.24824455956139
 20
279.79568391301433
 11
340.51062340635622
 21
280.51568391301436
  0
ARC
  8
_0-f_
  6
CONTINUOUS
 62
    7
 10
341.90759654546991
 20
280.27568391301429
 40
0.4799999999999999
 50
270
 51
340.00093888113781
  0
LINE
  8
_0-f_
  6
CONTINUOUS
 62
    7
 10
342.87063140635632
 20
279.79568391301433
 11
343.13300740635623
 21
280.51568391301436
  0
LINE
  8
_0-f_
  6
CONTINUOUS
 62
    7
 10
343.13300740635623
 20
280.51568391301436
 11
343.53306051784909
 21
280.51568391301436
  0
LINE
  8
_0-f_
  6
CONTINUOUS
 62
    7
 10
341.1802234063565
 20
282.35574791301428
 11
341.44263140635633
 21
283.07580391301428
  0
LINE
  8
_0-f_
  6
CONTINUOUS
 62
    7
 10
341.1802234063565
 20
282.35568391301433
 11
341.82023940635628
 21
282.35568391301433
  0
LINE
  8
_0-f_
  6
CONTINUOUS
 62
    7
 10
342.34423940635639
 20
283.79572391301434
 11
343.35631070825684
 21
283.79572391301434
  0
LINE
  8
_0-f_
  6
CONTINUOUS
 62
    7
 10
342.08267935817901
 20
283.07580391301428
 11
342.34423940635639
 21
283.79563591301428
  0
LINE
  8
_0-f_
  6
CONTINUOUS
 62
    7
 10
341.44263140635633
 20
283.07580391301428
 11
342.08267935817901
 21
283.07580391301428
  0
LINE
  8
_0-f_
  6
CONTINUOUS
 62
    7
 10
343.43701540635618
 20
283.07568391301436
 11
343.58184099938319
 21
283.47365024010708
  0
LINE
  8
_0-f_
  6
CONTINUOUS
 62
    7
 10
344.72101819175634
 20
280.05886958676194
 11
345.70191272307261
 21
282.75371531726285
  0
ARC
  8
_0-f_
  6
CONTINUOUS
 62
    7
 10
344.34514342520225
 20
280.19568391301431
 40
0.4
 50
270
 51
339.99904441127069
  0
ARC
  8
_0-f_
  6
CONTINUOUS
 62
    7
 10
345.47638786314008
 20
282.83580391301433
 40
0.2399999999999999
 50
339.99904441127069
 51
90.000000000000043
  0
LINE
  8
_0-f_
  6
CONTINUOUS
 62
    7
 10
340.7565496143348
 20
282.35568391301433
 11
340.90140432049679
 21
282.75373024010719
  0
ARC
  8
_0-f_
  6
CONTINUOUS
 62
    7
 10
340.67587402937045
 20
282.83580391301433
 40
0.2399999999999993
 50
340.00283559286606
 51
89.999999999999915
  0
LINE
  8
_0-f_
  6
CONTINUOUS
 62
    7
 10
340.67587402937045
 20
283.07580391301428
 11
339.48142241031633
 21
283.07580391301428
  0
LINE
  8
_0-f_
  6
CONTINUOUS
 62
    7
 10
339.48142241031633
 20
283.07580391301428
 11
339.62622157764946
 21
283.47363968525167
  0
ARC
  8
_0-f_
  6
CONTINUOUS
 62
    7
 10
339.40069512786454
 20
283.55572391301428
 40
0.2399999999999979
 50
340.00015411793316
 51
89.999999999999986
  0
LINE
  8
_0-f_
  6
CONTINUOUS
 62
    7
 10
339.40069512786454
 20
283.79572391301434
 11
338.22854814645365
 21
283.79572391301434
  0
LINE
  8
_0-f_
  6
CONTINUOUS
 62
    7
 10
338.22854814645365
 20
283.79572391301434
 11
337.96612414645369
 21
283.07580391301428
  0
LINE
  8
_0-f_
  6
CONTINUOUS
 62
    7
 10
337.96612414645369
 20
283.07580391301428
 11
336.00054814645387
 21
283.07580391301428
  0
LINE
  8
_0-f_
  6
CONTINUOUS
 62
    7
 10
336.00054814645387
 20
283.07580391301428
 11
335.73816855035494
 21
282.35568391301433
  0
LINE
  8
_0-f_
  6
CONTINUOUS
 62
    7
 10
335.73816855035494
 20
282.35568391301433
 11
337.70453065876586
 21
282.35568391301433
  0
LINE
  8
_0-f_
  6
CONTINUOUS
 62
    7
 10
337.70453065876586
 20
282.35568391301433
 11
337.03416929260021
 21
280.51568391301436
  0
LINE
  8
_0-f_
  6
CONTINUOUS
 62
    7
 10
337.03416929260021
 20
280.51568391301436
 11
335.70934014645383
 21
280.51568391301436
  0
LINE
  8
_0-f_
  6
CONTINUOUS
 62
    7
 10
335.70934014645383
 20
280.51568391301436
 11
335.44774014645373
 21
279.79568391301433
  0
LINE
  8
_0-f_
  6
CONTINUOUS
 62
    7
 10
335.44774014645373
 20
279.79568391301433
 11
338.00709728275098
 21
279.79568391301433
  0
ARC
  8
_0-f_
  6
CONTINUOUS
 62
    7
 10
338.00709728275098
 20
280.19568391301431
 40
0.399999999999999
 50
270
 51
340.00026326049675
  0
LINE
  8
_0-f_
  6
CONTINUOUS
 62
    7
 10
338.38297495966191
 20
280.05887758275128
 11
339.21893214645365
 21
282.35568391301433
  0
LINE
  8
_0-f_
  6
CONTINUOUS
 62
    7
 10
339.21893214645365
 20
282.35568391301433
 11
340.7565496143348
 21
282.35568391301433
  0
LINE
  8
_0-f_
  6
CONTINUOUS
 62
    7
 10
339.00055312795905
 20
281.75568391301431
 11
337.48593456110314
 21
281.75568391301431
  0
LINE
  8
_0-f_
  6
CONTINUOUS
 62
    7
 10
339.02967033042501
 20
281.83568391301435
 11
337.5150807074582
 21
281.83568391301435
  0
LINE
  8
_0-f_
  6
CONTINUOUS
 62
    7
 10
339.05878753289096
 20
281.91568391301428
 11
337.5442268538132
 21
281.91568391301428
  0
LINE
  8
_0-f_
  6
CONTINUOUS
 62
    7
 10
339.08790473535691
 20
281.99568391301432
 11
337.57337300016826
 21
281.99568391301432
  0
LINE
  8
_0-f_
  6
CONTINUOUS
 62
    7
 10
339.11702193782287
 20
282.0756839130143
 11
337.60251914652326
 21
282.07568391301436
  0
LINE
  8
_0-f_
  6
CONTINUOUS
 62
    7
 10
339.14613914028882
 20
282.15568391301429
 11
337.63166529287827
 21
282.15568391301429
  0
LINE
  8
_0-f_
  6
CONTINUOUS
 62
    7
 10
339.17525634275478
 20
282.23568391301433
 11
337.66081143923327
 21
282.23568391301433
  0
LINE
  8
_0-f_
  6
CONTINUOUS
 62
    7
 10
339.20437354522068
 20
282.31568391301437
 11
337.68995758558833
 21
282.31568391301437
  0
LINE
  8
_0-f_
  6
CONTINUOUS
 62
    7
 10
340.77110618188004
 20
282.39568391301435
 11
335.75274276554683
 21
282.39568391301435
  0
LINE
  8
_0-f_
  6
CONTINUOUS
 62
    7
 10
340.80021931697058
 20
282.47568391301434
 11
335.78189119593048
 21
282.47568391301434
  0
LINE
  8
_0-f_
  6
CONTINUOUS
 62
    7
 10
340.82933245206118
 20
282.55568391301438
 11
335.8110396263142
 21
282.55568391301438
  0
LINE
  8
_0-f_
  6
CONTINUOUS
 62
    7
 10
340.85844558715178
 20
282.6356839130143
 11
335.84018805669791
 21
282.6356839130143
  0
LINE
  8
_0-f_
  6
CONTINUOUS
 62
    7
 10
340.88755872224232
 20
282.71568391301435
 11
335.86933648708157
 21
282.71568391301435
  0
LINE
  8
_0-f_
  6
CONTINUOUS
 62
    7
 10
340.91211167733843
 20
282.79568391301433
 11
335.89848491746528
 21
282.79568391301433
  0
LINE
  8
_0-f_
  6
CONTINUOUS
 62
    7
 10
340.91192253041174
 20
282.87568391301431
 11
335.927633347849
 21
282.87568391301431
  0
LINE
  8
_0-f_
  6
CONTINUOUS
 62
    7
 10
340.88294830088984
 20
282.95568391301435
 11
335.95678177823277
 21
282.95568391301435
  0
LINE
  8
_0-f_
  6
CONTINUOUS
 62
    7
 10
340.8073799940579
 20
283.03568391301428
 11
335.98593020861642
 21
283.03568391301428
  0
LINE
  8
_0-f_
  6
CONTINUOUS
 62
    7
 10
339.49593742177638
 20
283.11568391301432
 11
337.98066113545246
 21
283.11568391301432
  0
LINE
  8
_0-f_
  6
CONTINUOUS
 62
    7
 10
339.52505479682162
 20
283.19568391301436
 11
338.00982259783711
 21
283.19568391301431
  0
LINE
  8
_0-f_
  6
CONTINUOUS
 62
    7
 10
339.55417217186687
 20
283.27568391301429
 11
338.03898406022188
 21
283.27568391301429
  0
LINE
  8
_0-f_
  6
CONTINUOUS
 62
    7
 10
339.58328954691211
 20
283.35568391301433
 11
338.06814552260659
 21
283.35568391301433
  0
LINE
  8
_0-f_
  6
CONTINUOUS
 62
    7
 10
339.61240692195736
 20
283.43568391301437
 11
338.09730698499129
 21
283.43568391301437
  0
LINE
  8
_0-f_
  6
CONTINUOUS
 62
    7
 10
339.6369414086505
 20
283.51568391301436
 11
338.126468447376
 21
283.51568391301436
  0
LINE
  8
_0-f_
  6
CONTINUOUS
 62
    7
 10
339.63672687370286
 20
283.59568391301434
 11
338.15562990976071
 21
283.59568391301434
  0
LINE
  8
_0-f_
  6
CONTINUOUS
 62
    7
 10
339.60772433596333
 20
283.67568391301438
 11
338.18479137214541
 21
283.67568391301438
  0
LINE
  8
_0-f_
  6
CONTINUOUS
 62
    7
 10
339.53208031756617
 20
283.75568391301431
 11
338.21395283453012
 21
283.75568391301431
  0
LINE
  8
_0-f_
  6
CONTINUOUS
 62
    7
 10
338.9714359254931
 20
281.67568391301432
 11
337.45678841474813
 21
281.67568391301432
  0
LINE
  8
_0-f_
  6
CONTINUOUS
 62
    7
 10
338.94231872302714
 20
281.59568391301434
 11
337.42764226839307
 21
281.59568391301434
  0
LINE
  8
_0-f_
  6
CONTINUOUS
 62
    7
 10
338.91320152056119
 20
281.5156839130143
 11
337.39849612203807
 21
281.5156839130143
  0
LINE
  8
_0-f_
  6
CONTINUOUS
 62
    7
 10
338.88408431809523
 20
281.43568391301426
 11
337.36934997568301
 21
281.43568391301426
  0
LINE
  8
_0-f_
  6
CONTINUOUS
 62
    7
 10
338.85496711562928
 20
281.35568391301433
 11
337.340203829328
 21
281.35568391301433
  0
LINE
  8
_0-f_
  6
CONTINUOUS
 62
    7
 10
338.82584991316332
 20
281.27568391301429
 11
337.31105768297294
 21
281.27568391301429
  0
LINE
  8
_0-f_
  6
CONTINUOUS
 62
    7
 10
338.79673271069737
 20
281.19568391301436
 11
337.28191153661794
 21
281.19568391301425
  0
LINE
  8
_0-f_
  6
CONTINUOUS
 62
    7
 10
338.76761550823142
 20
281.11568391301432
 11
337.25276539026288
 21
281.11568391301432
  0
LINE
  8
_0-f_
  6
CONTINUOUS
 62
    7
 10
338.73849830576552
 20
281.03568391301428
 11
337.22361924390788
 21
281.03568391301428
  0
LINE
  8
_0-f_
  6
CONTINUOUS
 62
    7
 10
338.70938110329956
 20
280.9556839130143
 11
337.19447309755282
 21
280.9556839130143
  0
LINE
  8
_0-f_
  6
CONTINUOUS
 62
    7
 10
338.68026390083361
 20
280.87568391301431
 11
337.16532695119781
 21
280.87568391301431
  0
LINE
  8
_0-f_
  6
CONTINUOUS
 62
    7
 10
338.65114669836765
 20
280.79568391301427
 11
337.13618080484281
 21
280.79568391301427
  0
LINE
  8
_0-f_
  6
CONTINUOUS
 62
    7
 10
338.6220294959017
 20
280.71568391301435
 11
337.10703465848781
 21
280.71568391301435
  0
LINE
  8
_0-f_
  6
CONTINUOUS
 62
    7
 10
338.5929122934358
 20
280.6356839130143
 11
337.07788851213274
 21
280.6356839130143
  0
LINE
  8
_0-f_
  6
CONTINUOUS
 62
    7
 10
338.56379509096985
 20
280.55568391301432
 11
337.04874236577768
 21
280.55568391301432
  0
LINE
  8
_0-f_
  6
CONTINUOUS
 62
    7
 10
338.53467788850389
 20
280.47568391301434
 11
335.69480681312041
 21
280.47568391301434
  0
LINE
  8
_0-f_
  6
CONTINUOUS
 62
    7
 10
338.50556068603794
 20
280.3956839130143
 11
335.6657401464538
 21
280.3956839130143
  0
LINE
  8
_0-f_
  6
CONTINUOUS
 62
    7
 10
338.47644348357198
 20
280.31568391301425
 11
335.63667347978708
 21
280.31568391301425
  0
LINE
  8
_0-f_
  6
CONTINUOUS
 62
    7
 10
338.44732628110603
 20
280.23568391301427
 11
335.60760681312047
 21
280.23568391301433
  0
LINE
  8
_0-f_
  6
CONTINUOUS
 62
    7
 10
338.41820907864007
 20
280.15568391301429
 11
335.57854014645375
 21
280.15568391301429
  0
LINE
  8
_0-f_
  6
CONTINUOUS
 62
    7
 10
338.38909187617412
 20
280.07568391301425
 11
335.54947347978708
 21
280.07568391301425
  0
LINE
  8
_0-f_
  6
CONTINUOUS
 62
    7
 10
338.35222180810689
 20
279.99568391301432
 11
335.52040681312036
 21
279.99568391301432
  0
LINE
  8
_0-f_
  6
CONTINUOUS
 62
    7
 10
338.29236770702818
 20
279.91568391301428
 11
335.49134014645369
 21
279.91568391301428
  0
LINE
  8
_0-f_
  6
CONTINUOUS
 62
    7
 10
338.18000793945703
 20
279.83568391301429
 11
335.46227347978703
 21
279.83568391301429
  0
LINE
  8
_0-f_
  6
CONTINUOUS
 62
    7
 10
336.00054814645387
 20
283.07580391301428
 11
337.96612414645369
 21
283.07580391301428
  0
LINE
  8
_0-f_
  6
CONTINUOUS
 62
    7
 10
337.96612414645369
 20
283.07580391301428
 11
336.00054814645387
 21
283.07580391301428
  0
LINE
  8
_0-f_
  6
CONTINUOUS
 62
    7
 10
337.70453065876586
 20
282.35568391301433
 11
335.73816855035494
 21
282.35568391301433
  0
LINE
  8
_0-f_
  6
CONTINUOUS
 62
    7
 10
337.03416929260021
 20
280.51568391301436
 11
337.70453065876586
 21
282.35568391301433
  0
LINE
  8
_0-f_
  6
CONTINUOUS
 62
    7
 10
335.44774014645373
 20
279.79568391301433
 11
338.00709728275098
 21
279.79568391301433
  0
LINE
  8
_0-f_
  6
CONTINUOUS
 62
    7
 10
335.70934014645383
 20
280.51568391301436
 11
337.03416929260021
 21
280.51568391301436
  0
LINE
  8
_0-f_
  6
CONTINUOUS
 62
    7
 10
335.44774014645373
 20
279.79568391301433
 11
335.70934014645383
 21
280.51568391301436
  0
LINE
  8
_0-f_
  6
CONTINUOUS
 62
    7
 10
335.73816855035494
 20
282.35568391301433
 11
336.00054814645387
 21
283.07580391301428
  0
LINE
  8
_0-f_
  6
CONTINUOUS
 62
    7
 10
338.38297495966191
 20
280.05887758275128
 11
339.21893214645365
 21
282.35568391301433
  0
ARC
  8
_0-f_
  6
CONTINUOUS
 62
    7
 10
338.00709728275098
 20
280.19568391301431
 40
0.4
 50
270
 51
340.00026326049698
  0
LINE
  8
_0-f_
  6
CONTINUOUS
 62
    7
 10
339.21893214645365
 20
282.35568391301433
 11
340.7565496143348
 21
282.35568391301433
  0
ARC
  8
_0-f_
  6
CONTINUOUS
 62
    7
 10
339.40069512786454
 20
283.55572391301428
 40
0.2399999999999999
 50
340.00015411793424
 51
89.999999999999957
  0
LINE
  8
_0-f_
  6
CONTINUOUS
 62
    7
 10
338.22854814645365
 20
283.79572391301434
 11
339.40069512786454
 21
283.79572391301434
  0
LINE
  8
_0-f_
  6
CONTINUOUS
 62
    7
 10
337.96612414645369
 20
283.07580391301428
 11
338.22854814645365
 21
283.79572391301434
  0
LINE
  8
_0-f_
  6
CONTINUOUS
 62
    7
 10
339.48142241031633
 20
283.07580391301428
 11
340.67587402937045
 21
283.07580391301428
  0
LINE
  8
_0-f_
  6
CONTINUOUS
 62
    7
 10
339.48142241031633
 20
283.07580391301428
 11
339.62622157764946
 21
283.47363968525167
  0
LINE
  8
_0-f_
  6
CONTINUOUS
 62
    7
 10
340.7565496143348
 20
282.35568391301433
 11
340.90140432049679
 21
282.75373024010719
  0
ARC
  8
_0-f_
  6
CONTINUOUS
 62
    7
 10
340.67587402937045
 20
282.83580391301433
 40
0.2399999999999999
 50
340.00283559286788
 51
89.999999999999986
  0
LINE
  8
_0-f_
  6
CONTINUOUS
 62
    7
 10
328.91784146883094
 20
283.02011470624126
 11
329.5066257526301
 21
283.48431802523521
  0
LINE
  8
_0-f_
  6
CONTINUOUS
 62
    7
 10
333.4023861613905
 20
280.18368391301431
 11
332.8006719017273
 21
280.04011331174684
  0
LINE
  8
_0-f_
  6
CONTINUOUS
 62
    7
 10
332.8006719017273
 20
280.04011331174684
 11
332.15984108161132
 21
279.96926621200714
  0
LINE
  8
_0-f_
  6
CONTINUOUS
 62
    7
 10
332.15984108161132
 20
279.96926621200714
 11
331.62790123123784
 21
279.96761969933436
  0
LINE
  8
_0-f_
  6
CONTINUOUS
 62
    7
 10
331.62790123123784
 20
279.96761969933436
 11
331.20198386432605
 21
280.00315057933653
  0
LINE
  8
_0-f_
  6
CONTINUOUS
 62
    7
 10
331.20198386432605
 20
280.00315057933653
 11
330.85247580438795
 21
280.07432469926891
  0
LINE
  8
_0-f_
  6
CONTINUOUS
 62
    7
 10
330.85247580438795
 20
280.07432469926891
 11
331.03519517053826
 21
280.75624346313509
  0
LINE
  8
_0-f_
  6
CONTINUOUS
 62
    7
 10
331.03519517053826
 20
280.75624346313509
 11
331.2424327902902
 21
281.5296657033029
  0
LINE
  8
_0-f_
  6
CONTINUOUS
 62
    7
 10
331.2424327902902
 20
281.5296657033029
 11
331.39491962549414
 21
281.4526938916332
  0
LINE
  8
_0-f_
  6
CONTINUOUS
 62
    7
 10
331.39491962549414
 20
281.4526938916332
 11
331.77704911283109
 21
281.07426328150888
  0
LINE
  8
_0-f_
  6
CONTINUOUS
 62
    7
 10
331.77704911283109
 20
281.07426328150888
 11
331.94176567812514
 21
280.91357568953822
  0
LINE
  8
_0-f_
  6
CONTINUOUS
 62
    7
 10
331.94176567812514
 20
280.91357568953822
 11
332.05367704704963
 21
280.84814004681891
  0
LINE
  8
_0-f_
  6
CONTINUOUS
 62
    7
 10
332.05367704704963
 20
280.84814004681891
 11
332.18068741546494
 21
280.82104792289363
  0
LINE
  8
_0-f_
  6
CONTINUOUS
 62
    7
 10
332.18068741546494
 20
280.82104792289363
 11
332.59209110454174
 21
280.82074036121327
  0
LINE
  8
_0-f_
  6
CONTINUOUS
 62
    7
 10
332.59209110454174
 20
280.82074036121327
 11
333.38085729888974
 21
280.82116159303985
  0
LINE
  8
_0-f_
  6
CONTINUOUS
 62
    7
 10
333.38085729888974
 20
280.82116159303985
 11
333.64051809778022
 21
281.07240307646316
  0
LINE
  8
_0-f_
  6
CONTINUOUS
 62
    7
 10
333.64051809778022
 20
281.07240307646316
 11
334.08830359055298
 21
282.7435609396266
  0
LINE
  8
_0-f_
  6
CONTINUOUS
 62
    7
 10
334.08830359055298
 20
282.7435609396266
 11
334.38954110387374
 21
283.8677944112095
  0
LINE
  8
_0-f_
  6
CONTINUOUS
 62
    7
 10
334.38954110387374
 20
283.8677944112095
 11
333.44589682133301
 21
284.26172067321681
  0
LINE
  8
_0-f_
  6
CONTINUOUS
 62
    7
 10
333.44589682133301
 20
284.26172067321681
 11
332.36608687828164
 21
284.45830844515319
  0
LINE
  8
_0-f_
  6
CONTINUOUS
 62
    7
 10
332.36608687828164
 20
284.45830844515319
 11
331.18372203724971
 21
284.43803240176794
  0
LINE
  8
_0-f_
  6
CONTINUOUS
 62
    7
 10
331.18372203724971
 20
284.43803240176794
 11
330.05765697385084
 21
284.18173756300729
  0
LINE
  8
_0-f_
  6
CONTINUOUS
 62
    7
 10
330.05765697385084
 20
284.18173756300729
 11
329.09943024032214
 21
283.70232196532208
  0
LINE
  8
_0-f_
  6
CONTINUOUS
 62
    7
 10
329.09943024032214
 20
283.70232196532208
 11
328.41048263168847
 21
283.03366661616292
  0
LINE
  8
_0-f_
  6
CONTINUOUS
 62
    7
 10
328.41048263168847
 20
283.03366661616292
 11
328.09572550449411
 21
282.25455653188374
  0
LINE
  8
_0-f_
  6
CONTINUOUS
 62
    7
 10
328.09572550449411
 20
282.25455653188374
 11
328.18278520571414
 21
281.43800671322549
  0
LINE
  8
_0-f_
  6
CONTINUOUS
 62
    7
 10
328.18278520571414
 20
281.43800671322549
 11
328.66176025700793
 21
280.70029510180132
  0
LINE
  8
_0-f_
  6
CONTINUOUS
 62
    7
 10
328.66176025700793
 20
280.70029510180132
 11
329.48673475662457
 21
280.10171488604465
  0
LINE
  8
_0-f_
  6
CONTINUOUS
 62
    7
 10
329.48673475662457
 20
280.10171488604465
 11
330.52343625886016
 21
279.7172155382334
  0
LINE
  8
_0-f_
  6
CONTINUOUS
 62
    7
 10
330.52343625886016
 20
279.7172155382334
 11
331.70095998955753
 21
279.56114068251679
  0
LINE
  8
_0-f_
  6
CONTINUOUS
 62
    7
 10
331.70095998955753
 20
279.56114068251679
 11
332.38779227967882
 21
279.58049872564482
  0
LINE
  8
_0-f_
  6
CONTINUOUS
 62
    7
 10
332.38779227967882
 20
279.58049872564482
 11
332.96427989858626
 21
279.65995478768264
  0
LINE
  8
_0-f_
  6
CONTINUOUS
 62
    7
 10
332.96427989858626
 20
279.65995478768264
 11
333.29096541370893
 21
279.76785937109372
  0
LINE
  8
_0-f_
  6
CONTINUOUS
 62
    7
 10
333.29096541370893
 20
279.76785937109372
 11
333.35757564330015
 21
280.01645012985193
  0
LINE
  8
_0-f_
  6
CONTINUOUS
 62
    7
 10
333.35757564330015
 20
280.01645012985193
 11
333.4023861613905
 21
280.18368391301431
  0
LINE
  8
_0-f_
  6
CONTINUOUS
 62
    7
 10
329.95937276897746
 20
282.49120549720669
 11
329.80394342904884
 21
281.91113528965616
  0
LINE
  8
_0-f_
  6
CONTINUOUS
 62
    7
 10
329.80394342904884
 20
281.91113528965616
 11
329.53879926093481
 21
280.92160375912533
  0
LINE
  8
_0-f_
  6
CONTINUOUS
 62
    7
 10
329.53879926093481
 20
280.92160375912533
 11
329.4485278999731
 21
280.58821521130949
  0
LINE
  8
_0-f_
  6
CONTINUOUS
 62
    7
 10
329.4485278999731
 20
280.58821521130949
 11
329.44552208295852
 21
280.58999802361006
  0
LINE
  8
_0-f_
  6
CONTINUOUS
 62
    7
 10
329.44552208295852
 20
280.58999802361006
 11
329.44251087324022
 21
280.59177591625598
  0
LINE
  8
_0-f_
  6
CONTINUOUS
 62
    7
 10
329.44251087324022
 20
280.59177591625598
 11
329.10405859409991
 21
280.83897993894811
  0
LINE
  8
_0-f_
  6
CONTINUOUS
 62
    7
 10
329.10405859409991
 20
280.83897993894811
 11
328.66915437179904
 21
281.34944318487936
  0
LINE
  8
_0-f_
  6
CONTINUOUS
 62
    7
 10
328.66915437179904
 20
281.34944318487936
 11
328.48697643613883
 21
281.91255851316384
  0
LINE
  8
_0-f_
  6
CONTINUOUS
 62
    7
 10
328.48697643613883
 20
281.91255851316384
 11
328.5726910229331
 21
282.48731717766225
  0
LINE
  8
_0-f_
  6
CONTINUOUS
 62
    7
 10
328.5726910229331
 20
282.48731717766225
 11
328.91784146883094
 21
283.02011470624126
  0
LINE
  8
_0-f_
  6
CONTINUOUS
 62
    7
 10
329.5066257526301
 20
283.48431802523521
 11
330.31224548021152
 21
283.84183709581248
  0
LINE
  8
_0-f_
  6
CONTINUOUS
 62
    7
 10
330.31224548021152
 20
283.84183709581248
 11
331.24186331967996
 21
284.03869902655481
  0
LINE
  8
_0-f_
  6
CONTINUOUS
 62
    7
 10
331.24186331967996
 20
284.03869902655481
 11
332.01411685370249
 21
284.07307800785799
  0
LINE
  8
_0-f_
  6
CONTINUOUS
 62
    7
 10
332.01411685370249
 20
284.07307800785799
 11
332.38728325366435
 21
284.05149208317357
  0
LINE
  8
_0-f_
  6
CONTINUOUS
 62
    7
 10
332.38728325366435
 20
284.05149208317357
 11
332.75051998427915
 21
284.00549353351425
  0
LINE
  8
_0-f_
  6
CONTINUOUS
 62
    7
 10
332.75051998427915
 20
284.00549353351425
 11
332.80723122912974
 21
283.71251995635333
  0
LINE
  8
_0-f_
  6
CONTINUOUS
 62
    7
 10
332.80723122912974
 20
283.71251995635333
 11
332.53936226948429
 21
282.7128195853644
  0
LINE
  8
_0-f_
  6
CONTINUOUS
 62
    7
 10
332.53936226948429
 20
282.7128195853644
 11
332.35621863573499
 21
282.02931837325093
  0
LINE
  8
_0-f_
  6
CONTINUOUS
 62
    7
 10
332.35621863573499
 20
282.02931837325093
 11
332.18502500945124
 21
282.19192311630445
  0
LINE
  8
_0-f_
  6
CONTINUOUS
 62
    7
 10
332.18502500945124
 20
282.19192311630445
 11
331.84199343429196
 21
282.53396414852205
  0
LINE
  8
_0-f_
  6
CONTINUOUS
 62
    7
 10
331.84199343429196
 20
282.53396414852205
 11
331.68511969828643
 21
282.68958135265098
  0
LINE
  8
_0-f_
  6
CONTINUOUS
 62
    7
 10
331.68511969828643
 20
282.68958135265098
 11
331.58779321427028
 21
282.75439867866322
  0
LINE
  8
_0-f_
  6
CONTINUOUS
 62
    7
 10
331.58779321427028
 20
282.75439867866322
 11
331.47651339483627
 21
282.78892419802617
  0
LINE
  8
_0-f_
  6
CONTINUOUS
 62
    7
 10
331.47651339483627
 20
282.78892419802617
 11
331.33394251430622
 21
282.79399439917631
  0
LINE
  8
_0-f_
  6
CONTINUOUS
 62
    7
 10
331.33394251430622
 20
282.79399439917631
 11
330.83031873537072
 21
282.79399439917631
  0
LINE
  8
_0-f_
  6
CONTINUOUS
 62
    7
 10
330.83031873537072
 20
282.79399439917631
 11
330.38361134240972
 21
282.79399439917631
  0
LINE
  8
_0-f_
  6
CONTINUOUS
 62
    7
 10
330.38361134240972
 20
282.79399439917631
 11
330.21269900172121
 21
282.76882389351931
  0
LINE
  8
_0-f_
  6
CONTINUOUS
 62
    7
 10
330.21269900172121
 20
282.76882389351931
 11
330.05350840118354
 21
282.66227971099454
  0
LINE
  8
_0-f_
  6
CONTINUOUS
 62
    7
 10
330.05350840118354
 20
282.66227971099454
 11
329.95937276897746
 21
282.49120549720669
  0
SOLID
  8
_0-f_
  6
CONTINUOUS
 62
    7
 10
332.18068741546494
 20
280.82104792289363
 11
332.59209110454174
 21
280.82074036121327
 12
333.38085729888974
 22
280.82116159303985
 13
333.38085729888974
 23
280.82116159303985
  0
LINE
  8
_0-f_
  6
CONTINUOUS
 62
    7
 10
332.53212502761124
 20
279.60039180122476
 11
331.40482565374316
 21
279.60039180122476
  0
LINE
  8
_0-f_
  6
CONTINUOUS
 62
    7
 10
333.05222454657439
 20
279.68900300122471
 11
330.73628881399077
 21
279.68900300122471
  0
LINE
  8
_0-f_
  6
CONTINUOUS
 62
    7
 10
333.31732272434965
 20
279.86622540122471
 11
330.1216703008933
 21
279.86622540122471
  0
LINE
  8
_0-f_
  6
CONTINUOUS
 62
    7
 10
333.34106621508056
 20
279.95483660122477
 11
329.88275347391334
 21
279.95483660122477
  0
LINE
  8
_0-f_
  6
CONTINUOUS
 62
    7
 10
333.2935792336188
 20
279.77761420122476
 11
330.3605871278732
 21
279.77761420122476
  0
LINE
  8
_0-f_
  6
CONTINUOUS
 62
    7
 10
330.91543218853366
 20
280.30928140122478
 11
329.20066268559657
 21
280.30928140122478
  0
LINE
  8
_0-f_
  6
CONTINUOUS
 62
    7
 10
330.89168891711228
 20
280.22067020122472
 11
329.32278830628388
 21
280.22067020122472
  0
LINE
  8
_0-f_
  6
CONTINUOUS
 62
    7
 10
330.96291873137648
 20
280.48650380122473
 11
328.95641144422194
 21
280.48650380122473
  0
LINE
  8
_0-f_
  6
CONTINUOUS
 62
    7
 10
330.98666200279786
 20
280.57511500122473
 11
328.83428582353463
 21
280.57511500122473
  0
LINE
  8
_0-f_
  6
CONTINUOUS
 62
    7
 10
330.93917545995509
 20
280.39789260122473
 11
329.07853706490931
 21
280.39789260122473
  0
LINE
  8
_0-f_
  6
CONTINUOUS
 62
    7
 10
330.86794564569084
 20
280.13205900122472
 11
329.44491392697125
 21
280.13205900122472
  0
LINE
  8
_0-f_
  6
CONTINUOUS
 62
    7
 10
331.00410008499148
 20
280.04344780122472
 11
329.64383664693344
 21
280.04344780122472
  0
LINE
  8
_0-f_
  6
CONTINUOUS
 62
    7
 10
333.38855319654226
 20
280.13205900122472
 11
333.1860226071293
 21
280.13205900122472
  0
LINE
  8
_0-f_
  6
CONTINUOUS
 62
    7
 10
333.36480970581141
 20
280.04344780122472
 11
332.81464697635846
 21
280.04344780122472
  0
LINE
  8
_0-f_
  6
CONTINUOUS
 62
    7
 10
333.72095987162891
 20
281.3726158012247
 11
331.47578041956325
 21
281.3726158012247
  0
LINE
  8
_0-f_
  6
CONTINUOUS
 62
    7
 10
333.69721656722186
 20
281.28400460122469
 11
331.56525772801137
 21
281.28400460122469
  0
LINE
  8
_0-f_
  6
CONTINUOUS
 62
    7
 10
333.67347326281492
 20
281.19539340122469
 11
331.65473503645956
 21
281.19539340122469
  0
LINE
  8
_0-f_
  6
CONTINUOUS
 62
    7
 10
333.64972995840799
 20
281.10678220122475
 11
331.74421234490768
 21
281.10678220122475
  0
LINE
  8
_0-f_
  6
CONTINUOUS
 62
    7
 10
333.58446865964595
 20
281.01817100122469
 11
331.8336896533558
 21
281.01817100122469
  0
LINE
  8
_0-f_
  6
CONTINUOUS
 62
    7
 10
333.49288802308411
 20
280.92955980122474
 11
331.92316696180399
 21
280.92955980122474
  0
LINE
  8
_0-f_
  6
CONTINUOUS
 62
    7
 10
333.40130738652232
 20
280.84094860122474
 11
332.08739120533693
 21
280.84094860122474
  0
LINE
  8
_0-f_
  6
CONTINUOUS
 62
    7
 10
333.74470317603584
 20
281.46122700122476
 11
331.37801490611912
 21
281.46122700122476
  0
LINE
  8
_0-f_
  6
CONTINUOUS
 62
    7
 10
333.78643333116361
 20
284.11956300122478
 11
329.93338624187402
 21
284.11956300122478
  0
LINE
  8
_0-f_
  6
CONTINUOUS
 62
    7
 10
333.57416656879286
 20
284.20817420122478
 11
330.17380981888817
 21
284.20817420122478
  0
LINE
  8
_0-f_
  6
CONTINUOUS
 62
    7
 10
333.25329459800798
 20
284.29678540122484
 11
330.56313477380451
 21
284.29678540122472
  0
LINE
  8
_0-f_
  6
CONTINUOUS
 62
    7
 10
332.76657432093691
 20
284.38539660122478
 11
330.95245972872152
 21
284.38539660122478
  0
LINE
  8
_0-f_
  6
CONTINUOUS
 62
    7
 10
333.99870009353435
 20
284.03095180122477
 11
332.54948369077044
 21
284.03095180122477
  0
LINE
  8
_0-f_
  6
CONTINUOUS
 62
    7
 10
334.2109668559051
 20
283.94234060122471
 11
332.76274457272433
 21
283.94234060122471
  0
LINE
  8
_0-f_
  6
CONTINUOUS
 62
    7
 10
334.38577239502479
 20
283.85372940122477
 11
332.77989714842215
 21
283.85372940122477
  0
LINE
  8
_0-f_
  6
CONTINUOUS
 62
    7
 10
334.36202909061774
 20
283.76511820122482
 11
332.79704972411992
 21
283.76511820122482
  0
LINE
  8
_0-f_
  6
CONTINUOUS
 62
    7
 10
334.33828578621069
 20
283.67650700122476
 11
332.79758158499237
 21
283.67650700122476
  0
LINE
  8
_0-f_
  6
CONTINUOUS
 62
    7
 10
334.3145424818037
 20
283.58789580122482
 11
332.77383828085271
 21
283.58789580122482
  0
LINE
  8
_0-f_
  6
CONTINUOUS
 62
    7
 10
334.29079917739665
 20
283.49928460122476
 11
332.75009497671306
 21
283.49928460122476
  0
LINE
  8
_0-f_
  6
CONTINUOUS
 62
    7
 10
334.2670558729896
 20
283.41067340122476
 11
332.72635167257334
 21
283.41067340122476
  0
LINE
  8
_0-f_
  6
CONTINUOUS
 62
    7
 10
334.24331256858261
 20
283.32206220122475
 11
332.70260836843363
 21
283.32206220122475
  0
LINE
  8
_0-f_
  6
CONTINUOUS
 62
    7
 10
334.21956926417556
 20
283.23345100122469
 11
332.67886506429397
 21
283.23345100122469
  0
LINE
  8
_0-f_
  6
CONTINUOUS
 62
    7
 10
334.19582595976851
 20
283.14483980122475
 11
332.65512176015432
 21
283.14483980122475
  0
LINE
  8
_0-f_
  6
CONTINUOUS
 62
    7
 10
334.17208265536146
 20
283.05622860122475
 11
332.63137845601466
 21
283.05622860122475
  0
LINE
  8
_0-f_
  6
CONTINUOUS
 62
    7
 10
334.14833935095447
 20
282.96761740122474
 11
332.607635151875
 21
282.96761740122474
  0
LINE
  8
_0-f_
  6
CONTINUOUS
 62
    7
 10
334.12459604654737
 20
282.8790062012248
 11
332.58389184773534
 21
282.8790062012248
  0
LINE
  8
_0-f_
  6
CONTINUOUS
 62
    7
 10
334.10085274214038
 20
282.79039500122474
 11
332.56014854359563
 21
282.79039500122474
  0
LINE
  8
_0-f_
  6
CONTINUOUS
 62
    7
 10
334.07710943773338
 20
282.70178380122474
 11
332.53640523945592
 21
282.70178380122474
  0
LINE
  8
_0-f_
  6
CONTINUOUS
 62
    7
 10
334.05336613332645
 20
282.61317260122473
 11
332.51266193531626
 21
282.61317260122473
  0
LINE
  8
_0-f_
  6
CONTINUOUS
 62
    7
 10
334.02962282891951
 20
282.52456140122479
 11
332.4889186311766
 21
282.52456140122479
  0
LINE
  8
_0-f_
  6
CONTINUOUS
 62
    7
 10
334.00587952451247
 20
282.43595020122473
 11
332.46517532703695
 21
282.43595020122473
  0
LINE
  8
_0-f_
  6
CONTINUOUS
 62
    7
 10
333.98213622010553
 20
282.34733900122473
 11
332.44143202289729
 21
282.34733900122478
  0
LINE
  8
_0-f_
  6
CONTINUOUS
 62
    7
 10
333.9583929156986
 20
282.25872780122478
 11
332.41768871875763
 21
282.25872780122478
  0
LINE
  8
_0-f_
  6
CONTINUOUS
 62
    7
 10
333.9346496112916
 20
282.17011660122478
 11
332.39394541461792
 21
282.17011660122478
  0
LINE
  8
_0-f_
  6
CONTINUOUS
 62
    7
 10
333.91090630688461
 20
282.08150540122472
 11
332.3702021104782
 21
282.08150540122472
  0
LINE
  8
_0-f_
  6
CONTINUOUS
 62
    7
 10
331.20527951271436
 20
284.03095180122477
 11
329.75627556558385
 21
284.03095180122477
  0
LINE
  8
_0-f_
  6
CONTINUOUS
 62
    7
 10
330.78684131094468
 20
283.94234060122471
 11
329.57916488929368
 21
283.94234060122471
  0
LINE
  8
_0-f_
  6
CONTINUOUS
 62
    7
 10
330.36840310917501
 20
283.85372940122477
 11
329.40205421300351
 21
283.85372940122471
  0
LINE
  8
_0-f_
  6
CONTINUOUS
 62
    7
 10
330.13937007287097
 20
283.76511820122482
 11
329.22494353671357
 21
283.76511820122482
  0
LINE
  8
_0-f_
  6
CONTINUOUS
 62
    7
 10
329.93969700175489
 20
283.67650700122476
 11
329.0728318472872
 21
283.67650700122476
  0
LINE
  8
_0-f_
  6
CONTINUOUS
 62
    7
 10
329.7400239306391
 20
283.58789580122482
 11
328.98153148692234
 21
283.58789580122482
  0
LINE
  8
_0-f_
  6
CONTINUOUS
 62
    7
 10
329.54035085952313
 20
283.49928460122476
 11
328.89408385763602
 21
283.49928460122476
  0
LINE
  8
_0-f_
  6
CONTINUOUS
 62
    7
 10
329.41321668933938
 20
283.41067340122476
 11
328.79893076619248
 21
283.41067340122476
  0
LINE
  8
_0-f_
  6
CONTINUOUS
 62
    7
 10
329.30082438236138
 20
283.32206220122475
 11
328.70763040582756
 21
283.32206220122475
  0
LINE
  8
_0-f_
  6
CONTINUOUS
 62
    7
 10
329.18843207538333
 20
283.23345100122469
 11
328.61633004546263
 21
283.23345100122469
  0
LINE
  8
_0-f_
  6
CONTINUOUS
 62
    7
 10
329.07603976840539
 20
283.14483980122475
 11
328.52502968509782
 21
283.14483980122475
  0
LINE
  8
_0-f_
  6
CONTINUOUS
 62
    7
 10
328.96364746142734
 20
283.05622860122475
 11
328.43372932473284
 21
283.05622860122475
  0
LINE
  8
_0-f_
  6
CONTINUOUS
 62
    7
 10
328.88383330013096
 20
282.96761740122474
 11
328.38379903258374
 21
282.96761740122474
  0
LINE
  8
_0-f_
  6
CONTINUOUS
 62
    7
 10
328.82643026511101
 20
282.8790062012248
 11
328.34800048843442
 21
282.8790062012248
  0
LINE
  8
_0-f_
  6
CONTINUOUS
 62
    7
 10
331.17660817416686
 20
281.28400460122469
 11
329.63590427157629
 21
281.28400460122469
  0
LINE
  8
_0-f_
  6
CONTINUOUS
 62
    7
 10
331.15286490274582
 20
281.19539340122469
 11
329.61216097266697
 21
281.19539340122469
  0
LINE
  8
_0-f_
  6
CONTINUOUS
 62
    7
 10
331.12912163132478
 20
281.10678220122475
 11
329.58841767375765
 21
281.10678220122475
  0
LINE
  8
_0-f_
  6
CONTINUOUS
 62
    7
 10
331.10537835990374
 20
281.01817100122469
 11
329.56467437484832
 21
281.01817100122469
  0
LINE
  8
_0-f_
  6
CONTINUOUS
 62
    7
 10
331.08163508848281
 20
280.92955980122474
 11
329.540931075939
 21
280.92955980122474
  0
LINE
  8
_0-f_
  6
CONTINUOUS
 62
    7
 10
331.05789181706177
 20
280.84094860122474
 11
329.51718777702968
 21
280.84094860122474
  0
LINE
  8
_0-f_
  6
CONTINUOUS
 62
    7
 10
331.03414854564073
 20
280.75233740122474
 11
329.49344447812035
 21
280.75233740122474
  0
LINE
  8
_0-f_
  6
CONTINUOUS
 62
    7
 10
331.01040527421929
 20
280.66372620122468
 11
329.46970117921103
 21
280.66372620122468
  0
LINE
  8
_0-f_
  6
CONTINUOUS
 62
    7
 10
331.94029122772042
 20
282.43595020122473
 11
329.94456715739744
 21
282.43595020122473
  0
LINE
  8
_0-f_
  6
CONTINUOUS
 62
    7
 10
332.02915904371218
 20
282.34733900122478
 11
329.92082385848812
 21
282.34733900122478
  0
LINE
  8
_0-f_
  6
CONTINUOUS
 62
    7
 10
332.118026859704
 20
282.25872780122478
 11
329.8970805595788
 21
282.25872780122478
  0
LINE
  8
_0-f_
  6
CONTINUOUS
 62
    7
 10
332.20689467569582
 20
282.17011660122478
 11
329.87333726066947
 21
282.17011660122478
  0
LINE
  8
_0-f_
  6
CONTINUOUS
 62
    7
 10
332.29576249168758
 20
282.08150540122472
 11
329.84959396176015
 21
282.08150540122472
  0
LINE
  8
_0-f_
  6
CONTINUOUS
 62
    7
 10
333.88716300247768
 20
281.99289420122471
 11
329.82585066285083
 21
281.99289420122471
  0
LINE
  8
_0-f_
  6
CONTINUOUS
 62
    7
 10
333.86341969807069
 20
281.90428300122471
 11
329.8021073639415
 21
281.90428300122471
  0
LINE
  8
_0-f_
  6
CONTINUOUS
 62
    7
 10
333.83967639366375
 20
281.81567180122477
 11
329.77836406503218
 21
281.81567180122477
  0
LINE
  8
_0-f_
  6
CONTINUOUS
 62
    7
 10
333.81593308925676
 20
281.72706060122471
 11
329.75462076612291
 21
281.72706060122471
  0
LINE
  8
_0-f_
  6
CONTINUOUS
 62
    7
 10
333.79218978484982
 20
281.63844940122482
 11
329.73087746721353
 21
281.63844940122465
  0
LINE
  8
_0-f_
  6
CONTINUOUS
 62
    7
 10
333.76844648044283
 20
281.54983820122476
 11
329.70713416830426
 21
281.54983820122476
  0
LINE
  8
_0-f_
  6
CONTINUOUS
 62
    7
 10
331.22409471700894
 20
281.46122700122476
 11
329.68339086939488
 21
281.46122700122476
  0
LINE
  8
_0-f_
  6
CONTINUOUS
 62
    7
 10
331.2003514455879
 20
281.3726158012247
 11
329.65964757048562
 21
281.3726158012247
  0
LINE
  8
_0-f_
  6
CONTINUOUS
 62
    7
 10
331.76255559573684
 20
282.61317260122473
 11
330.02648662670543
 21
282.61317260122479
  0
LINE
  8
_0-f_
  6
CONTINUOUS
 62
    7
 10
331.85142341172855
 20
282.52456140122479
 11
329.97772725410425
 21
282.52456140122479
  0
LINE
  8
_0-f_
  6
CONTINUOUS
 62
    7
 10
331.66679710633241
 20
282.70178380122474
 11
330.11253255152582
 21
282.70178380122474
  0
LINE
  8
_0-f_
  6
CONTINUOUS
 62
    7
 10
331.43515533015693
 20
282.79039500122474
 11
330.35917077147508
 21
282.79039500122474
  0
LINE
  8
_0-f_
  6
CONTINUOUS
 62
    7
 10
328.76902723009107
 20
282.79039500122474
 11
328.31220194428511
 21
282.79039500122474
  0
LINE
  8
_0-f_
  6
CONTINUOUS
 62
    7
 10
328.71162419507118
 20
282.70178380122474
 11
328.27640340013579
 21
282.70178380122474
  0
LINE
  8
_0-f_
  6
CONTINUOUS
 62
    7
 10
328.65422116005129
 20
282.61317260122485
 11
328.24060485598648
 21
282.61317260122485
  0
LINE
  8
_0-f_
  6
CONTINUOUS
 62
    7
 10
328.59681812503135
 20
282.52456140122479
 11
328.20480631183716
 21
282.52456140122479
  0
LINE
  8
_0-f_
  6
CONTINUOUS
 62
    7
 10
328.56503059181273
 20
282.43595020122473
 11
328.16900776768784
 21
282.43595020122473
  0
LINE
  8
_0-f_
  6
CONTINUOUS
 62
    7
 10
328.55181587603295
 20
282.34733900122484
 11
328.13320922353853
 21
282.34733900122484
  0
LINE
  8
_0-f_
  6
CONTINUOUS
 62
    7
 10
328.53860116025305
 20
282.25872780122478
 11
328.09741067938921
 21
282.25872780122478
  0
LINE
  8
_0-f_
  6
CONTINUOUS
 62
    7
 10
328.52538644447327
 20
282.17011660122478
 11
328.10472840299002
 21
282.17011660122478
  0
LINE
  8
_0-f_
  6
CONTINUOUS
 62
    7
 10
328.51217172869343
 20
282.08150540122472
 11
328.11417603792972
 21
282.08150540122472
  0
LINE
  8
_0-f_
  6
CONTINUOUS
 62
    7
 10
328.49895701291359
 20
281.99289420122471
 11
328.12362367286937
 21
281.99289420122471
  0
LINE
  8
_0-f_
  6
CONTINUOUS
 62
    7
 10
328.48965371307639
 20
281.90428300122471
 11
328.13307130780908
 21
281.90428300122471
  0
LINE
  8
_0-f_
  6
CONTINUOUS
 62
    7
 10
328.51832102984355
 20
281.81567180122477
 11
328.14251894274878
 21
281.81567180122477
  0
LINE
  8
_0-f_
  6
CONTINUOUS
 62
    7
 10
328.5469883466107
 20
281.72706060122471
 11
328.15196657768843
 21
281.72706060122471
  0
LINE
  8
_0-f_
  6
CONTINUOUS
 62
    7
 10
328.57565566337792
 20
281.63844940122465
 11
328.16141421262813
 21
281.63844940122465
  0
LINE
  8
_0-f_
  6
CONTINUOUS
 62
    7
 10
328.60432298014501
 20
281.54983820122476
 11
328.17086184756778
 21
281.54983820122476
  0
LINE
  8
_0-f_
  6
CONTINUOUS
 62
    7
 10
328.63299029691217
 20
281.46122700122476
 11
328.18030948250748
 21
281.46122700122476
  0
LINE
  8
_0-f_
  6
CONTINUOUS
 62
    7
 10
328.66165761367932
 20
281.3726158012247
 11
328.22524165474476
 21
281.3726158012247
  0
LINE
  8
_0-f_
  6
CONTINUOUS
 62
    7
 10
328.72490670374384
 20
281.28400460122469
 11
328.28277437269031
 21
281.28400460122469
  0
LINE
  8
_0-f_
  6
CONTINUOUS
 62
    7
 10
328.80040162983369
 20
281.19539340122469
 11
328.3403070906358
 21
281.19539340122469
  0
LINE
  8
_0-f_
  6
CONTINUOUS
 62
    7
 10
328.87589655592348
 20
281.10678220122475
 11
328.3978398085813
 21
281.10678220122475
  0
LINE
  8
_0-f_
  6
CONTINUOUS
 62
    7
 10
328.95139148201332
 20
281.01817100122469
 11
328.45537252652684
 21
281.01817100122469
  0
LINE
  8
_0-f_
  6
CONTINUOUS
 62
    7
 10
329.02688640810311
 20
280.92955980122474
 11
328.51290524447234
 21
280.92955980122474
  0
LINE
  8
_0-f_
  6
CONTINUOUS
 62
    7
 10
329.1023813341929
 20
280.84094860122474
 11
328.57043796241783
 21
280.84094860122474
  0
LINE
  8
_0-f_
  6
CONTINUOUS
 62
    7
 10
329.22268273315569
 20
280.75233740122474
 11
328.62797068036338
 21
280.75233740122474
  0
LINE
  8
_0-f_
  6
CONTINUOUS
 62
    7
 10
329.34400220955723
 20
280.66372620122468
 11
328.71216020284737
 21
280.66372620122468
  0
TEXT
  8
_0-f_
 62
    7
 10
365.67000929840799
 20
30.52889478919522
 40
2.5
 41
1
 50
0
  1
2020.02.15
  0
ENDSEC
  0
EOF
