  0
SECTION
  2
HEADER
  9
$ACADVER
  1
AC1009
  9
$INSBASE
 10
0
 20
0
 30
0
  9
$EXTMIN
 10
0
 20
0
  9
$EXTMAX
 10
420
 20
297
  9
$LIMMIN
 10
0
 20
0
  9
$LIMMAX
 10
420
 20
297
  9
$LTSCALE
 40
1
  0
ENDSEC
  0
SECTION
  2
TABLES
  0
TABLE
  2
LTYPE
 70
     9
  0
LTYPE
  2
CONTINUOUS
 70
    64
  3
実線
 72
    65
 73
     0
 40
0.0
  0
LTYPE
  2
DASHED1
 70
    64
  3
--  --  --  --  --  --  --  --  
 72
    65
 73
     2
 40
2.5
 49
1.25
 49
-1.25
  0
LTYPE
  2
DASHED2
 70
    64
  3
----    ----    ----    ----    
 72
    65
 73
     2
 40
5.0
 49
2.5
 49
-2.5
  0
LTYPE
  2
DASHED3
 70
    64
  3
------  ------  ------  ------  
 72
    65
 73
     2
 40
5.0
 49
3.75
 49
-1.25
  0
LTYPE
  2
CENTER1
 70
    64
  3
----- - ----- - ----- - ----- - 
 72
    65
 73
     4
 40
10.0
 49
6.25
 49
-1.25
 49
1.25
 49
-1.25
  0
LTYPE
  2
CENTER2
 70
    64
  3
----------  --  ----------  --  
 72
    65
 73
     4
 40
20.0
 49
12.5
 49
-2.5
 49
2.5
 49
-2.5
  0
LTYPE
  2
PHANTOM1
 70
    64
  3
--- - - --- - - --- - - --- - - 
 72
    65
 73
     6
 40
10.0
 49
3.25
 49
-1.25
 49
1.25
 49
-1.25
 49
1.25
 49
-1.25
  0
LTYPE
  2
PHANTOM2
 70
    64
  3
--------  -  -  --------  -  -  
 72
    65
 73
     6
 40
20.0
 49
10.0
 49
-2.5
 49
1.25
 49
-2.5
 49
1.25
 49
-2.5
  0
LTYPE
  2
DOT
 70
    64
  3
-   -   -   -   -   -   -   -   
 72
    65
 73
     2
 40
2.5
 49
0.625
 49
-1.875
  0
LTYPE
  2
DUMMY
 70
    64
  3
ダミー
 72
    65
 73
     0
 40
0.0
  0
LTYPE
  2
RAND1
 70
    64
  3
ランダム線1
 72
    65
 73
     4
 40
10.0
 49
1.0
 49
-2.0
 49
3.0
 49
-4.0
  0
LTYPE
  2
RAND2
 70
    64
  3
ランダム線2
 72
    65
 73
     4
 40
14.0
 49
2.0
 49
-3.0
 49
4.0
 49
-5.0
  0
LTYPE
  2
RAND3
 70
    64
  3
ランダム線3
 72
    65
 73
     4
 40
18.0
 49
3.0
 49
-4.0
 49
5.0
 49
-6.0
  0
LTYPE
  2
RAND4
 70
    64
  3
ランダム線4
 72
    65
 73
     4
 40
22.0
 49
4.0
 49
-5.0
 49
6.0
 49
-7.0
  0
LTYPE
  2
RAND5
 70
    64
  3
ランダム線5
 72
    65
 73
     4
 40
26.0
 49
5.0
 49
-6.0
 49
7.0
 49
-8.0
  0
LTYPE
  2
LONG1
 70
    64
  3
----------  --  ----------  --  
 72
    65
 73
     4
 40
40.0
 49
32.5
 49
-2.5
 49
2.5
 49
-2.5
  0
LTYPE
  2
LONG2
 70
    64
  3
--------  -  -  --------  -  -  
 72
    65
 73
     6
 40
40.0
 49
30.0
 49
-2.5
 49
1.25
 49
-2.5
 49
1.25
 49
-2.5
  0
LTYPE
  2
LONG3
 70
    64
  3
+++++++++++++++..+++++++++++++++
 72
    65
 73
     2
 40
40.0
 49
37.5
 49
-2.5
  0
LTYPE
  2
LONG4
 70
    64
  3
+++++++++++++++..+++++++++++++++
 72
    65
 73
     2
 40
80.0
 49
75.0
 49
-5.0
  0
LTYPE
  2
LONG5
 70
    64
  3
----------  --  ----------  --  
 72
    65
 73
     4
 40
60.0
 49
37.5
 49
-7.5
 49
7.5
 49
-7.5
  0
LTYPE
  2
dashed
 70
   64
  3
-------   -------------   ------
 72
   65
 73
    2
 40
7.5
 49
6
 49
-1.5
  0
LTYPE
  2
dashed_spaced
 70
   64
  3
----        --------        ----
 72
   65
 73
    2
 40
12
 49
6
 49
-6
  0
LTYPE
  2
long_dashed_dotted
 70
   64
  3
------------- --- --------------
 72
   65
 73
    4
 40
15.25
 49
12
 49
-1.5
 49
0.25
 49
-1.5
  0
LTYPE
  2
long_dashed_double-dotted
 70
   64
  3
----------- --- --- ------------
 72
   65
 73
    6
 40
17
 49
12
 49
-1.5
 49
0.25
 49
-1.5
 49
0.25
 49
-1.5
  0
LTYPE
  2
long_dashed_triplicate-dotted
 70
   64
  3
--------- --- --- --- ----------
 72
   65
 73
    8
 40
18.75
 49
12
 49
-1.5
 49
0.25
 49
-1.5
 49
0.25
 49
-1.5
 49
0.25
 49
-1.5
  0
LTYPE
  2
dotted
 70
   64
  3
   -       -       -       -    
 72
   65
 73
    2
 40
1.75
 49
0.25
 49
-1.5
  0
LTYPE
  2
chain
 70
   64
  3
-------------- -- --------------
 72
   65
 73
    4
 40
18.5
 49
12
 49
-1.5
 49
3.5
 49
-1.5
  0
LTYPE
  2
chain_double_dash
 70
   64
  3
------------ -- -- -------------
 72
   65
 73
    6
 40
23.5
 49
12
 49
-1.5
 49
3.5
 49
-1.5
 49
3.5
 49
-1.5
  0
LTYPE
  2
dashed_dotted
 70
   64
  3
-----------     -     ----------
 72
   65
 73
    4
 40
9.25
 49
6
 49
-1.5
 49
0.25
 49
-1.5
  0
LTYPE
  2
double-dashed_dotted
 70
   64
  3
------   -----------   -   -----
 72
   65
 73
    6
 40
16.75
 49
6
 49
-1.5
 49
6
 49
-1.5
 49
0.25
 49
-1.5
  0
LTYPE
  2
dashed_double-dotted
 70
   64
  3
---------    -    -    ---------
 72
   65
 73
    6
 40
11
 49
6
 49
-1.5
 49
0.25
 49
-1.5
 49
0.25
 49
-1.5
  0
LTYPE
  2
double-dashed_double-dotted
 70
   64
  3
-----   ---------   -   -   ----
 72
   65
 73
    8
 40
18.5
 49
6
 49
-1.5
 49
6
 49
-1.5
 49
0.25
 49
-1.5
 49
0.25
 49
-1.5
  0
LTYPE
  2
dashed_triplicate-dotted
 70
   64
  3
-------    -    -    -    ------
 72
   65
 73
    8
 40
12.75
 49
6
 49
-1.5
 49
0.25
 49
-1.5
 49
0.25
 49
-1.5
 49
0.25
 49
-1.5
  0
LTYPE
  2
double-dashed_triplicate-dotted
 70
   64
  3
-----  ---------  -  -  -  -----
 72
   65
 73
   10
 40
20.25
 49
6
 49
-1.5
 49
6
 49
-1.5
 49
0.25
 49
-1.5
 49
0.25
 49
-1.5
 49
0.25
 49
-1.5
  0
LTYPE
  2
undefined
 70
   64
  3
--------------------------------
 72
   65
 73
    0
 40
0
  0
LTYPE
  2
_
 70
   64
  3
                                
 72
   65
 73
    0
 40
0
  0
LTYPE
  2
__18
 70
   64
  3
                                
 72
   65
 73
    0
 40
0
  0
LTYPE
  2
__19
 70
   64
  3
                                
 72
   65
 73
    0
 40
0
  0
LTYPE
  2
__20
 70
   64
  3
                                
 72
   65
 73
    0
 40
0
  0
LTYPE
  2
__21
 70
   64
  3
                                
 72
   65
 73
    0
 40
0
  0
LTYPE
  2
__22
 70
   64
  3
                                
 72
   65
 73
    0
 40
0
  0
LTYPE
  2
__23
 70
   64
  3
                                
 72
   65
 73
    0
 40
0
  0
LTYPE
  2
__24
 70
   64
  3
                                
 72
   65
 73
    0
 40
0
  0
LTYPE
  2
__25
 70
   64
  3
                                
 72
   65
 73
    0
 40
0
  0
LTYPE
  2
__26
 70
   64
  3
                                
 72
   65
 73
    0
 40
0
  0
LTYPE
  2
__27
 70
   64
  3
                                
 72
   65
 73
    0
 40
0
  0
LTYPE
  2
__28
 70
   64
  3
                                
 72
   65
 73
    0
 40
0
  0
LTYPE
  2
__29
 70
   64
  3
                                
 72
   65
 73
    0
 40
0
  0
LTYPE
  2
__30
 70
   64
  3
                                
 72
   65
 73
    0
 40
0
  0
LTYPE
  2
__31
 70
   64
  3
                                
 72
   65
 73
    0
 40
0
  0
LTYPE
  2
__32
 70
   64
  3
                                
 72
   65
 73
    0
 40
0
  0
ENDTAB
  0
TABLE
  2
STYLE
  5
3
100
AcDbSymbolTable
 70
     1
  0
STYLE
  5
10
100
AcDbSymbolTableRecord
100
AcDbTextStyleTableRecord
  2
STANDARD
 70
     0
 40
0.0
 41
1.0
 50
0.0
 71
     0
 42
0.2
  3
txt
  4
bigfont.shx
  0
STYLE
  5
26
100
AcDbSymbolTableRecord
100
AcDbTextStyleTableRecord
  2
TATEGAKI
 70
    68
 40
0.0
 41
1.0
 50
0.0
 71
     0
 42
1.0
  3
txt
  4
bigfont.shx
  0
ENDTAB
  0
TABLE
  2
LAYER
 70
    5
  0
LAYER
  2
_0-0_
 70
   64
 62
    7
  6
CONTINUOUS
  0
LAYER
  2
_0-1_
 70
   64
 62
    7
  6
CONTINUOUS
  0
LAYER
  2
_0-2_
 70
   64
 62
    7
  6
CONTINUOUS
  0
LAYER
  2
_0-f_
 70
   64
 62
    7
  6
CONTINUOUS
  0
LAYER
  2
ADD_LINE
 70
   64
 62
    7
  6
CONTINUOUS
  0
ENDTAB
  0
ENDSEC
  0
SECTION
  2
BLOCKS
  0
ENDSEC
  0
SECTION
  2
ENTITIES
  0
LINE
  8
_0-0_
  6
DASHED1
 62
    7
 10
91.483177855532233
 20
133.39294313238619
 11
159.48310527318432
 21
133.39294313238619
  0
LINE
  8
_0-0_
  6
DASHED1
 62
    7
 10
159.48310527318432
 20
133.39294313238619
 11
159.48310527318432
 21
65.39294148278735
  0
LINE
  8
_0-0_
  6
DASHED1
 62
    7
 10
91.483177855532233
 20
133.39294313238619
 11
91.483177855532233
 21
65.39294148278735
  0
LINE
  8
_0-0_
  6
DASHED1
 62
    7
 10
91.483177855532233
 20
65.39294148278735
 11
159.48310527318432
 21
65.39294148278735
  0
LINE
  8
_0-0_
  6
CONTINUOUS
 62
    7
 10
89.478321436613498
 20
61.392953029979097
 11
161.48796169210328
 21
61.392953029979097
  0
LINE
  8
_0-0_
  6
CONTINUOUS
 62
    7
 10
163.48311846997495
 20
135.39294973078148
 11
163.48311846997495
 21
63.392947256383238
  0
LINE
  8
_0-0_
  6
CONTINUOUS
 62
    7
 10
87.483164658741828
 20
135.39294973078148
 11
87.483164658741828
 21
63.392947256383238
  0
ARC
  8
_0-0_
  6
CONTINUOUS
 62
    7
 10
89.48317125713703
 20
135.39294973078148
 40
2.0000000257749817
 50
90
 51
180
  0
ARC
  8
_0-0_
  6
CONTINUOUS
 62
    7
 10
89.48317125713703
 20
63.392947256383238
 40
2.0000000257749817
 50
180
 51
270
  0
ARC
  8
_0-0_
  6
CONTINUOUS
 62
    7
 10
161.48311187157952
 20
135.39294973078148
 40
2.0000000257749817
 50
0
 51
90
  0
ARC
  8
_0-0_
  6
CONTINUOUS
 62
    7
 10
161.48311187157952
 20
63.392947256383238
 40
2.0000000257749817
 50
270
 51
0
  0
LINE
  8
_0-0_
  6
CONTINUOUS
 62
    7
 10
91.243161227576309
 20
219.71092914430955
 11
159.72315901711391
 21
219.71092914430955
  0
LINE
  8
_0-0_
  6
CONTINUOUS
 62
    7
 10
91.243161227576309
 20
188.71097533307642
 11
91.243161227576309
 21
219.71092914430955
  0
LINE
  8
_0-0_
  6
CONTINUOUS
 62
    7
 10
159.72315901711391
 20
188.71097533307642
 11
159.72315901711391
 21
219.71092914430955
  0
LINE
  8
_0-0_
  6
CONTINUOUS
 62
    7
 10
87.483164658741828
 20
187.87096662319476
 11
87.483164658741828
 21
188.27102732843122
  0
LINE
  8
_0-0_
  6
CONTINUOUS
 62
    7
 10
87.483164658741828
 20
187.87096662319476
 11
163.48316795793954
 21
187.87096662319476
  0
LINE
  8
_0-0_
  6
CONTINUOUS
 62
    7
 10
87.483164658741828
 20
188.27102732843122
 11
163.48316795793954
 21
188.27102732843122
  0
LINE
  8
_0-0_
  6
CONTINUOUS
 62
    7
 10
163.48316795793954
 20
187.87096662319476
 11
163.48316795793954
 21
188.27102732843122
  0
LINE
  8
_0-0_
  6
CONTINUOUS
 62
    7
 10
214.20006298333391
 20
136.39295302997911
 11
214.20006298333391
 21
62.39294395718558
  0
LINE
  8
_0-0_
  6
CONTINUOUS
 62
    7
 10
245.20001679456703
 20
133.63295976034229
 11
245.20001679456703
 21
65.152961970804668
  0
LINE
  8
_0-0_
  6
CONTINUOUS
 62
    7
 10
214.20006298333391
 20
133.63295976034229
 11
245.20001679456703
 21
133.63295976034229
  0
LINE
  8
_0-0_
  6
CONTINUOUS
 62
    7
 10
214.20006298333391
 20
65.152961970804668
 11
245.20001679456703
 21
65.152961970804668
  0
LINE
  8
_0-0_
  6
CONTINUOUS
 62
    7
 10
213.36005427345225
 20
137.39295632917674
 11
213.7601149786887
 21
137.39295632917674
  0
LINE
  8
_0-0_
  6
CONTINUOUS
 62
    7
 10
213.36005427345225
 20
137.39295632917674
 11
213.36005427345225
 21
61.392953029979097
  0
LINE
  8
_0-0_
  6
CONTINUOUS
 62
    7
 10
213.7601149786887
 20
137.39295632917674
 11
213.7601149786887
 21
61.392953029979097
  0
LINE
  8
_0-0_
  6
CONTINUOUS
 62
    7
 10
213.36005427345225
 20
61.392953029979097
 11
213.7601149786887
 21
61.392953029979097
  0
LINE
  8
_0-0_
  6
CONTINUOUS
 62
    7
 10
213.96004635537787
 20
62.39294395718558
 11
214.20006298333391
 21
62.39294395718558
  0
LINE
  8
_0-0_
  6
CONTINUOUS
 62
    7
 10
213.96004635537787
 20
62.39294395718558
 11
213.96004635537787
 21
136.39295302997911
  0
LINE
  8
_0-0_
  6
CONTINUOUS
 62
    7
 10
214.20006298333391
 20
136.39295302997911
 11
213.96004635537787
 21
136.39295302997911
  0
LINE
  8
_0-1_
  6
CENTER1
 62
    7
 10
125.48307228120808
 20
219.07806985732441
 11
125.48307228120808
 21
220.54489291380628
  0
LINE
  8
_0-1_
  6
CONTINUOUS
 62
    7
 10
91.243161227576309
 20
229.51073383180955
 11
161.48314898755319
 21
229.51073383180955
  0
POINT
  8
_0-1_
 62
    7
 10
87.483164658741828
 20
229.51073383180955
  0
POINT
  8
_0-1_
 62
    7
 10
91.243161227576309
 20
229.51073383180955
  0
POINT
  8
_0-1_
 62
    7
 10
159.72314664512277
 20
229.51073383180955
  0
POINT
  8
_0-1_
 62
    7
 10
163.48314321395725
 20
229.51073383180955
  0
TEXT
  8
_0-1_
 62
    7
 10
119.23798371922504
 20
229.68583897744577
 40
5
 41
1
 50
0
  1
342.4
  0
LINE
  8
_0-1_
  6
CONTINUOUS
 62
    7
 10
91.243161227576309
 20
225.05432741135655
 11
91.243161227576309
 21
221.7737556575928
  0
LINE
  8
_0-1_
  6
CONTINUOUS
 62
    7
 10
125.48307228120808
 20
225.05432741135655
 11
125.48307228120808
 21
221.7737556575928
  0
LINE
  8
_0-1_
  6
CONTINUOUS
 62
    7
 10
159.72315901711391
 20
225.05432741135655
 11
159.72315901711391
 21
221.7737556575928
  0
TEXT
  8
_0-1_
 62
    7
 10
103.6744805573299
 20
224.81132209626293
 40
4
 41
1
 50
0
  1
171.2
  0
TEXT
  8
_0-1_
 62
    7
 10
137.4522193553417
 20
224.81132209626293
 40
4
 41
1
 50
0
  1
171.2
  0
LINE
  8
_0-1_
  6
CONTINUOUS
 62
    7
 10
69.180733809924334
 20
137.39295632917674
 11
84.474296415498486
 21
137.39295632917674
  0
LINE
  8
_0-1_
  6
CONTINUOUS
 62
    7
 10
69.180733809924334
 20
137.39295632917674
 11
69.180733809924334
 21
61.392953029979097
  0
LINE
  8
_0-1_
  6
CONTINUOUS
 62
    7
 10
69.180733809924334
 20
61.392953029979097
 11
84.474296415498486
 21
61.392953029979097
  0
POINT
  8
_0-1_
 62
    7
 10
69.180733809924334
 20
137.39295632917674
  0
POINT
  8
_0-1_
 62
    7
 10
69.180733809924334
 20
61.392953029979097
  0
LINE
  8
_0-1_
  6
CONTINUOUS
 62
    7
 10
76.750882999641419
 20
188.71097533307642
 11
76.750882999641419
 21
219.71092914430955
  0
LINE
  8
_0-1_
  6
CONTINUOUS
 62
    7
 10
69.180733809924334
 20
188.07099697581288
 11
69.180733809924334
 21
219.71092914430955
  0
LINE
  8
_0-1_
  6
CONTINUOUS
 62
    7
 10
69.180733809924334
 20
187.87096662319476
 11
81.797665622107672
 21
187.87096662319476
  0
LINE
  8
_0-1_
  6
CONTINUOUS
 62
    7
 10
76.750882999641419
 20
187.87096662319476
 11
76.750882999641419
 21
188.27102732843122
  0
LINE
  8
_0-1_
  6
CONTINUOUS
 62
    7
 10
76.750882999641419
 20
188.27102732843122
 11
76.750882999641419
 21
188.71097533307642
  0
TEXT
  8
_0-1_
 62
    7
 10
75.750904444426112
 20
201.46101822264581
 40
5
 41
1
 50
90
  1
155
  0
TEXT
  8
_0-1_
 62
    7
 10
81.450037415287568
 20
184.98242011770498
 40
5
 41
1
 50
90
  1
2
  0
TEXT
  8
_0-1_
 62
    7
 10
81.916362505025802
 20
189.13920788691934
 40
5
 41
1
 50
90
  1
1.2
  0
TEXT
  8
_0-1_
 62
    7
 10
76.420971484122049
 20
188.10120113016245
 40
5
 41
1
 50
90
  1
1
  0
POINT
  8
_0-1_
 62
    7
 10
76.750882999641419
 20
188.71097533307642
  0
POINT
  8
_0-1_
 62
    7
 10
76.750882999641419
 20
187.87096662319476
  0
POINT
  8
_0-1_
 62
    7
 10
69.180733809924334
 20
187.87096662319476
  0
POINT
  8
_0-1_
 62
    7
 10
76.750882999641419
 20
188.27102732843122
  0
POINT
  8
_0-1_
 62
    7
 10
76.750882999641419
 20
188.47095870512038
  0
LINE
  8
_0-1_
  6
CONTINUOUS
 62
    7
 10
76.750882999641419
 20
188.71097533307642
 11
84.474296415498486
 21
188.71097533307642
  0
LINE
  8
_0-1_
  6
CONTINUOUS
 62
    7
 10
76.750882999641419
 20
188.27102732843122
 11
84.474296415498486
 21
188.27102732843122
  0
LINE
  8
_0-1_
  6
CONTINUOUS
 62
    7
 10
76.750882999641419
 20
187.87096662319476
 11
84.474296415498486
 21
187.87096662319476
  0
LINE
  8
_0-1_
  6
CONTINUOUS
 62
    7
 10
69.180733809924334
 20
219.71092914430955
 11
81.797665622107672
 21
219.71092914430955
  0
POINT
  8
_0-1_
 62
    7
 10
76.750882999641419
 20
219.71092914430955
  0
POINT
  8
_0-1_
 62
    7
 10
69.180733809924334
 20
219.71092914430955
  0
LINE
  8
_0-1_
  6
CONTINUOUS
 62
    7
 10
76.750882999641419
 20
219.71092914430955
 11
84.474296415498486
 21
219.71092914430955
  0
LINE
  8
_0-1_
  6
CONTINUOUS
 62
    7
 10
87.483164658741828
 20
151.85324058804503
 11
87.483164658741828
 21
139.23630877586172
  0
LINE
  8
_0-1_
  6
CONTINUOUS
 62
    7
 10
87.483164658741828
 20
151.85324058804503
 11
163.48311846997495
 21
151.85324058804503
  0
LINE
  8
_0-1_
  6
CONTINUOUS
 62
    7
 10
163.48311846997495
 20
151.85324058804503
 11
163.48311846997495
 21
139.23630877586172
  0
POINT
  8
_0-1_
 62
    7
 10
87.483164658741828
 20
151.85324058804503
  0
POINT
  8
_0-1_
 62
    7
 10
163.48311846997495
 20
151.85324058804503
  0
LINE
  8
_0-1_
  6
CONTINUOUS
 62
    7
 10
87.483164658741828
 20
173.32694872834662
 11
87.483164658741828
 21
184.01763575326225
  0
LINE
  8
_0-1_
  6
CONTINUOUS
 62
    7
 10
87.483164658741828
 20
173.32694872834662
 11
163.48316795793954
 21
173.32694872834662
  0
LINE
  8
_0-1_
  6
CONTINUOUS
 62
    7
 10
163.48316795793954
 20
173.32694872834662
 11
163.48316795793954
 21
184.01763575326225
  0
POINT
  8
_0-1_
 62
    7
 10
87.483164658741828
 20
173.32694872834662
  0
POINT
  8
_0-1_
 62
    7
 10
163.48316795793954
 20
173.32694872834662
  0
TEXT
  8
_0-1_
 62
    7
 10
119.78253227501813
 20
173.05278917496878
 40
5
 41
1
 50
0
  1
380
  0
LINE
  8
_0-1_
  6
CONTINUOUS
 62
    7
 10
214.20006298333391
 20
144.28309139832791
 11
214.20006298333391
 21
139.23630877586172
  0
LINE
  8
_0-1_
  6
CONTINUOUS
 62
    7
 10
214.20006298333391
 20
144.28309139832791
 11
245.20001679456703
 21
144.28309139832791
  0
LINE
  8
_0-1_
  6
CONTINUOUS
 62
    7
 10
245.20001679456703
 20
144.28309139832791
 11
245.20001679456703
 21
139.23630877586172
  0
LINE
  8
_0-1_
  6
CONTINUOUS
 62
    7
 10
213.56008462607036
 20
151.85324058804503
 11
245.20001679456703
 21
151.85324058804503
  0
LINE
  8
_0-1_
  6
CONTINUOUS
 62
    7
 10
245.20001679456703
 20
151.85324058804503
 11
245.20001679456703
 21
139.23630877586172
  0
LINE
  8
_0-1_
  6
CONTINUOUS
 62
    7
 10
213.36005427345225
 20
144.28309139832791
 11
213.36005427345225
 21
139.23630877586172
  0
LINE
  8
_0-1_
  6
CONTINUOUS
 62
    7
 10
213.36005427345225
 20
151.85324058804503
 11
213.36005427345225
 21
139.23630877586172
  0
LINE
  8
_0-1_
  6
CONTINUOUS
 62
    7
 10
213.7601149786887
 20
144.28309139832791
 11
213.7601149786887
 21
139.23630877586172
  0
LINE
  8
_0-1_
  6
CONTINUOUS
 62
    7
 10
213.36005427345225
 20
144.28309139832791
 11
213.7601149786887
 21
144.28309139832791
  0
LINE
  8
_0-1_
  6
CONTINUOUS
 62
    7
 10
213.7601149786887
 20
144.28309139832791
 11
214.20006298333391
 21
144.28309139832791
  0
TEXT
  8
_0-1_
 62
    7
 10
226.95010587290329
 20
145.28306995354328
 40
5
 41
1
 50
0
  1
155
  0
TEXT
  8
_0-1_
 62
    7
 10
214.62829553717683
 20
139.11761189294364
 40
5
 41
1
 50
0
  1
1.2
  0
TEXT
  8
_0-1_
 62
    7
 10
213.59028878041994
 20
144.61300291384734
 40
5
 41
1
 50
0
  1
1
  0
TEXT
  8
_0-1_
 62
    7
 10
222.13012329266661
 20
152.85324388724263
 40
5
 41
1
 50
0
  1
159.2
  0
POINT
  8
_0-1_
 62
    7
 10
214.20006298333391
 20
144.28309139832791
  0
POINT
  8
_0-1_
 62
    7
 10
245.20001679456703
 20
144.28309139832791
  0
POINT
  8
_0-1_
 62
    7
 10
245.20001679456703
 20
151.85324058804503
  0
POINT
  8
_0-1_
 62
    7
 10
213.36005427345225
 20
144.28309139832791
  0
POINT
  8
_0-1_
 62
    7
 10
213.36005427345225
 20
151.85324058804503
  0
POINT
  8
_0-1_
 62
    7
 10
213.7601149786887
 20
144.28309139832791
  0
POINT
  8
_0-1_
 62
    7
 10
213.96004635537787
 20
144.28309139832791
  0
LINE
  8
_0-1_
  6
CONTINUOUS
 62
    7
 10
198.81603637860411
 20
137.39295632917674
 11
209.50672340351974
 21
137.39295632917674
  0
LINE
  8
_0-1_
  6
CONTINUOUS
 62
    7
 10
198.81603637860411
 20
137.39295632917674
 11
198.81603637860411
 21
61.392953029979097
  0
LINE
  8
_0-1_
  6
CONTINUOUS
 62
    7
 10
198.81603637860411
 20
61.392953029979097
 11
209.50672340351974
 21
61.392953029979097
  0
POINT
  8
_0-1_
 62
    7
 10
198.81603637860411
 20
137.39295632917674
  0
POINT
  8
_0-1_
 62
    7
 10
198.81603637860411
 20
61.392953029979097
  0
LINE
  8
_0-1_
  6
CONTINUOUS
 62
    7
 10
265.52585494548072
 20
136.39306107870166
 11
265.52585494548072
 21
133.63299027792041
  0
LINE
  8
_0-1_
  6
CONTINUOUS
 62
    7
 10
258.52588546305896
 20
133.63295976034229
 11
265.52585494548072
 21
133.63295976034229
  0
LINE
  8
_0-1_
  6
CONTINUOUS
 62
    7
 10
258.52588546305896
 20
65.153070844326649
 11
265.52585494548072
 21
65.153070844326649
  0
LINE
  8
_0-1_
  6
CONTINUOUS
 62
    7
 10
265.52585494548072
 20
65.153070844326649
 11
265.52585494548072
 21
62.393083966885243
  0
LINE
  8
_0-1_
  6
CONTINUOUS
 62
    7
 10
265.52585494548072
 20
133.39300004354541
 11
265.52585494548072
 21
62.393083966885243
  0
POINT
  8
_0-1_
 62
    7
 10
265.52585494548072
 20
133.63299027792041
  0
POINT
  8
_0-1_
 62
    7
 10
265.52585494548072
 20
136.39306107870166
  0
POINT
  8
_0-1_
 62
    7
 10
265.52585494548072
 20
65.153070844326649
  0
POINT
  8
_0-1_
 62
    7
 10
265.52585494548072
 20
65.153070844326649
  0
TEXT
  8
_0-1_
 62
    7
 10
265.45290814087622
 20
91.547510970628366
 40
5
 41
1
 50
90
  1
342.4
  0
POINT
  8
_0-1_
 62
    7
 10
258.52588546305896
 20
65.153070844326649
  0
LINE
  8
_0-1_
  6
CONTINUOUS
 62
    7
 10
258.52588546305896
 20
65.153070844326649
 11
252.0592759176289
 21
65.153070844326649
  0
POINT
  8
_0-1_
 62
    7
 10
258.52588546305896
 20
133.63295976034229
  0
LINE
  8
_0-1_
  6
CONTINUOUS
 62
    7
 10
258.52588546305896
 20
133.63295976034229
 11
252.0592759176289
 21
133.63295976034229
  0
LINE
  8
_0-1_
  6
CONTINUOUS
 62
    7
 10
252.0592759176289
 20
136.39306107870166
 11
265.52585494548072
 21
136.39306107870166
  0
POINT
  8
_0-1_
 62
    4
 10
265.52585494548072
 20
62.39294395718558
  0
LINE
  8
_0-1_
  6
CONTINUOUS
 62
    7
 10
265.52585494548072
 20
62.39294395718558
 11
252.0592759176289
 21
62.39294395718558
  0
LINE
  8
_0-1_
  6
CONTINUOUS
 62
    7
 10
265.52585494548072
 20
61.392953029979097
 11
252.0592759176289
 21
61.392953029979097
  0
LINE
  8
_0-1_
  6
CONTINUOUS
 62
    7
 10
265.52585494548072
 20
136.39295302997911
 11
258.52588546305896
 21
136.39295302997911
  0
TEXT
  8
_0-1_
 62
    7
 10
271.12804338663028
 20
126.76687340922831
 40
5
 41
1
 50
90
  1
13.8
  0
TEXT
  8
_0-1_
 62
    7
 10
270.74974645922026
 20
62.322893129537675
 40
5
 41
1
 50
90
  1
13.8
  0
LINE
  8
_0-1_
  6
CONTINUOUS
 62
    7
 10
265.52585494548072
 20
137.39295632917674
 11
252.0592759176289
 21
137.39295632917674
  0
LINE
  8
_0-2_
  6
CONTINUOUS
 62
    7
 10
94.083176535853397
 20
123.3929596283744
 11
104.88310824246236
 21
123.3929596283744
  0
LINE
  8
_0-2_
  6
CONTINUOUS
 62
    7
 10
94.083176535853397
 20
118.39299262035064
 11
104.88310824246236
 21
118.39299262035064
  0
LINE
  8
_0-2_
  6
CONTINUOUS
 62
    7
 10
105.48312506837027
 20
122.79301703441325
 11
105.48312506837027
 21
118.99298470227637
  0
LINE
  8
_0-2_
  6
CONTINUOUS
 62
    7
 10
93.483159709945369
 20
122.79301703441325
 11
93.483159709945369
 21
118.99298470227637
  0
ARC
  8
_0-2_
  6
CONTINUOUS
 62
    7
 10
94.083176535853397
 20
122.79301703441325
 40
0.6000000077324945
 50
90
 51
180
  0
ARC
  8
_0-2_
  6
CONTINUOUS
 62
    7
 10
94.083176535853397
 20
118.99298470227637
 40
0.6000000077324945
 50
180
 51
270
  0
ARC
  8
_0-2_
  6
CONTINUOUS
 62
    7
 10
104.88310824246236
 20
118.99298470227637
 40
0.6000000077324945
 50
270
 51
0
  0
ARC
  8
_0-2_
  6
CONTINUOUS
 62
    7
 10
104.88310824246236
 20
122.79301703441325
 40
0.6000000077324945
 50
0
 51
90
  0
TEXT
  8
_0-2_
 62
    7
 10
108.94784047369836
 20
124.69132227011431
 40
10
 41
1
 50
0
  1
Ｅ
  0
TEXT
  8
_0-2_
 62
    7
 10
101.53415755042971
 20
124.6431814719113
 40
10
 41
1
 50
0
  1
Ａ
  0
LINE
  8
_0-2_
  6
CONTINUOUS
 62
    7
 10
96.442918728887605
 20
125.46576373715317
 11
92.365413025967371
 21
129.68814449718093
  0
LINE
  8
_0-2_
  6
CONTINUOUS
 62
    7
 10
96.540448764099949
 20
125.46576373715317
 11
100.61795446702018
 21
129.68814449718093
  0
ARC
  8
_0-2_
  6
CONTINUOUS
 62
    7
 10
96.49168374649372
 20
125.55305531590761
 40
0.0999892327382626
 50
240.81030254096703
 51
299.18969745903297
  0
ARC
  8
_0-2_
  6
CONTINUOUS
 62
    7
 10
94.428548386230602
 20
131.19670529017515
 40
2.5558331676632902
 50
36.174202920704083
 51
216.17420292070403
  0
LINE
  8
_0-2_
  6
CONTINUOUS
 62
    7
 10
96.493752537337798
 20
130.11382842802209
 11
96.493752537337798
 21
131.57182842802212
  0
LINE
  8
_0-2_
  6
CONTINUOUS
 62
    7
 10
96.493752537337798
 20
130.11382842802209
 11
97.86382437844378
 21
130.61249379699092
  0
LINE
  8
_0-2_
  6
CONTINUOUS
 62
    7
 10
97.199014041547855
 20
130.9963222239578
 11
98.314677775444864
 21
132.32591848695671
  0
LINE
  8
_0-2_
  6
CONTINUOUS
 62
    7
 10
97.86382437844378
 20
130.61249379699092
 11
97.199014041547855
 21
130.9963222239578
  0
LINE
  8
_0-2_
  6
CONTINUOUS
 62
    7
 10
98.314677775444864
 20
132.32591848695671
 11
98.981888657652519
 21
131.86664771860359
  0
LINE
  8
_0-2_
  6
CONTINUOUS
 62
    7
 10
98.981888657652519
 20
131.86664771860359
 11
101.17359546682502
 21
133.87097335647465
  0
LINE
  8
_0-2_
  6
CONTINUOUS
 62
    7
 10
97.05326274190503
 20
131.09401010842186
 11
98.469304059279864
 21
133.92609274317158
  0
LINE
  8
_0-2_
  6
CONTINUOUS
 62
    7
 10
98.469304059279864
 20
133.92609274317158
 11
99.448604372518787
 21
133.16227697822887
  0
LINE
  8
_0-2_
  6
CONTINUOUS
 62
    7
 10
99.448604372518787
 20
133.16227697822887
 11
100.04503481869557
 21
134.64373324776508
  0
LINE
  8
_0-2_
  6
CONTINUOUS
 62
    7
 10
100.04503481869557
 20
134.64373324776508
 11
101.17359546682502
 21
133.87097335647465
  0
LINE
  8
_0-2_
  6
CONTINUOUS
 62
    7
 10
97.053475207435156
 20
131.09443503948211
 11
96.493752537337798
 21
131.57182842802212
  0
ARC
  8
_0-2_
  6
CONTINUOUS
 62
    7
 10
98.554819106756952
 20
131.19670529017515
 40
2.5558331676632893
 50
93.932939704953412
 51
143.82579707929585
  0
ARC
  8
_0-2_
  6
CONTINUOUS
 62
    7
 10
98.554819106756952
 20
131.19670529017515
 40
2.5558331676632893
 50
323.82579707929591
 51
47.069975771820232
  0
ARC
  8
_0-2_
  6
CONTINUOUS
 62
    7
 10
98.554819106756952
 20
131.19670529017515
 40
2.5558331676632893
 50
65.93938761805704
 51
86.813527032339678
  0
TEXT
  8
_0-2_
 62
    7
 10
116.36152339696702
 20
124.59504067370824
 40
10
 41
1
 50
0
  1
Ｄ
  0
TEXT
  8
_0-2_
 62
    7
 10
167.69355779113204
 20
136.90522769478062
 40
3
 41
1
 50
0
  1
１０Ｒ－４
  0
LINE
  8
_0-2_
  6
CONTINUOUS
 62
    7
 10
163.21687322081954
 20
136.78742159522403
 11
168.51822193281265
 21
137.96548259078992
  0
POINT
  8
_0-1_
 62
    7
 10
163.08311189735451
 20
229.51073383180955
  0
LINE
  8
_0-1_
  6
CONTINUOUS
 62
    7
 10
163.08311189735451
 20
229.51073383180955
 11
163.48314321395725
 21
229.51073383180955
  0
LINE
  8
_0-1_
  6
CONTINUOUS
 62
    7
 10
159.72314664512277
 20
229.51073383180955
 11
163.08311189735451
 21
229.51073383180955
  0
LINE
  8
_0-0_
  6
CONTINUOUS
 62
    7
 10
163.08311189735451
 20
188.71097533307642
 11
163.08311189735451
 21
188.47095870512038
  0
LINE
  8
_0-0_
  6
DASHED1
 62
    7
 10
163.08311189735451
 20
136.39295302997911
 11
163.08311189735451
 21
62.39294395718558
  0
LINE
  8
_0-0_
  6
CONTINUOUS
 62
    7
 10
89.08316465874185
 20
188.71097533307642
 11
89.08316465874185
 21
188.47095870512038
  0
POINT
  8
_0-1_
 62
    7
 10
89.08316465874185
 20
229.51073383180955
  0
LINE
  8
_0-0_
  6
CONTINUOUS
 62
    7
 10
89.08316465874185
 20
137.39295632917674
 11
161.48311187157952
 21
137.39295632917674
  0
LINE
  8
_0-0_
  6
DASHED1
 62
    7
 10
89.08316465874185
 20
136.39295302997911
 11
163.08311189735451
 21
136.39295302997911
  0
LINE
  8
_0-0_
  6
DASHED1
 62
    7
 10
89.08316465874185
 20
136.39295302997911
 11
89.08316465874185
 21
62.39294395718558
  0
LINE
  8
_0-0_
  6
DASHED1
 62
    7
 10
89.08316465874185
 20
62.39294395718558
 11
163.08311189735451
 21
62.39294395718558
  0
LINE
  8
_0-1_
  6
CONTINUOUS
 62
    7
 10
89.08316465874185
 20
229.51073383180955
 11
91.243161227576309
 21
229.51073383180955
  0
LINE
  8
_0-1_
  6
CONTINUOUS
 62
    7
 10
87.483164658741828
 20
229.51073383180955
 11
89.08316465874185
 21
229.51073383180955
  0
LINE
  8
_0-0_
  6
CONTINUOUS
 62
    7
 10
89.08316465874185
 20
188.71097533307642
 11
163.08311189735451
 21
188.71097533307642
  0
LINE
  8
_0-0_
  6
CONTINUOUS
 62
    7
 10
163.08311189735451
 20
188.47095870512038
 11
89.08316465874185
 21
188.47095870512038
  0
LINE
  8
_0-0_
  6
CENTER1
 62
    7
 10
244.26665429456699
 20
123.39296086557346
 11
246.13337929456708
 21
123.39296086557346
  0
POINT
  8
_0-1_
 62
    7
 10
258.52588546305896
 20
123.39296086557346
  0
LINE
  8
_0-1_
  6
CONTINUOUS
 62
    7
 10
258.52588546305896
 20
123.39296086557346
 11
252.0592759176289
 21
123.39296086557346
  0
LINE
  8
_0-2_
  6
CONTINUOUS
 62
    7
 10
239.73342649090847
 20
125.87872133143759
 11
219.54356578809796
 21
125.87872133143759
  0
TEXT
  8
_0-2_
 62
    7
 10
218.94619033172086
 20
126.10063916486803
 40
3
 41
1
 50
0
  1
５ｘ８取付穴
  0
LINE
  8
_0-2_
  6
CONTINUOUS
 62
    7
 10
245.20001679456703
 20
123.24219632753926
 11
239.73342649090847
 21
125.87872133143759
  0
LINE
  8
_0-0_
  6
CENTER1
 62
    7
 10
244.26665429456699
 20
75.392960865573457
 11
246.13337929456708
 21
75.392960865573457
  0
POINT
  8
_0-1_
 62
    7
 10
258.52588546305896
 20
75.392960865573457
  0
LINE
  8
_0-1_
  6
CONTINUOUS
 62
    7
 10
258.52588546305896
 20
75.392960865573457
 11
252.0592759176289
 21
75.392960865573457
  0
TEXT
  8
_0-2_
 62
    7
 10
218.94619033172086
 20
78.251403702902223
 40
3
 41
1
 50
0
  1
５ｘ８取付穴
  0
LINE
  8
_0-2_
  6
CONTINUOUS
 62
    7
 10
239.73342649090847
 20
78.029485869471785
 11
219.54356578809796
 21
78.029485869471785
  0
LINE
  8
_0-2_
  6
CONTINUOUS
 62
    7
 10
245.20001679456703
 20
75.392960865573457
 11
239.73342649090847
 21
78.029485869471785
  0
LINE
  8
_0-1_
  6
CONTINUOUS
 62
    7
 10
258.52588546305896
 20
123.39296086557346
 11
258.52588546305896
 21
133.63295976034229
  0
LINE
  8
_0-1_
  6
CONTINUOUS
 62
    7
 10
258.52588546305896
 20
75.392960865573457
 11
258.52588546305896
 21
123.39296086557346
  0
LINE
  8
_0-1_
  6
CONTINUOUS
 62
    7
 10
258.52588546305896
 20
65.153070844326649
 11
258.52588546305896
 21
75.392960865573457
  0
TEXT
  8
_0-1_
 62
    7
 10
257.73171325394839
 20
65.234009165574079
 40
5
 41
1
 50
90
  1
51.2
  0
TEXT
  8
_0-1_
 62
    7
 10
258.17185593803816
 20
95.339768757315824
 40
5
 41
1
 50
90
  1
240
  0
TEXT
  8
_0-1_
 62
    7
 10
210.49504148608713
 20
139.25399203556225
 40
5
 41
1
 50
0
  1
2
  0
LINE
  8
_0-0_
  6
CONTINUOUS
 62
    7
 10
124.98309537559152
 20
123.69295690653632
 11
124.98309537559152
 21
123.09296482461065
  0
LINE
  8
_0-0_
  6
CONTINUOUS
 62
    7
 10
125.98304918682464
 20
123.09296482461065
 11
125.98304918682464
 21
123.69295690653632
  0
LINE
  8
_0-0_
  6
CENTER2
 62
    7
 10
123.98304258842944
 20
123.39296086557346
 11
126.98310197398695
 21
123.39296086557346
  0
ARC
  8
_0-0_
  6
CONTINUOUS
 62
    7
 10
125.48312176917278
 20
123.69295690653632
 40
0.4999954152751612
 50
0.0013885498046875
 51
179.99855041503906
  0
ARC
  8
_0-0_
  6
CONTINUOUS
 62
    7
 10
125.48312176917278
 20
123.09296482461065
 40
0.4999890842953244
 50
179.99855041503909
 51
0.0013885498047443
  0
LINE
  8
_0-0_
  6
CONTINUOUS
 62
    7
 10
124.98309537559152
 20
75.692956906536324
 11
124.98309537559152
 21
75.092964824610647
  0
LINE
  8
_0-0_
  6
CONTINUOUS
 62
    7
 10
125.98304918682464
 20
75.092964824610647
 11
125.98304918682464
 21
75.692956906536324
  0
LINE
  8
_0-0_
  6
CENTER2
 62
    7
 10
123.98304258842944
 20
75.392960865573457
 11
126.98310197398695
 21
75.392960865573457
  0
ARC
  8
_0-0_
  6
CONTINUOUS
 62
    7
 10
125.48312176917278
 20
75.692956906536324
 40
0.4999954152751612
 50
0.0013885498046875
 51
179.99855041503906
  0
ARC
  8
_0-0_
  6
CONTINUOUS
 62
    7
 10
125.48312176917278
 20
75.092964824610647
 40
0.4999890842953244
 50
179.99855041503909
 51
0.0013885498047443
  0
TEXT
  8
_0-1_
 62
    7
 10
257.96874979594082
 20
123.37203069404984
 40
5
 41
1
 50
90
  1
51.2
  0
LINE
  8
_0-1_
  6
CONTINUOUS
 62
    7
 10
87.483164658741828
 20
229.51073383180955
 11
77.88036843597132
 21
229.51073383180955
  0
TEXT
  8
_0-1_
 62
    7
 10
77.88036843597132
 20
229.52031137044514
 40
5
 41
1
 50
0
  1
8
  0
LINE
  8
_0-1_
  6
CONTINUOUS
 62
    7
 10
173.08593943672776
 20
229.51073383180955
 11
163.48314321395725
 21
229.51073383180955
  0
TEXT
  8
_0-1_
 62
    7
 10
170.48706335970843
 20
229.43308732913709
 40
5
 41
1
 50
0
  1
2
  0
TEXT
  8
_0-1_
 62
    7
 10
152.70118791228401
 20
229.29170517136743
 40
5
 41
1
 50
0
  1
13.8
  0
TEXT
  8
_0-1_
 62
    7
 10
88.400582558638376
 20
229.65929878156857
 40
5
 41
1
 50
0
  1
13.8
  0
TEXT
  8
_0-1_
 62
    7
 10
120.07722119415286
 20
151.57609957978349
 40
5
 41
1
 50
0
  1
380
  0
LINE
  8
_0-1_
  6
CONTINUOUS
 62
    7
 10
265.52585494548072
 20
136.39295302997911
 11
265.52585494548072
 21
137.39295632917674
  0
POINT
  8
_0-1_
 62
    7
 10
265.52585494548072
 20
137.39295632917674
  0
POINT
  8
_0-1_
 62
    7
 10
265.52585494548072
 20
136.39295302997911
  0
POINT
  8
_0-1_
 62
    7
 10
265.52585494548072
 20
62.393083966885243
  0
LINE
  8
_0-1_
  6
CONTINUOUS
 62
    7
 10
265.52585494548072
 20
61.392953029979097
 11
265.52585494548072
 21
62.39294395718558
  0
POINT
  8
_0-1_
 62
    7
 10
265.52585494548072
 20
61.392953029979097
  0
LINE
  8
_0-1_
  6
CONTINUOUS
 62
    7
 10
265.52585494548072
 20
61.392953029979097
 11
265.52585494548072
 21
57.402608904801511
  0
TEXT
  8
_0-1_
 62
    7
 10
265.77510706344663
 20
57.266597145764521
 40
4
 41
1
 50
90
  1
5
  0
LINE
  8
_0-1_
  6
CONTINUOUS
 62
    7
 10
265.52585494548072
 20
141.3833004543543
 11
265.52585494548072
 21
137.39295632917671
  0
TEXT
  8
_0-1_
 62
    7
 10
265.58420866936518
 20
139.3826257056152
 40
4
 41
1
 50
90
  1
5
  0
TEXT
  8
_0-1_
 62
    7
 10
198.52552047149169
 20
95.700436816070379
 40
5
 41
1
 50
90
  1
380
  0
TEXT
  8
_0-1_
 62
    7
 10
69.015948239020503
 20
94.084452848820291
 40
5
 41
1
 50
90
  1
380
  0
TEXT
  8
_0-1_
 62
    7
 10
68.998553363162046
 20
197.38541412359012
 40
5
 41
1
 50
90
  1
159.2
  0
LINE
  8
_0-1_
  6
CONTINUOUS
 62
    7
 10
87.483164658741828
 20
229.51073383180955
 11
87.483164658741828
 21
221.7737556575928
  0
LINE
  8
_0-1_
  6
CONTINUOUS
 62
    7
 10
91.243161227576309
 20
229.51073383180955
 11
91.243161227576309
 21
223.71787065613393
  0
LINE
  8
_0-1_
  6
CONTINUOUS
 62
    7
 10
89.08316465874185
 20
229.51073383180955
 11
89.08316465874185
 21
221.7737556575928
  0
POINT
  8
_0-1_
 62
    7
 10
91.243161227576309
 20
225.05432741135655
  0
LINE
  8
_0-1_
  6
CONTINUOUS
 62
    7
 10
91.243161227576309
 20
225.05432741135655
 11
125.48307228120808
 21
225.05432741135655
  0
POINT
  8
_0-1_
 62
    7
 10
125.48307228120808
 20
225.05432741135655
  0
LINE
  8
_0-1_
  6
CONTINUOUS
 62
    7
 10
125.48307228120808
 20
225.05432741135655
 11
159.72315901711391
 21
225.05432741135655
  0
POINT
  8
_0-1_
 62
    7
 10
159.72315901711391
 20
225.05432741135655
  0
LINE
  8
_0-1_
  6
CONTINUOUS
 62
    7
 10
159.72314664512277
 20
229.51073383180955
 11
159.72314664512277
 21
223.71787065613393
  0
LINE
  8
_0-1_
  6
CONTINUOUS
 62
    7
 10
163.08311189735451
 20
229.51073383180955
 11
163.08311189735451
 21
221.7737556575928
  0
LINE
  8
_0-1_
  6
CONTINUOUS
 62
    7
 10
163.48314321395725
 20
229.51073383180955
 11
163.48314321395725
 21
221.7737556575928
  0
LINE
  8
_0-f_
  6
CONTINUOUS
 62
    7
 10
372.37030519851288
 20
33.304403297107143
 11
372.37030519851288
 21
7.3044364271090387
  0
LINE
  8
_0-f_
  6
CONTINUOUS
 62
    7
 10
407.87030519851288
 20
7.3044032971070862
 11
407.87030519851288
 21
284.30440329710711
  0
LINE
  8
_0-f_
  6
CONTINUOUS
 62
    7
 10
336.87030519851288
 20
284.30440329710711
 11
336.87030519851288
 21
7.3044032971070862
  0
LINE
  8
_0-f_
  6
CONTINUOUS
 62
    7
 10
336.87030519851288
 20
269.304403297107
 11
407.87030519851288
 21
269.304403297107
  0
LINE
  8
_0-f_
  6
CONTINUOUS
 62
    7
 10
336.87030519851288
 20
254.304403297107
 11
407.87030519851288
 21
254.304403297107
  0
LINE
  8
_0-f_
  6
CONTINUOUS
 62
    7
 10
336.87030519851288
 20
239.30440329710706
 11
407.87030519851288
 21
239.30440329710706
  0
LINE
  8
_0-f_
  6
CONTINUOUS
 62
    7
 10
336.87030519851288
 20
20.304403297107143
 11
407.87030519851288
 21
20.304403297107143
  0
LINE
  8
_0-f_
  6
CONTINUOUS
 62
    7
 10
336.87030519851288
 20
33.304403297107143
 11
407.87030519851288
 21
33.304403297107143
  0
LINE
  8
_0-f_
  6
CONTINUOUS
 62
    7
 10
336.87030519851288
 20
53.304403297107143
 11
407.87030519851288
 21
53.304403297107143
  0
TEXT
  8
_0-f_
 62
    7
 10
337.87030519851288
 20
266.304403297107
 40
2
 41
1
 50
0
  1
品　名　：
  0
TEXT
  8
_0-f_
 62
    7
 10
337.87030519851288
 20
251.304403297107
 40
2
 41
1
 50
0
  1
形　式　：
  0
TEXT
  8
_0-f_
 62
    7
 10
337.87030519851288
 20
236.30440329710706
 40
2
 41
1
 50
0
  1
仕　様　：
  0
TEXT
  8
_0-f_
 62
    7
 10
337.87030519851288
 20
50.304403297107143
 40
2
 41
1
 50
0
  1
図面名称　：
  0
TEXT
  8
_0-f_
 62
    7
 10
337.87030519851288
 20
30.304403297107143
 40
2
 41
1
 50
0
  1
尺　度　：
  0
TEXT
  8
_0-f_
 62
    7
 10
337.87030519851288
 20
17.304403297107086
 40
2
 41
1
 50
0
  1
サイズ　：
  0
TEXT
  8
_0-f_
 62
    7
 10
373.37030519851288
 20
30.304403297107143
 40
2
 41
1
 50
0
  1
作成日
  0
TEXT
  8
_0-f_
 62
    7
 10
373.37030519851288
 20
17.304403297107086
 40
2
 41
1
 50
0
  1
File Name ：
  0
TEXT
  8
_0-f_
 62
    7
 10
353.37030519851288
 20
12.554403297107086
 40
2.5
 41
1
 50
0
  1
A3
  0
TEXT
  8
_0-f_
 62
    7
 10
352.74530519851288
 20
25.554403297107143
 40
2.5
 41
1
 50
0
  1
1/5
  0
LINE
  8
_0-f_
  6
CONTINUOUS
 62
    7
 10
7.8703051985128241
 20
7.3044032971070862
 11
407.87030519851288
 21
7.3044032971070862
  0
LINE
  8
_0-f_
  6
CONTINUOUS
 62
    7
 10
407.87030519851288
 20
284.30440329710711
 11
7.8703051985128241
 21
284.30440329710711
  0
LINE
  8
_0-f_
  6
CONTINUOUS
 62
    7
 10
7.8703051985128241
 20
284.30440329710711
 11
7.8703051985128241
 21
7.3044032971070862
  0
TEXT
  8
_0-f_
 62
    7
 10
337.87030519851288
 20
232.30440329710706
 40
3
 41
1
 50
0
  1
①本体　ｽﾁｰﾙ　t1.2　ﾎﾟﾘｯｼｭﾎﾜｲﾄ　焼付塗装
  0
TEXT
  8
_0-f_
 62
    7
 10
349.49259225233897
 20
258.69709869031192
 40
5
 41
1
 50
0
  1
NDX-210
  0
CIRCLE
  8
_0-2_
  6
CONTINUOUS
 62
    7
 10
177.56143064212552
 20
215.01694031362683
 40
3.4095973463431131
  0
TEXT
  8
_0-2_
 62
    7
 10
175.58185377164239
 20
213.25904958265102
 40
4
 41
1
 50
0
  1
１
  0
LINE
  8
_0-2_
  6
CONTINUOUS
 62
    7
 10
174.61740968630727
 20
213.29702907292494
 11
158.43405362574782
 21
197.11367301236555
  0
CIRCLE
  8
_0-2_
  6
CONTINUOUS
 62
    7
 10
175.38393096802838
 20
106.55561731381738
 40
3.4095973463431131
  0
LINE
  8
_0-2_
  6
CONTINUOUS
 62
    7
 10
172.43991001221008
 20
104.83570607311549
 11
156.25655395165066
 21
88.65235001255607
  0
TEXT
  8
_0-2_
 62
    7
 10
173.40435409754525
 20
104.79772658284156
 40
4
 41
1
 50
0
  1
２
  0
TEXT
  8
_0-2_
 62
    7
 10
187.5
 20
22.810344827586192
 40
5
 41
1
 50
0
  1
※ご発注前にご収納されますＡＥＤ機器寸法をご確認下さい
  0
LINE
  8
_0-f_
  6
CONTINUOUS
 62
    7
 10
372.79593943451346
 20
276.77318442092627
 11
372.79593943451346
 21
277.14916042092625
  0
LINE
  8
_0-f_
  6
CONTINUOUS
 62
    7
 10
372.79593943451346
 20
277.14916042092625
 11
374.47593943451352
 21
277.14916042092625
  0
LINE
  8
_0-f_
  6
CONTINUOUS
 62
    7
 10
374.47593943451352
 20
277.14916042092625
 11
374.47593943451352
 21
277.46127242092621
  0
LINE
  8
_0-f_
  6
CONTINUOUS
 62
    7
 10
374.47593943451352
 20
277.46127242092621
 11
373.66877113621484
 21
277.46127242092621
  0
LINE
  8
_0-f_
  6
CONTINUOUS
 62
    7
 10
373.66877113621484
 20
277.46127242092621
 11
373.75990451134658
 21
277.82923601602522
  0
LINE
  8
_0-f_
  6
CONTINUOUS
 62
    7
 10
373.75990451134658
 20
277.82923601602522
 11
374.79593943451346
 21
277.82924042092623
  0
LINE
  8
_0-f_
  6
CONTINUOUS
 62
    7
 10
374.79593943451346
 20
277.82924042092623
 11
374.79593943451346
 21
278.2292404209262
  0
LINE
  8
_0-f_
  6
CONTINUOUS
 62
    7
 10
374.79593943451346
 20
278.2292404209262
 11
374.15908650199049
 21
278.2292404209262
  0
LINE
  8
_0-f_
  6
CONTINUOUS
 62
    7
 10
374.15908650199049
 20
278.2292404209262
 11
374.32393943451359
 21
278.51491242092629
  0
LINE
  8
_0-f_
  6
CONTINUOUS
 62
    7
 10
374.32393943451359
 20
278.51491242092629
 11
373.79352343451342
 21
278.82125642092626
  0
LINE
  8
_0-f_
  6
CONTINUOUS
 62
    7
 10
373.79352343451342
 20
278.82125642092626
 11
373.4511348077653
 21
278.2292404209262
  0
LINE
  8
_0-f_
  6
CONTINUOUS
 62
    7
 10
373.4511348077653
 20
278.2292404209262
 11
373.35594743451361
 21
278.2292404209262
  0
LINE
  8
_0-f_
  6
CONTINUOUS
 62
    7
 10
373.35594743451361
 20
278.2292404209262
 11
373.35594743451361
 21
278.82123242092626
  0
LINE
  8
_0-f_
  6
CONTINUOUS
 62
    7
 10
373.35594743451361
 20
278.82123242092626
 11
372.6359314345134
 21
278.82123242092626
  0
LINE
  8
_0-f_
  6
CONTINUOUS
 62
    7
 10
372.6359314345134
 20
278.82123242092626
 11
372.6359314345134
 21
278.2292404209262
  0
LINE
  8
_0-f_
  6
CONTINUOUS
 62
    7
 10
372.6359314345134
 20
278.2292404209262
 11
372.1559234345134
 21
278.2292404209262
  0
LINE
  8
_0-f_
  6
CONTINUOUS
 62
    7
 10
372.1559234345134
 20
278.2292404209262
 11
372.1559234345134
 21
278.82123242092626
  0
LINE
  8
_0-f_
  6
CONTINUOUS
 62
    7
 10
372.1559234345134
 20
278.82123242092626
 11
371.43593143451341
 21
278.82123242092626
  0
LINE
  8
_0-f_
  6
CONTINUOUS
 62
    7
 10
371.43593143451341
 20
278.82123242092626
 11
371.43593143451341
 21
278.2292404209262
  0
LINE
  8
_0-f_
  6
CONTINUOUS
 62
    7
 10
371.43593143451341
 20
278.2292404209262
 11
371.34071173564462
 21
278.2292404209262
  0
LINE
  8
_0-f_
  6
CONTINUOUS
 62
    7
 10
371.34071173564462
 20
278.2292404209262
 11
370.99911543451339
 21
278.82120042092629
  0
LINE
  8
_0-f_
  6
CONTINUOUS
 62
    7
 10
370.99911543451339
 20
278.82120042092629
 11
370.46873943451345
 21
278.51484842092623
  0
LINE
  8
_0-f_
  6
CONTINUOUS
 62
    7
 10
370.46873943451345
 20
278.51484842092623
 11
370.63359484654518
 21
278.2292404209262
  0
LINE
  8
_0-f_
  6
CONTINUOUS
 62
    7
 10
370.63359484654518
 20
278.2292404209262
 11
369.99593943451345
 21
278.2292404209262
  0
LINE
  8
_0-f_
  6
CONTINUOUS
 62
    7
 10
369.99593943451345
 20
278.2292404209262
 11
369.99593943451345
 21
277.82924042092623
  0
LINE
  8
_0-f_
  6
CONTINUOUS
 62
    7
 10
369.99593943451345
 20
277.82924042092623
 11
371.03272750486587
 21
277.82924042092623
  0
LINE
  8
_0-f_
  6
CONTINUOUS
 62
    7
 10
371.03272750486587
 20
277.82924042092623
 11
371.12310154004217
 21
277.46127242092621
  0
LINE
  8
_0-f_
  6
CONTINUOUS
 62
    7
 10
371.12310154004217
 20
277.46127242092621
 11
370.31593143451346
 21
277.46127242092621
  0
LINE
  8
_0-f_
  6
CONTINUOUS
 62
    7
 10
370.31593143451346
 20
277.46127242092621
 11
370.31593143451346
 21
277.14916042092625
  0
LINE
  8
_0-f_
  6
CONTINUOUS
 62
    7
 10
370.31593143451346
 20
277.14916042092625
 11
371.99591543451345
 21
277.14916042092625
  0
LINE
  8
_0-f_
  6
CONTINUOUS
 62
    7
 10
371.99591543451345
 20
277.14916042092625
 11
371.99591543451339
 21
276.77318442092627
  0
LINE
  8
_0-f_
  6
CONTINUOUS
 62
    7
 10
371.99591543451339
 20
276.77318442092627
 11
370.31593143451346
 21
276.77318442092627
  0
LINE
  8
_0-f_
  6
CONTINUOUS
 62
    7
 10
370.31593143451346
 20
276.77318442092627
 11
370.3159314345134
 21
276.45326442092619
  0
LINE
  8
_0-f_
  6
CONTINUOUS
 62
    7
 10
370.3159314345134
 20
276.45326442092619
 11
371.99591543451339
 21
276.45326442092619
  0
LINE
  8
_0-f_
  6
CONTINUOUS
 62
    7
 10
371.99591543451339
 20
276.45326442092619
 11
371.99591543451345
 21
276.07728842092627
  0
LINE
  8
_0-f_
  6
CONTINUOUS
 62
    7
 10
371.99591543451345
 20
276.07728842092627
 11
369.99593943451345
 21
276.07728842092627
  0
LINE
  8
_0-f_
  6
CONTINUOUS
 62
    7
 10
369.99593943451345
 20
276.07728842092627
 11
369.99593943451345
 21
275.67727242092622
  0
LINE
  8
_0-f_
  6
CONTINUOUS
 62
    7
 10
369.99593943451345
 20
275.67727242092622
 11
371.12561143451347
 21
275.67727242092622
  0
LINE
  8
_0-f_
  6
CONTINUOUS
 62
    7
 10
371.12561143451347
 20
275.67727242092622
 11
370.62953143451335
 21
275.18119242092627
  0
LINE
  8
_0-f_
  6
CONTINUOUS
 62
    7
 10
370.62953143451335
 20
275.18119242092627
 11
369.99593943451345
 21
275.18119242092627
  0
LINE
  8
_0-f_
  6
CONTINUOUS
 62
    7
 10
369.99593943451345
 20
275.18119242092627
 11
369.99593943451345
 21
274.82119242092625
  0
LINE
  8
_0-f_
  6
CONTINUOUS
 62
    7
 10
369.99593943451345
 20
274.82119242092625
 11
370.82745396826624
 21
274.82119242092625
  0
ARC
  8
_0-f_
  6
CONTINUOUS
 62
    7
 10
370.82745396826624
 20
275.22119242092623
 40
0.3999999999999995
 50
270
 51
314.98511379092588
  0
LINE
  8
_0-f_
  6
CONTINUOUS
 62
    7
 10
371.11022318487949
 20
274.93827623168295
 11
371.84960347609439
 21
275.67727242092622
  0
LINE
  8
_0-f_
  6
CONTINUOUS
 62
    7
 10
371.84960347609439
 20
275.67727242092622
 11
371.99591543451345
 21
275.67727242092622
  0
LINE
  8
_0-f_
  6
CONTINUOUS
 62
    7
 10
371.99591543451345
 20
275.67727242092622
 11
371.99591543451339
 21
274.82119242092625
  0
LINE
  8
_0-f_
  6
CONTINUOUS
 62
    7
 10
371.99591543451339
 20
274.82119242092625
 11
372.79593943451346
 21
274.82119242092625
  0
LINE
  8
_0-f_
  6
CONTINUOUS
 62
    7
 10
372.79593943451346
 20
274.82119242092625
 11
372.79593943451346
 21
275.67727242092622
  0
LINE
  8
_0-f_
  6
CONTINUOUS
 62
    7
 10
372.79593943451346
 20
275.67727242092622
 11
372.94305147176703
 21
275.67727242092622
  0
LINE
  8
_0-f_
  6
CONTINUOUS
 62
    7
 10
372.94305147176703
 20
275.67727242092622
 11
373.68156424178449
 21
274.93841558718952
  0
ARC
  8
_0-f_
  6
CONTINUOUS
 62
    7
 10
373.96447281765637
 20
275.22119242092623
 40
0.3999999999999968
 50
224.98665642058054
 51
270
  0
LINE
  8
_0-f_
  6
CONTINUOUS
 62
    7
 10
373.96447281765637
 20
274.82119242092625
 11
374.7959394345134
 21
274.82119242092625
  0
LINE
  8
_0-f_
  6
CONTINUOUS
 62
    7
 10
374.7959394345134
 20
274.82119242092625
 11
374.79593943451346
 21
275.18119242092627
  0
LINE
  8
_0-f_
  6
CONTINUOUS
 62
    7
 10
374.79593943451346
 20
275.18119242092627
 11
374.16320344612819
 21
275.18119242092627
  0
LINE
  8
_0-f_
  6
CONTINUOUS
 62
    7
 10
374.16320344612819
 20
275.18119242092627
 11
373.66705142289879
 21
275.67727242092622
  0
LINE
  8
_0-f_
  6
CONTINUOUS
 62
    7
 10
373.66705142289879
 20
275.67727242092622
 11
374.79593943451346
 21
275.67727242092622
  0
LINE
  8
_0-f_
  6
CONTINUOUS
 62
    7
 10
374.79593943451346
 20
275.67727242092622
 11
374.79593943451346
 21
276.07728842092627
  0
LINE
  8
_0-f_
  6
CONTINUOUS
 62
    7
 10
374.79593943451346
 20
276.07728842092627
 11
372.79593943451346
 21
276.07728842092627
  0
LINE
  8
_0-f_
  6
CONTINUOUS
 62
    7
 10
372.79593943451346
 20
276.07728842092627
 11
372.79593943451346
 21
276.45326442092619
  0
LINE
  8
_0-f_
  6
CONTINUOUS
 62
    7
 10
372.79593943451346
 20
276.45326442092619
 11
374.47593943451352
 21
276.45326442092619
  0
LINE
  8
_0-f_
  6
CONTINUOUS
 62
    7
 10
374.47593943451352
 20
276.45326442092619
 11
374.47593943451352
 21
276.77318442092627
  0
LINE
  8
_0-f_
  6
CONTINUOUS
 62
    7
 10
374.47593943451352
 20
276.77318442092627
 11
372.79593943451346
 21
276.77318442092627
  0
LINE
  8
_0-f_
  6
CONTINUOUS
 62
    7
 10
371.83992585121291
 20
277.46127242092621
 11
371.75432569308077
 21
277.82922748892247
  0
LINE
  8
_0-f_
  6
CONTINUOUS
 62
    7
 10
371.75432569308077
 20
277.82922748892247
 11
373.03834011368974
 21
277.82923294815589
  0
LINE
  8
_0-f_
  6
CONTINUOUS
 62
    7
 10
373.03834011368974
 20
277.82923294815589
 11
372.95274948662927
 21
277.46127242092621
  0
LINE
  8
_0-f_
  6
CONTINUOUS
 62
    7
 10
372.95274948662927
 20
277.46127242092621
 11
371.83992585121291
 21
277.46127242092621
  0
LINE
  8
_0-f_
  6
CONTINUOUS
 62
    7
 10
372.79593943451329
 20
276.78119242092623
 11
371.99591543451322
 21
276.78119242092623
  0
LINE
  8
_0-f_
  6
CONTINUOUS
 62
    7
 10
372.79593943451329
 20
276.86119242092627
 11
371.99591543451322
 21
276.86119242092627
  0
LINE
  8
_0-f_
  6
CONTINUOUS
 62
    7
 10
372.79593943451329
 20
276.9411924209262
 11
371.99591543451322
 21
276.9411924209262
  0
LINE
  8
_0-f_
  6
CONTINUOUS
 62
    7
 10
372.79593943451329
 20
277.02119242092624
 11
371.99591543451322
 21
277.02119242092624
  0
LINE
  8
_0-f_
  6
CONTINUOUS
 62
    7
 10
372.79593943451329
 20
277.10119242092622
 11
371.99591543451322
 21
277.10119242092622
  0
LINE
  8
_0-f_
  6
CONTINUOUS
 62
    7
 10
374.47593943451369
 20
277.18119242092621
 11
370.3159314345134
 21
277.18119242092621
  0
LINE
  8
_0-f_
  6
CONTINUOUS
 62
    7
 10
374.47593943451369
 20
277.26119242092625
 11
370.3159314345134
 21
277.26119242092625
  0
LINE
  8
_0-f_
  6
CONTINUOUS
 62
    7
 10
374.47593943451369
 20
277.34119242092629
 11
370.3159314345134
 21
277.34119242092629
  0
LINE
  8
_0-f_
  6
CONTINUOUS
 62
    7
 10
374.47593943451369
 20
277.42119242092627
 11
370.3159314345134
 21
277.42119242092627
  0
LINE
  8
_0-f_
  6
CONTINUOUS
 62
    7
 10
373.67865810433796
 20
277.50119242092626
 11
372.96203520501319
 21
277.50119242092626
  0
LINE
  8
_0-f_
  6
CONTINUOUS
 62
    7
 10
371.83063896101964
 20
277.50119242092626
 11
371.11329706931554
 21
277.50119242092626
  0
LINE
  8
_0-f_
  6
CONTINUOUS
 62
    7
 10
373.6984716677112
 20
277.5811924209263
 11
372.98064385908913
 21
277.5811924209263
  0
LINE
  8
_0-f_
  6
CONTINUOUS
 62
    7
 10
371.81202795862782
 20
277.5811924209263
 11
371.09364883138699
 21
277.5811924209263
  0
LINE
  8
_0-f_
  6
CONTINUOUS
 62
    7
 10
373.71828523108445
 20
277.66119242092623
 11
372.99925251316512
 21
277.66119242092623
  0
LINE
  8
_0-f_
  6
CONTINUOUS
 62
    7
 10
371.793416956236
 20
277.66119242092623
 11
371.07400059345844
 21
277.66119242092623
  0
LINE
  8
_0-f_
  6
CONTINUOUS
 62
    7
 10
373.73809879445764
 20
277.74119242092627
 11
373.01786116724111
 21
277.74119242092627
  0
LINE
  8
_0-f_
  6
CONTINUOUS
 62
    7
 10
371.77480595384418
 20
277.74119242092627
 11
371.05435235552983
 21
277.74119242092627
  0
LINE
  8
_0-f_
  6
CONTINUOUS
 62
    7
 10
373.75791235783095
 20
277.82119242092625
 11
373.03646982131716
 21
277.82119242092625
  0
LINE
  8
_0-f_
  6
CONTINUOUS
 62
    7
 10
371.75619495145224
 20
277.82119242092625
 11
371.03470411760122
 21
277.82119242092625
  0
LINE
  8
_0-f_
  6
CONTINUOUS
 62
    7
 10
374.79593943451357
 20
277.90119242092624
 11
369.99593943451333
 21
277.90119242092624
  0
LINE
  8
_0-f_
  6
CONTINUOUS
 62
    7
 10
374.79593943451357
 20
277.98119242092628
 11
369.99593943451333
 21
277.98119242092628
  0
LINE
  8
_0-f_
  6
CONTINUOUS
 62
    7
 10
374.79593943451357
 20
278.0611924209262
 11
369.99593943451333
 21
278.0611924209262
  0
LINE
  8
_0-f_
  6
CONTINUOUS
 62
    7
 10
374.79593943451357
 20
278.14119242092625
 11
369.99593943451333
 21
278.14119242092625
  0
LINE
  8
_0-f_
  6
CONTINUOUS
 62
    7
 10
374.79593943451357
 20
278.22119242092629
 11
369.99593943451333
 21
278.22119242092629
  0
LINE
  8
_0-f_
  6
CONTINUOUS
 62
    7
 10
374.20060789085915
 20
278.30119242092621
 11
373.4927477818602
 21
278.30119242092621
  0
LINE
  8
_0-f_
  6
CONTINUOUS
 62
    7
 10
373.3559474345135
 20
278.30119242092621
 11
372.63593143451317
 21
278.30119242092621
  0
LINE
  8
_0-f_
  6
CONTINUOUS
 62
    7
 10
372.15592343451328
 20
278.30119242092621
 11
371.43593143451352
 21
278.30119242092621
  0
LINE
  8
_0-f_
  6
CONTINUOUS
 62
    7
 10
371.29919113111237
 20
278.30119242092621
 11
370.59206352877243
 21
278.30119242092621
  0
LINE
  8
_0-f_
  6
CONTINUOUS
 62
    7
 10
374.24677354448232
 20
278.38119242092625
 11
373.53901526473209
 21
278.38119242092625
  0
LINE
  8
_0-f_
  6
CONTINUOUS
 62
    7
 10
373.3559474345135
 20
278.38119242092625
 11
372.63593143451317
 21
278.38119242092625
  0
LINE
  8
_0-f_
  6
CONTINUOUS
 62
    7
 10
372.15592343451328
 20
278.38119242092625
 11
371.43593143451352
 21
278.38119242092625
  0
LINE
  8
_0-f_
  6
CONTINUOUS
 62
    7
 10
371.25302634955528
 20
278.38119242092625
 11
370.54588683567374
 21
278.38119242092625
  0
LINE
  8
_0-f_
  6
CONTINUOUS
 62
    7
 10
374.2929391981055
 20
278.4611924209263
 11
373.58528274760391
 21
278.4611924209263
  0
LINE
  8
_0-f_
  6
CONTINUOUS
 62
    7
 10
373.3559474345135
 20
278.4611924209263
 11
372.63593143451317
 21
278.4611924209263
  0
LINE
  8
_0-f_
  6
CONTINUOUS
 62
    7
 10
372.15592343451328
 20
278.4611924209263
 11
371.43593143451352
 21
278.4611924209263
  0
LINE
  8
_0-f_
  6
CONTINUOUS
 62
    7
 10
371.20686156799826
 20
278.4611924209263
 11
370.499710142575
 21
278.4611924209263
  0
LINE
  8
_0-f_
  6
CONTINUOUS
 62
    7
 10
374.27843721321943
 20
278.54119242092628
 11
373.6315502304758
 21
278.54119242092628
  0
LINE
  8
_0-f_
  6
CONTINUOUS
 62
    7
 10
373.3559474345135
 20
278.54119242092628
 11
372.63593143451317
 21
278.54119242092628
  0
LINE
  8
_0-f_
  6
CONTINUOUS
 62
    7
 10
372.15592343451328
 20
278.54119242092628
 11
371.43593143451352
 21
278.54119242092628
  0
LINE
  8
_0-f_
  6
CONTINUOUS
 62
    7
 10
371.16069678644124
 20
278.54119242092628
 11
370.51434783708305
 21
278.54119242092628
  0
LINE
  8
_0-f_
  6
CONTINUOUS
 62
    7
 10
374.1399220799052
 20
278.62119242092626
 11
373.67781771334762
 21
278.62119242092626
  0
LINE
  8
_0-f_
  6
CONTINUOUS
 62
    7
 10
373.3559474345135
 20
278.62119242092626
 11
372.63593143451317
 21
278.62119242092626
  0
LINE
  8
_0-f_
  6
CONTINUOUS
 62
    7
 10
372.15592343451328
 20
278.62119242092626
 11
371.43593143451352
 21
278.62119242092626
  0
LINE
  8
_0-f_
  6
CONTINUOUS
 62
    7
 10
371.11453200488415
 20
278.62119242092626
 11
370.65284890774677
 21
278.62119242092626
  0
LINE
  8
_0-f_
  6
CONTINUOUS
 62
    7
 10
374.00140694659103
 20
278.7011924209263
 11
373.72408519621945
 21
278.7011924209263
  0
LINE
  8
_0-f_
  6
CONTINUOUS
 62
    7
 10
373.3559474345135
 20
278.7011924209263
 11
372.63593143451317
 21
278.7011924209263
  0
LINE
  8
_0-f_
  6
CONTINUOUS
 62
    7
 10
372.15592343451328
 20
278.7011924209263
 11
371.43593143451352
 21
278.7011924209263
  0
LINE
  8
_0-f_
  6
CONTINUOUS
 62
    7
 10
371.06836722332719
 20
278.7011924209263
 11
370.79134997841061
 21
278.7011924209263
  0
LINE
  8
_0-f_
  6
CONTINUOUS
 62
    7
 10
373.8628918132768
 20
278.78119242092623
 11
373.77035267909127
 21
278.78119242092623
  0
LINE
  8
_0-f_
  6
CONTINUOUS
 62
    7
 10
373.3559474345135
 20
278.78119242092623
 11
372.63593143451317
 21
278.78119242092623
  0
LINE
  8
_0-f_
  6
CONTINUOUS
 62
    7
 10
372.15592343451328
 20
278.78119242092623
 11
371.43593143451352
 21
278.78119242092623
  0
LINE
  8
_0-f_
  6
CONTINUOUS
 62
    7
 10
371.02220244177016
 20
278.78119242092623
 11
370.92985104907439
 21
278.78119242092623
  0
LINE
  8
_0-f_
  6
CONTINUOUS
 62
    7
 10
374.47593943451352
 20
276.70119242092625
 11
370.31593143451312
 21
276.70119242092625
  0
LINE
  8
_0-f_
  6
CONTINUOUS
 62
    7
 10
374.47593943451352
 20
276.62119242092626
 11
370.31593143451312
 21
276.62119242092626
  0
LINE
  8
_0-f_
  6
CONTINUOUS
 62
    7
 10
374.47593943451352
 20
276.54119242092622
 11
370.31593143451312
 21
276.54119242092622
  0
LINE
  8
_0-f_
  6
CONTINUOUS
 62
    7
 10
374.47593943451352
 20
276.46119242092618
 11
370.31593143451312
 21
276.46119242092618
  0
LINE
  8
_0-f_
  6
CONTINUOUS
 62
    7
 10
372.79593943451329
 20
276.38119242092625
 11
371.99591543451334
 21
276.38119242092625
  0
LINE
  8
_0-f_
  6
CONTINUOUS
 62
    7
 10
372.79593943451329
 20
276.30119242092621
 11
371.99591543451334
 21
276.30119242092621
  0
LINE
  8
_0-f_
  6
CONTINUOUS
 62
    7
 10
372.79593943451329
 20
276.22119242092617
 11
371.99591543451334
 21
276.22119242092617
  0
LINE
  8
_0-f_
  6
CONTINUOUS
 62
    7
 10
372.79593943451329
 20
276.14119242092625
 11
371.99591543451339
 21
276.14119242092625
  0
LINE
  8
_0-f_
  6
CONTINUOUS
 62
    7
 10
374.79593943451334
 20
276.0611924209262
 11
369.99593943451362
 21
276.0611924209262
  0
LINE
  8
_0-f_
  6
CONTINUOUS
 62
    7
 10
374.79593943451334
 20
275.98119242092622
 11
369.99593943451362
 21
275.98119242092622
  0
LINE
  8
_0-f_
  6
CONTINUOUS
 62
    7
 10
374.79593943451334
 20
275.90119242092624
 11
369.99593943451362
 21
275.90119242092624
  0
LINE
  8
_0-f_
  6
CONTINUOUS
 62
    7
 10
374.79593943451334
 20
275.8211924209262
 11
369.99593943451362
 21
275.8211924209262
  0
LINE
  8
_0-f_
  6
CONTINUOUS
 62
    7
 10
374.79593943451334
 20
275.74119242092627
 11
369.99593943451362
 21
275.74119242092627
  0
LINE
  8
_0-f_
  6
CONTINUOUS
 62
    7
 10
373.68313375746891
 20
275.66119242092623
 11
372.95912398378778
 21
275.66119242092623
  0
LINE
  8
_0-f_
  6
CONTINUOUS
 62
    7
 10
372.79593943451334
 20
275.66119242092623
 11
371.99591543451339
 21
275.66119242092623
  0
LINE
  8
_0-f_
  6
CONTINUOUS
 62
    7
 10
371.83351511832518
 20
275.66119242092623
 11
371.10953143451343
 21
275.66119242092623
  0
LINE
  8
_0-f_
  6
CONTINUOUS
 62
    7
 10
373.76314537224545
 20
275.58119242092624
 11
373.03908673015991
 21
275.58119242092624
  0
LINE
  8
_0-f_
  6
CONTINUOUS
 62
    7
 10
372.79593943451334
 20
275.58119242092624
 11
371.99591543451339
 21
275.58119242092624
  0
LINE
  8
_0-f_
  6
CONTINUOUS
 62
    7
 10
371.75347353738312
 20
275.58119242092624
 11
371.02953143451339
 21
275.58119242092624
  0
LINE
  8
_0-f_
  6
CONTINUOUS
 62
    7
 10
373.84315698702198
 20
275.50119242092626
 11
373.11904947653204
 21
275.50119242092626
  0
LINE
  8
_0-f_
  6
CONTINUOUS
 62
    7
 10
372.79593943451334
 20
275.50119242092626
 11
371.99591543451339
 21
275.50119242092626
  0
LINE
  8
_0-f_
  6
CONTINUOUS
 62
    7
 10
371.67343195644105
 20
275.50119242092626
 11
370.94953143451335
 21
275.50119242092626
  0
LINE
  8
_0-f_
  6
CONTINUOUS
 62
    7
 10
373.92316860179858
 20
275.42119242092622
 11
373.19901222290412
 21
275.42119242092622
  0
LINE
  8
_0-f_
  6
CONTINUOUS
 62
    7
 10
372.79593943451334
 20
275.42119242092622
 11
371.99591543451339
 21
275.42119242092622
  0
LINE
  8
_0-f_
  6
CONTINUOUS
 62
    7
 10
371.59339037549898
 20
275.42119242092622
 11
370.86953143451336
 21
275.42119242092622
  0
LINE
  8
_0-f_
  6
CONTINUOUS
 62
    7
 10
374.00318021657506
 20
275.34119242092618
 11
373.27897496927631
 21
275.34119242092618
  0
LINE
  8
_0-f_
  6
CONTINUOUS
 62
    7
 10
372.79593943451334
 20
275.34119242092618
 11
371.99591543451339
 21
275.34119242092618
  0
LINE
  8
_0-f_
  6
CONTINUOUS
 62
    7
 10
371.51334879455692
 20
275.34119242092618
 11
370.78953143451338
 21
275.34119242092618
  0
LINE
  8
_0-f_
  6
CONTINUOUS
 62
    7
 10
374.08319183135166
 20
275.26119242092619
 11
373.35893771564838
 21
275.26119242092619
  0
LINE
  8
_0-f_
  6
CONTINUOUS
 62
    7
 10
372.79593943451334
 20
275.26119242092619
 11
371.99591543451339
 21
275.26119242092619
  0
LINE
  8
_0-f_
  6
CONTINUOUS
 62
    7
 10
371.43330721361485
 20
275.26119242092619
 11
370.70953143451334
 21
275.26119242092619
  0
LINE
  8
_0-f_
  6
CONTINUOUS
 62
    7
 10
374.79593943451346
 20
275.18119242092621
 11
374.16320344612819
 21
275.18119242092621
  0
LINE
  8
_0-f_
  6
CONTINUOUS
 62
    7
 10
370.6295314345133
 20
275.18119242092621
 11
369.99593943451345
 21
275.18119242092621
  0
LINE
  8
_0-f_
  6
CONTINUOUS
 62
    7
 10
374.79593943451346
 20
275.10119242092617
 11
373.51886320839264
 21
275.10119242092617
  0
LINE
  8
_0-f_
  6
CONTINUOUS
 62
    7
 10
372.79593943451334
 20
275.10119242092617
 11
371.99591543451339
 21
275.10119242092617
  0
LINE
  8
_0-f_
  6
CONTINUOUS
 62
    7
 10
371.27322405173078
 20
275.10119242092617
 11
369.99593943451345
 21
275.10119242092617
  0
LINE
  8
_0-f_
  6
CONTINUOUS
 62
    7
 10
374.79593943451346
 20
275.02119242092624
 11
373.59882595476478
 21
275.02119242092624
  0
LINE
  8
_0-f_
  6
CONTINUOUS
 62
    7
 10
372.79593943451334
 20
275.02119242092624
 11
371.99591543451339
 21
275.02119242092624
  0
LINE
  8
_0-f_
  6
CONTINUOUS
 62
    7
 10
371.19318247078871
 20
275.02119242092624
 11
369.99593943451345
 21
275.02119242092624
  0
LINE
  8
_0-f_
  6
CONTINUOUS
 62
    7
 10
374.79593943451346
 20
274.9411924209262
 11
373.67878870113691
 21
274.9411924209262
  0
LINE
  8
_0-f_
  6
CONTINUOUS
 62
    7
 10
372.79593943451334
 20
274.9411924209262
 11
371.99591543451339
 21
274.9411924209262
  0
LINE
  8
_0-f_
  6
CONTINUOUS
 62
    7
 10
371.11314088984659
 20
274.9411924209262
 11
369.99593943451345
 21
274.9411924209262
  0
LINE
  8
_0-f_
  6
CONTINUOUS
 62
    7
 10
374.79593943451346
 20
274.86119242092622
 11
373.79157596292725
 21
274.86119242092622
  0
LINE
  8
_0-f_
  6
CONTINUOUS
 62
    7
 10
372.79593943451334
 20
274.86119242092622
 11
371.99591543451334
 21
274.86119242092622
  0
LINE
  8
_0-f_
  6
CONTINUOUS
 62
    7
 10
371.0003646249736
 20
274.86119242092622
 11
369.99593943451345
 21
274.86119242092622
  0
LINE
  8
_0-f_
  6
CONTINUOUS
 62
    7
 10
371.34073943451358
 20
278.22919242092621
 11
370.99911543451339
 21
278.82120042092629
  0
LINE
  8
_0-f_
  6
CONTINUOUS
 62
    7
 10
370.31593143451346
 20
277.14916042092625
 11
371.99591543451345
 21
277.14916042092625
  0
LINE
  8
_0-f_
  6
CONTINUOUS
 62
    7
 10
370.31593143451346
 20
276.77318442092627
 11
371.99591543451345
 21
276.77318442092627
  0
LINE
  8
_0-f_
  6
CONTINUOUS
 62
    7
 10
370.31593143451346
 20
276.45326442092619
 11
371.99591543451345
 21
276.45326442092619
  0
LINE
  8
_0-f_
  6
CONTINUOUS
 62
    7
 10
369.99593943451345
 20
276.07728842092627
 11
371.99591543451345
 21
276.07728842092627
  0
LINE
  8
_0-f_
  6
CONTINUOUS
 62
    7
 10
371.11022318487949
 20
274.93827623168295
 11
371.84960347609439
 21
275.67727242092622
  0
LINE
  8
_0-f_
  6
CONTINUOUS
 62
    7
 10
369.99593943451345
 20
275.67727242092622
 11
371.12561143451342
 21
275.67727242092622
  0
LINE
  8
_0-f_
  6
CONTINUOUS
 62
    7
 10
369.99593943451345
 20
275.18119242092627
 11
370.62953143451335
 21
275.18119242092627
  0
LINE
  8
_0-f_
  6
CONTINUOUS
 62
    7
 10
369.99593943451345
 20
274.82119242092625
 11
370.82745396826624
 21
274.82119242092625
  0
LINE
  8
_0-f_
  6
CONTINUOUS
 62
    7
 10
369.99593943451345
 20
276.07728842092627
 11
369.99593943451345
 21
275.67727242092622
  0
LINE
  8
_0-f_
  6
CONTINUOUS
 62
    7
 10
369.99593943451345
 20
275.18119242092627
 11
369.99593943451345
 21
274.82119242092625
  0
LINE
  8
_0-f_
  6
CONTINUOUS
 62
    7
 10
370.62953143451335
 20
275.18119242092627
 11
371.12561143451342
 21
275.67727242092622
  0
ARC
  8
_0-f_
  6
CONTINUOUS
 62
    7
 10
370.82745396826624
 20
275.22119242092623
 40
0.4
 50
270.0000000000004
 51
314.98511379092611
  0
LINE
  8
_0-f_
  6
CONTINUOUS
 62
    7
 10
371.12553143451345
 20
275.67727242092622
 11
371.12561143451342
 21
275.67727242092622
  0
LINE
  8
_0-f_
  6
CONTINUOUS
 62
    7
 10
370.31593143451346
 20
276.77318442092627
 11
370.3159314345134
 21
276.45326442092619
  0
LINE
  8
_0-f_
  6
CONTINUOUS
 62
    7
 10
369.99593943451345
 20
278.2292404209262
 11
370.63359484654518
 21
278.2292404209262
  0
LINE
  8
_0-f_
  6
CONTINUOUS
 62
    7
 10
369.99593943451345
 20
277.82924042092623
 11
371.03273143451349
 21
277.82924042092623
  0
LINE
  8
_0-f_
  6
CONTINUOUS
 62
    7
 10
369.99593943451345
 20
278.2292404209262
 11
369.99593943451345
 21
277.82924042092623
  0
LINE
  8
_0-f_
  6
CONTINUOUS
 62
    7
 10
370.63359484654518
 20
278.2292404209262
 11
370.46873943451345
 21
278.51484842092623
  0
LINE
  8
_0-f_
  6
CONTINUOUS
 62
    7
 10
370.31593143451346
 20
277.46127242092621
 11
371.12310743451349
 21
277.46127242092621
  0
LINE
  8
_0-f_
  6
CONTINUOUS
 62
    7
 10
370.31593143451346
 20
277.46127242092621
 11
370.31593143451346
 21
277.14916042092625
  0
LINE
  8
_0-f_
  6
CONTINUOUS
 62
    7
 10
371.03273143451349
 20
277.82922442092627
 11
371.12310743451349
 21
277.46124842092627
  0
LINE
  8
_0-f_
  6
CONTINUOUS
 62
    7
 10
370.46873943451345
 20
278.51484842092623
 11
370.99911543451339
 21
278.82120042092629
  0
LINE
  8
_0-f_
  6
CONTINUOUS
 62
    7
 10
372.79593943451346
 20
277.14916042092625
 11
372.79593943451346
 21
276.77318442092627
  0
LINE
  8
_0-f_
  6
CONTINUOUS
 62
    7
 10
371.99591543451345
 20
277.14916042092625
 11
371.99591543451339
 21
276.77318442092627
  0
LINE
  8
_0-f_
  6
CONTINUOUS
 62
    7
 10
372.79593943451346
 20
276.77318442092627
 11
374.47593943451352
 21
276.77318442092627
  0
LINE
  8
_0-f_
  6
CONTINUOUS
 62
    7
 10
373.68156424178449
 20
274.93841558718952
 11
372.94305147176703
 21
275.67727242092622
  0
LINE
  8
_0-f_
  6
CONTINUOUS
 62
    7
 10
372.79593943451346
 20
276.07728842092627
 11
374.79593943451346
 21
276.07728842092627
  0
LINE
  8
_0-f_
  6
CONTINUOUS
 62
    7
 10
372.79593943451346
 20
276.45326442092619
 11
374.47593943451352
 21
276.45326442092619
  0
LINE
  8
_0-f_
  6
CONTINUOUS
 62
    7
 10
371.99591543451345
 20
274.82119242092625
 11
372.79593943451346
 21
274.82119242092625
  0
LINE
  8
_0-f_
  6
CONTINUOUS
 62
    7
 10
371.84960347609439
 20
275.67727242092622
 11
371.99591543451345
 21
275.67727242092622
  0
LINE
  8
_0-f_
  6
CONTINUOUS
 62
    7
 10
371.99591543451345
 20
275.67727242092622
 11
371.99591543451345
 21
274.82119242092625
  0
LINE
  8
_0-f_
  6
CONTINUOUS
 62
    7
 10
371.99591543451339
 20
276.45326442092619
 11
371.99591543451345
 21
276.07728842092627
  0
LINE
  8
_0-f_
  6
CONTINUOUS
 62
    7
 10
372.79593943451346
 20
275.67727242092622
 11
372.94305147176703
 21
275.67727242092622
  0
LINE
  8
_0-f_
  6
CONTINUOUS
 62
    7
 10
372.79593943451346
 20
275.67727242092622
 11
372.79593943451346
 21
274.82119242092625
  0
LINE
  8
_0-f_
  6
CONTINUOUS
 62
    7
 10
372.79593943451346
 20
276.45326442092619
 11
372.79593943451346
 21
276.07728842092627
  0
LINE
  8
_0-f_
  6
CONTINUOUS
 62
    7
 10
373.96447281765637
 20
274.82119242092625
 11
374.79593943451346
 21
274.82119242092625
  0
LINE
  8
_0-f_
  6
CONTINUOUS
 62
    7
 10
374.16320344612819
 20
275.18119242092627
 11
374.79593943451346
 21
275.18119242092627
  0
LINE
  8
_0-f_
  6
CONTINUOUS
 62
    7
 10
373.66705142289879
 20
275.67727242092622
 11
374.79593943451346
 21
275.67727242092622
  0
LINE
  8
_0-f_
  6
CONTINUOUS
 62
    7
 10
374.16320344612819
 20
275.18119242092627
 11
373.66705142289879
 21
275.67727242092622
  0
ARC
  8
_0-f_
  6
CONTINUOUS
 62
    7
 10
373.96447281765637
 20
275.22119242092623
 40
0.4
 50
224.98665642058006
 51
269.9999999999996
  0
LINE
  8
_0-f_
  6
CONTINUOUS
 62
    7
 10
374.47593943451352
 20
276.77318442092621
 11
374.47593943451352
 21
276.45326442092619
  0
LINE
  8
_0-f_
  6
CONTINUOUS
 62
    7
 10
374.79593943451346
 20
276.07728842092627
 11
374.79593943451346
 21
275.67727242092622
  0
LINE
  8
_0-f_
  6
CONTINUOUS
 62
    7
 10
374.79593943451346
 20
275.18119242092627
 11
374.7959394345134
 21
274.82119242092625
  0
LINE
  8
_0-f_
  6
CONTINUOUS
 62
    7
 10
372.79593943451346
 20
277.14916042092625
 11
374.47593943451352
 21
277.14916042092625
  0
LINE
  8
_0-f_
  6
CONTINUOUS
 62
    7
 10
373.35594743451361
 20
278.2292404209262
 11
373.4511348077653
 21
278.2292404209262
  0
LINE
  8
_0-f_
  6
CONTINUOUS
 62
    7
 10
372.1559234345134
 20
278.2292404209262
 11
372.6359314345134
 21
278.2292404209262
  0
LINE
  8
_0-f_
  6
CONTINUOUS
 62
    7
 10
371.75432569308077
 20
277.82922748892247
 11
373.03834011368974
 21
277.82923294815589
  0
LINE
  8
_0-f_
  6
CONTINUOUS
 62
    7
 10
371.83992585121291
 20
277.46127242092621
 11
372.95274948662927
 21
277.46127242092621
  0
LINE
  8
_0-f_
  6
CONTINUOUS
 62
    7
 10
372.1559234345134
 20
278.82123242092626
 11
372.1559234345134
 21
278.2292404209262
  0
LINE
  8
_0-f_
  6
CONTINUOUS
 62
    7
 10
371.43593143451341
 20
278.82123242092626
 11
371.43593143451341
 21
278.2292404209262
  0
LINE
  8
_0-f_
  6
CONTINUOUS
 62
    7
 10
371.75432569308077
 20
277.82922748892247
 11
371.83993143451357
 21
277.46124842092627
  0
LINE
  8
_0-f_
  6
CONTINUOUS
 62
    7
 10
371.34071173564462
 20
278.2292404209262
 11
371.43593143451341
 21
278.2292404209262
  0
LINE
  8
_0-f_
  6
CONTINUOUS
 62
    7
 10
371.43593143451341
 20
278.82123242092626
 11
372.1559234345134
 21
278.82123242092626
  0
LINE
  8
_0-f_
  6
CONTINUOUS
 62
    7
 10
373.35594743451361
 20
278.82123242092626
 11
373.35594743451361
 21
278.2292404209262
  0
LINE
  8
_0-f_
  6
CONTINUOUS
 62
    7
 10
372.6359314345134
 20
278.82123242092626
 11
372.6359314345134
 21
278.2292404209262
  0
LINE
  8
_0-f_
  6
CONTINUOUS
 62
    7
 10
373.03834743451347
 20
277.82926442092628
 11
372.95272343451359
 21
277.46116042092626
  0
LINE
  8
_0-f_
  6
CONTINUOUS
 62
    7
 10
372.6359314345134
 20
278.82123242092626
 11
373.35594743451361
 21
278.82123242092626
  0
LINE
  8
_0-f_
  6
CONTINUOUS
 62
    7
 10
373.75990451134658
 20
277.82923601602522
 11
374.7959394345134
 21
277.82924042092623
  0
LINE
  8
_0-f_
  6
CONTINUOUS
 62
    7
 10
374.15908650199049
 20
278.2292404209262
 11
374.79593943451346
 21
278.2292404209262
  0
LINE
  8
_0-f_
  6
CONTINUOUS
 62
    7
 10
374.15908650199049
 20
278.2292404209262
 11
374.32393943451359
 21
278.51491242092629
  0
LINE
  8
_0-f_
  6
CONTINUOUS
 62
    7
 10
373.4511348077653
 20
278.2292404209262
 11
373.79352343451353
 21
278.82125642092626
  0
LINE
  8
_0-f_
  6
CONTINUOUS
 62
    7
 10
373.66877113621484
 20
277.46127242092621
 11
374.47593943451352
 21
277.46127242092621
  0
LINE
  8
_0-f_
  6
CONTINUOUS
 62
    7
 10
373.75992343451344
 20
277.82931242092627
 11
373.66873943451344
 21
277.46114442092619
  0
LINE
  8
_0-f_
  6
CONTINUOUS
 62
    7
 10
374.47593943451352
 20
277.46127242092621
 11
374.47593943451352
 21
277.14916042092625
  0
LINE
  8
_0-f_
  6
CONTINUOUS
 62
    7
 10
374.32393943451359
 20
278.51491242092629
 11
373.79352343451353
 21
278.82125642092626
  0
LINE
  8
_0-f_
  6
CONTINUOUS
 62
    7
 10
374.79593943451346
 20
278.2292404209262
 11
374.79593943451346
 21
277.82924042092623
  0
LINE
  8
_0-f_
  6
CONTINUOUS
 62
    7
 10
374.16320344612825
 20
275.18119242092621
 11
373.43890046202057
 21
275.18119242092621
  0
LINE
  8
_0-f_
  6
CONTINUOUS
 62
    7
 10
372.79593943451346
 20
275.18119242092621
 11
371.99591543451339
 21
275.18119242092621
  0
LINE
  8
_0-f_
  6
CONTINUOUS
 62
    7
 10
371.35326563267267
 20
275.18119242092621
 11
370.6295314345133
 21
275.18119242092621
  0
LINE
  8
_0-f_
  6
CONTINUOUS
 62
    7
 10
377.14786848983454
 20
277.70131242092623
 11
377.14786848983454
 21
278.14135242092624
  0
LINE
  8
_0-f_
  6
CONTINUOUS
 62
    7
 10
377.14786848983454
 20
278.14135242092624
 11
376.47987648983462
 21
278.14135242092624
  0
LINE
  8
_0-f_
  6
CONTINUOUS
 62
    7
 10
376.47987648983462
 20
278.14135242092624
 11
376.47987648983462
 21
278.82123242092626
  0
LINE
  8
_0-f_
  6
CONTINUOUS
 62
    7
 10
376.47987648983462
 20
278.82123242092626
 11
375.95986048983457
 21
278.82123242092626
  0
LINE
  8
_0-f_
  6
CONTINUOUS
 62
    7
 10
375.95986048983457
 20
278.82123242092626
 11
375.95986048983457
 21
278.14135242092624
  0
LINE
  8
_0-f_
  6
CONTINUOUS
 62
    7
 10
375.95986048983457
 20
278.14135242092624
 11
375.28388448983458
 21
278.14135242092624
  0
LINE
  8
_0-f_
  6
CONTINUOUS
 62
    7
 10
375.28388448983458
 20
278.14135242092624
 11
375.28388448983458
 21
277.70131242092623
  0
LINE
  8
_0-f_
  6
CONTINUOUS
 62
    7
 10
375.28388448983458
 20
277.70131242092623
 11
375.96321806543756
 21
277.70131242092623
  0
LINE
  8
_0-f_
  6
CONTINUOUS
 62
    7
 10
375.96321806543756
 20
277.70131242092623
 11
375.2621529552074
 21
276.01420042092627
  0
LINE
  8
_0-f_
  6
CONTINUOUS
 62
    7
 10
375.2621529552074
 20
276.01420042092627
 11
375.20387648983456
 21
276.01420042092627
  0
LINE
  8
_0-f_
  6
CONTINUOUS
 62
    7
 10
375.20387648983456
 20
276.01420042092627
 11
375.20387648983456
 21
275.53431242092626
  0
LINE
  8
_0-f_
  6
CONTINUOUS
 62
    7
 10
375.20387648983456
 20
275.53431242092626
 11
375.40207057206896
 21
275.53431242092626
  0
ARC
  8
_0-f_
  6
CONTINUOUS
 62
    7
 10
375.40207057206896
 20
275.73431242092624
 40
0.2
 50
270
 51
338.12209204226002
  0
LINE
  8
_0-f_
  6
CONTINUOUS
 62
    7
 10
375.5876665722958
 20
275.65978642076652
 11
375.95986048983457
 21
276.5866804209262
  0
LINE
  8
_0-f_
  6
CONTINUOUS
 62
    7
 10
375.95986048983457
 20
276.5866804209262
 11
375.95986048983457
 21
274.82119242092625
  0
LINE
  8
_0-f_
  6
CONTINUOUS
 62
    7
 10
375.95986048983457
 20
274.82119242092625
 11
376.47987648983462
 21
274.82119242092625
  0
LINE
  8
_0-f_
  6
CONTINUOUS
 62
    7
 10
376.47987648983462
 20
274.82119242092625
 11
376.47987648983462
 21
276.5919924209262
  0
LINE
  8
_0-f_
  6
CONTINUOUS
 62
    7
 10
376.47987648983462
 20
276.5919924209262
 11
376.75787245725996
 21
275.86304575183135
  0
ARC
  8
_0-f_
  6
CONTINUOUS
 62
    7
 10
376.94474423649945
 20
275.93431242092623
 40
0.200000000000003
 50
200.87518418962418
 51
270
  0
LINE
  8
_0-f_
  6
CONTINUOUS
 62
    7
 10
376.94474423649945
 20
275.73431242092624
 11
377.22787648983456
 21
275.73431242092624
  0
LINE
  8
_0-f_
  6
CONTINUOUS
 62
    7
 10
377.22787648983456
 20
275.73431242092624
 11
377.22787648983456
 21
276.21420042092626
  0
LINE
  8
_0-f_
  6
CONTINUOUS
 62
    7
 10
377.22787648983456
 20
276.21420042092626
 11
377.08362463946548
 21
276.21420042092626
  0
LINE
  8
_0-f_
  6
CONTINUOUS
 62
    7
 10
377.08362463946548
 20
276.21420042092626
 11
376.47659789426314
 21
277.70131242092623
  0
LINE
  8
_0-f_
  6
CONTINUOUS
 62
    7
 10
376.47659789426314
 20
277.70131242092623
 11
377.14786848983454
 21
277.70131242092623
  0
LINE
  8
_0-f_
  6
CONTINUOUS
 62
    7
 10
378.98388448983462
 20
277.02943242092624
 11
378.98388448983462
 21
277.70131242092623
  0
LINE
  8
_0-f_
  6
CONTINUOUS
 62
    7
 10
378.98388448983462
 20
277.70131242092623
 11
380.00387648983462
 21
277.70131242092623
  0
LINE
  8
_0-f_
  6
CONTINUOUS
 62
    7
 10
380.00387648983462
 20
277.70131242092623
 11
380.00387648983462
 21
278.14135242092624
  0
LINE
  8
_0-f_
  6
CONTINUOUS
 62
    7
 10
380.00387648983462
 20
278.14135242092624
 11
378.98388448983462
 21
278.14135242092624
  0
LINE
  8
_0-f_
  6
CONTINUOUS
 62
    7
 10
378.98388448983462
 20
278.14135242092624
 11
378.98388448983462
 21
278.82123242092626
  0
LINE
  8
_0-f_
  6
CONTINUOUS
 62
    7
 10
378.98388448983462
 20
278.82123242092626
 11
378.46388448983464
 21
278.82123242092626
  0
LINE
  8
_0-f_
  6
CONTINUOUS
 62
    7
 10
378.46388448983464
 20
278.82123242092626
 11
378.46388448983464
 21
278.14135242092624
  0
LINE
  8
_0-f_
  6
CONTINUOUS
 62
    7
 10
378.46388448983464
 20
278.14135242092624
 11
377.99986848983451
 21
278.14135242092624
  0
LINE
  8
_0-f_
  6
CONTINUOUS
 62
    7
 10
377.99986848983451
 20
278.14135242092624
 11
377.99986848983451
 21
278.82123242092626
  0
LINE
  8
_0-f_
  6
CONTINUOUS
 62
    7
 10
377.99986848983451
 20
278.82123242092626
 11
377.49986848983451
 21
278.82123242092626
  0
LINE
  8
_0-f_
  6
CONTINUOUS
 62
    7
 10
377.49986848983451
 20
278.82123242092626
 11
377.49986848983451
 21
277.70131242092623
  0
LINE
  8
_0-f_
  6
CONTINUOUS
 62
    7
 10
377.49986848983451
 20
277.70131242092623
 11
378.46388448983464
 21
277.70131242092623
  0
LINE
  8
_0-f_
  6
CONTINUOUS
 62
    7
 10
378.46388448983464
 20
277.70131242092623
 11
378.46388448983464
 21
277.02943242092624
  0
LINE
  8
_0-f_
  6
CONTINUOUS
 62
    7
 10
378.46388448983464
 20
277.02943242092624
 11
377.49986848983451
 21
277.02943242092624
  0
LINE
  8
_0-f_
  6
CONTINUOUS
 62
    7
 10
377.49986848983451
 20
277.02943242092624
 11
377.49986848983451
 21
276.58939242092629
  0
LINE
  8
_0-f_
  6
CONTINUOUS
 62
    7
 10
377.49986848983451
 20
276.58939242092629
 11
378.17265011331619
 21
276.58939242092629
  0
LINE
  8
_0-f_
  6
CONTINUOUS
 62
    7
 10
378.17265011331619
 20
276.58939242092629
 11
377.63938082548776
 21
275.29546749969256
  0
ARC
  8
_0-f_
  6
CONTINUOUS
 62
    7
 10
377.52843384906129
 20
275.34119242092629
 40
0.1199999999999984
 50
270
 51
337.60181985621841
  0
LINE
  8
_0-f_
  6
CONTINUOUS
 62
    7
 10
377.52843384906129
 20
275.22119242092623
 11
377.46789248983464
 21
275.22119242092623
  0
LINE
  8
_0-f_
  6
CONTINUOUS
 62
    7
 10
377.46789248983464
 20
275.22119242092623
 11
377.46789248983464
 21
274.82119242092625
  0
LINE
  8
_0-f_
  6
CONTINUOUS
 62
    7
 10
377.46789248983464
 20
274.82119242092625
 11
377.77556227328148
 21
274.82119242092625
  0
ARC
  8
_0-f_
  6
CONTINUOUS
 62
    7
 10
377.77556227328148
 20
275.0611924209262
 40
0.2399999999999966
 50
270
 51
337.13773188217931
  0
LINE
  8
_0-f_
  6
CONTINUOUS
 62
    7
 10
377.99670822407813
 20
274.96794828735062
 11
378.46388448983464
 21
276.07594442092625
  0
LINE
  8
_0-f_
  6
CONTINUOUS
 62
    7
 10
378.46388448983464
 20
276.07594442092625
 11
378.46388448983464
 21
274.82119242092625
  0
LINE
  8
_0-f_
  6
CONTINUOUS
 62
    7
 10
378.46388448983464
 20
274.82119242092625
 11
378.98388448983462
 21
274.82119242092625
  0
LINE
  8
_0-f_
  6
CONTINUOUS
 62
    7
 10
378.98388448983462
 20
274.82119242092625
 11
378.98388448983462
 21
276.07600842092626
  0
LINE
  8
_0-f_
  6
CONTINUOUS
 62
    7
 10
378.98388448983462
 20
276.07600842092626
 11
379.45978738973957
 21
274.96657904053779
  0
ARC
  8
_0-f_
  6
CONTINUOUS
 62
    7
 10
379.68035100471604
 20
275.0611924209262
 40
0.2399999999999991
 50
203.21748710460054
 51
270
  0
LINE
  8
_0-f_
  6
CONTINUOUS
 62
    7
 10
379.68035100471604
 20
274.82119242092625
 11
380.00387648983462
 21
274.82119242092625
  0
LINE
  8
_0-f_
  6
CONTINUOUS
 62
    7
 10
380.00387648983462
 20
274.82119242092625
 11
380.00387648983462
 21
275.22119242092623
  0
LINE
  8
_0-f_
  6
CONTINUOUS
 62
    7
 10
380.00387648983462
 20
275.22119242092623
 11
379.92721827637973
 21
275.22119242092623
  0
ARC
  8
_0-f_
  6
CONTINUOUS
 62
    7
 10
379.92721827637973
 20
275.34119242092629
 40
0.1200000000000003
 50
202.69813627100072
 51
270
  0
LINE
  8
_0-f_
  6
CONTINUOUS
 62
    7
 10
379.81651219936373
 20
275.29488729689308
 11
379.27505845133436
 21
276.58939242092629
  0
LINE
  8
_0-f_
  6
CONTINUOUS
 62
    7
 10
379.27505845133436
 20
276.58939242092629
 11
380.00387648983462
 21
276.58939242092629
  0
LINE
  8
_0-f_
  6
CONTINUOUS
 62
    7
 10
380.00387648983462
 20
276.58939242092629
 11
380.00387648983462
 21
277.02943242092624
  0
LINE
  8
_0-f_
  6
CONTINUOUS
 62
    7
 10
380.00387648983462
 20
277.02943242092624
 11
378.98388448983462
 21
277.02943242092624
  0
LINE
  8
_0-f_
  6
CONTINUOUS
 62
    7
 10
380.00387648983457
 20
276.78119242092623
 11
377.49986848983417
 21
276.78119242092623
  0
LINE
  8
_0-f_
  6
CONTINUOUS
 62
    7
 10
376.85218322260118
 20
276.78119242092623
 11
375.58086998823524
 21
276.78119242092623
  0
LINE
  8
_0-f_
  6
CONTINUOUS
 62
    7
 10
380.00387648983457
 20
276.86119242092627
 11
377.49986848983417
 21
276.86119242092627
  0
LINE
  8
_0-f_
  6
CONTINUOUS
 62
    7
 10
376.81952788822406
 20
276.86119242092627
 11
375.61411331103682
 21
276.86119242092627
  0
LINE
  8
_0-f_
  6
CONTINUOUS
 62
    7
 10
380.00387648983457
 20
276.9411924209262
 11
377.49986848983417
 21
276.9411924209262
  0
LINE
  8
_0-f_
  6
CONTINUOUS
 62
    7
 10
376.78687255384699
 20
276.9411924209262
 11
375.6473566338384
 21
276.9411924209262
  0
LINE
  8
_0-f_
  6
CONTINUOUS
 62
    7
 10
380.00387648983457
 20
277.02119242092624
 11
377.49986848983417
 21
277.02119242092624
  0
LINE
  8
_0-f_
  6
CONTINUOUS
 62
    7
 10
376.75421721946987
 20
277.02119242092624
 11
375.68059995663998
 21
277.02119242092624
  0
LINE
  8
_0-f_
  6
CONTINUOUS
 62
    7
 10
378.98388448983468
 20
277.10119242092622
 11
378.46388448983441
 21
277.10119242092622
  0
LINE
  8
_0-f_
  6
CONTINUOUS
 62
    7
 10
376.7215618850928
 20
277.10119242092622
 11
375.71384327944156
 21
277.10119242092622
  0
LINE
  8
_0-f_
  6
CONTINUOUS
 62
    7
 10
378.98388448983468
 20
277.18119242092621
 11
378.46388448983441
 21
277.18119242092621
  0
LINE
  8
_0-f_
  6
CONTINUOUS
 62
    7
 10
376.68890655071567
 20
277.18119242092621
 11
375.74708660224314
 21
277.18119242092621
  0
LINE
  8
_0-f_
  6
CONTINUOUS
 62
    7
 10
378.98388448983468
 20
277.26119242092625
 11
378.46388448983441
 21
277.26119242092625
  0
LINE
  8
_0-f_
  6
CONTINUOUS
 62
    7
 10
376.65625121633866
 20
277.26119242092625
 11
375.78032992504473
 21
277.26119242092625
  0
LINE
  8
_0-f_
  6
CONTINUOUS
 62
    7
 10
378.98388448983468
 20
277.34119242092629
 11
378.46388448983441
 21
277.34119242092629
  0
LINE
  8
_0-f_
  6
CONTINUOUS
 62
    7
 10
376.62359588196148
 20
277.34119242092629
 11
375.81357324784631
 21
277.34119242092629
  0
LINE
  8
_0-f_
  6
CONTINUOUS
 62
    7
 10
378.98388448983468
 20
277.42119242092627
 11
378.46388448983441
 21
277.42119242092627
  0
LINE
  8
_0-f_
  6
CONTINUOUS
 62
    7
 10
376.59094054758441
 20
277.42119242092627
 11
375.84681657064789
 21
277.42119242092627
  0
LINE
  8
_0-f_
  6
CONTINUOUS
 62
    7
 10
378.98388448983468
 20
277.50119242092626
 11
378.46388448983441
 21
277.50119242092626
  0
LINE
  8
_0-f_
  6
CONTINUOUS
 62
    7
 10
376.55828521320734
 20
277.50119242092626
 11
375.88005989344947
 21
277.50119242092626
  0
LINE
  8
_0-f_
  6
CONTINUOUS
 62
    7
 10
378.98388448983468
 20
277.5811924209263
 11
378.46388448983441
 21
277.5811924209263
  0
LINE
  8
_0-f_
  6
CONTINUOUS
 62
    7
 10
376.52562987883027
 20
277.5811924209263
 11
375.91330321625105
 21
277.5811924209263
  0
LINE
  8
_0-f_
  6
CONTINUOUS
 62
    7
 10
378.98388448983468
 20
277.66119242092623
 11
378.46388448983441
 21
277.66119242092623
  0
LINE
  8
_0-f_
  6
CONTINUOUS
 62
    7
 10
376.4929745444532
 20
277.66119242092623
 11
375.94654653905258
 21
277.66119242092623
  0
LINE
  8
_0-f_
  6
CONTINUOUS
 62
    7
 10
380.00387648983474
 20
277.74119242092627
 11
377.49986848983451
 21
277.74119242092627
  0
LINE
  8
_0-f_
  6
CONTINUOUS
 62
    7
 10
377.1478684898342
 20
277.74119242092627
 11
375.28388448983475
 21
277.74119242092627
  0
LINE
  8
_0-f_
  6
CONTINUOUS
 62
    7
 10
380.00387648983474
 20
277.82119242092625
 11
377.49986848983451
 21
277.82119242092625
  0
LINE
  8
_0-f_
  6
CONTINUOUS
 62
    7
 10
377.1478684898342
 20
277.82119242092625
 11
375.28388448983475
 21
277.82119242092625
  0
LINE
  8
_0-f_
  6
CONTINUOUS
 62
    7
 10
380.00387648983474
 20
277.90119242092624
 11
377.49986848983451
 21
277.90119242092624
  0
LINE
  8
_0-f_
  6
CONTINUOUS
 62
    7
 10
377.1478684898342
 20
277.90119242092624
 11
375.28388448983475
 21
277.90119242092624
  0
LINE
  8
_0-f_
  6
CONTINUOUS
 62
    7
 10
380.00387648983474
 20
277.98119242092628
 11
377.49986848983451
 21
277.98119242092628
  0
LINE
  8
_0-f_
  6
CONTINUOUS
 62
    7
 10
377.1478684898342
 20
277.98119242092628
 11
375.28388448983475
 21
277.98119242092628
  0
LINE
  8
_0-f_
  6
CONTINUOUS
 62
    7
 10
380.00387648983474
 20
278.0611924209262
 11
377.49986848983451
 21
278.0611924209262
  0
LINE
  8
_0-f_
  6
CONTINUOUS
 62
    7
 10
377.1478684898342
 20
278.0611924209262
 11
375.28388448983475
 21
278.0611924209262
  0
LINE
  8
_0-f_
  6
CONTINUOUS
 62
    7
 10
380.00387648983474
 20
278.14119242092625
 11
377.49986848983451
 21
278.14119242092625
  0
LINE
  8
_0-f_
  6
CONTINUOUS
 62
    7
 10
377.1478684898342
 20
278.14119242092625
 11
375.28388448983475
 21
278.14119242092625
  0
LINE
  8
_0-f_
  6
CONTINUOUS
 62
    7
 10
378.98388448983428
 20
278.22119242092623
 11
378.46388448983441
 21
278.22119242092629
  0
LINE
  8
_0-f_
  6
CONTINUOUS
 62
    7
 10
377.9998684898344
 20
278.22119242092629
 11
377.49986848983451
 21
278.22119242092629
  0
LINE
  8
_0-f_
  6
CONTINUOUS
 62
    7
 10
376.47987648983474
 20
278.22119242092629
 11
375.95986048983463
 21
278.22119242092629
  0
LINE
  8
_0-f_
  6
CONTINUOUS
 62
    7
 10
378.98388448983428
 20
278.30119242092621
 11
378.46388448983441
 21
278.30119242092621
  0
LINE
  8
_0-f_
  6
CONTINUOUS
 62
    7
 10
377.9998684898344
 20
278.30119242092621
 11
377.49986848983451
 21
278.30119242092621
  0
LINE
  8
_0-f_
  6
CONTINUOUS
 62
    7
 10
376.47987648983474
 20
278.30119242092621
 11
375.95986048983463
 21
278.30119242092621
  0
LINE
  8
_0-f_
  6
CONTINUOUS
 62
    7
 10
378.98388448983428
 20
278.38119242092625
 11
378.46388448983441
 21
278.38119242092625
  0
LINE
  8
_0-f_
  6
CONTINUOUS
 62
    7
 10
377.9998684898344
 20
278.38119242092625
 11
377.49986848983451
 21
278.38119242092625
  0
LINE
  8
_0-f_
  6
CONTINUOUS
 62
    7
 10
376.47987648983474
 20
278.38119242092625
 11
375.95986048983463
 21
278.38119242092625
  0
LINE
  8
_0-f_
  6
CONTINUOUS
 62
    7
 10
378.98388448983428
 20
278.4611924209263
 11
378.46388448983441
 21
278.4611924209263
  0
LINE
  8
_0-f_
  6
CONTINUOUS
 62
    7
 10
377.9998684898344
 20
278.4611924209263
 11
377.49986848983451
 21
278.4611924209263
  0
LINE
  8
_0-f_
  6
CONTINUOUS
 62
    7
 10
376.47987648983474
 20
278.4611924209263
 11
375.95986048983463
 21
278.4611924209263
  0
LINE
  8
_0-f_
  6
CONTINUOUS
 62
    7
 10
378.98388448983428
 20
278.54119242092628
 11
378.46388448983441
 21
278.54119242092628
  0
LINE
  8
_0-f_
  6
CONTINUOUS
 62
    7
 10
377.9998684898344
 20
278.54119242092628
 11
377.49986848983451
 21
278.54119242092628
  0
LINE
  8
_0-f_
  6
CONTINUOUS
 62
    7
 10
376.47987648983474
 20
278.54119242092628
 11
375.95986048983463
 21
278.54119242092628
  0
LINE
  8
_0-f_
  6
CONTINUOUS
 62
    7
 10
378.98388448983428
 20
278.62119242092626
 11
378.46388448983441
 21
278.62119242092626
  0
LINE
  8
_0-f_
  6
CONTINUOUS
 62
    7
 10
377.9998684898344
 20
278.62119242092626
 11
377.49986848983451
 21
278.62119242092626
  0
LINE
  8
_0-f_
  6
CONTINUOUS
 62
    7
 10
376.47987648983474
 20
278.62119242092626
 11
375.95986048983463
 21
278.62119242092626
  0
LINE
  8
_0-f_
  6
CONTINUOUS
 62
    7
 10
378.98388448983428
 20
278.7011924209263
 11
378.46388448983441
 21
278.7011924209263
  0
LINE
  8
_0-f_
  6
CONTINUOUS
 62
    7
 10
377.9998684898344
 20
278.7011924209263
 11
377.49986848983451
 21
278.7011924209263
  0
LINE
  8
_0-f_
  6
CONTINUOUS
 62
    7
 10
376.47987648983474
 20
278.7011924209263
 11
375.95986048983463
 21
278.7011924209263
  0
LINE
  8
_0-f_
  6
CONTINUOUS
 62
    7
 10
378.98388448983428
 20
278.78119242092623
 11
378.46388448983441
 21
278.78119242092623
  0
LINE
  8
_0-f_
  6
CONTINUOUS
 62
    7
 10
377.9998684898344
 20
278.78119242092623
 11
377.49986848983451
 21
278.78119242092623
  0
LINE
  8
_0-f_
  6
CONTINUOUS
 62
    7
 10
376.47987648983474
 20
278.78119242092623
 11
375.95986048983463
 21
278.78119242092623
  0
LINE
  8
_0-f_
  6
CONTINUOUS
 62
    7
 10
380.00387648983457
 20
276.70119242092625
 11
377.49986848983417
 21
276.70119242092625
  0
LINE
  8
_0-f_
  6
CONTINUOUS
 62
    7
 10
376.88483855697825
 20
276.70119242092625
 11
375.54762666543365
 21
276.70119242092625
  0
LINE
  8
_0-f_
  6
CONTINUOUS
 62
    7
 10
380.00387648983457
 20
276.62119242092626
 11
377.49986848983417
 21
276.62119242092626
  0
LINE
  8
_0-f_
  6
CONTINUOUS
 62
    7
 10
376.91749389135532
 20
276.62119242092626
 11
375.51438334263207
 21
276.62119242092626
  0
LINE
  8
_0-f_
  6
CONTINUOUS
 62
    7
 10
379.29521910591234
 20
276.54119242092622
 11
378.15278529793824
 21
276.54119242092622
  0
LINE
  8
_0-f_
  6
CONTINUOUS
 62
    7
 10
376.95014922573239
 20
276.54119242092622
 11
376.49924991692313
 21
276.54119242092622
  0
LINE
  8
_0-f_
  6
CONTINUOUS
 62
    7
 10
376.47987648983468
 20
276.54119242092622
 11
375.95986048983457
 21
276.54119242092622
  0
LINE
  8
_0-f_
  6
CONTINUOUS
 62
    7
 10
375.94159480150552
 20
276.54119242092622
 11
375.48114001983049
 21
276.54119242092622
  0
LINE
  8
_0-f_
  6
CONTINUOUS
 62
    7
 10
379.32868077326157
 20
276.46119242092618
 11
378.11981465000792
 21
276.46119242092618
  0
LINE
  8
_0-f_
  6
CONTINUOUS
 62
    7
 10
376.98280456010957
 20
276.46119242092618
 11
376.52975925092096
 21
276.46119242092618
  0
LINE
  8
_0-f_
  6
CONTINUOUS
 62
    7
 10
376.47987648983468
 20
276.46119242092618
 11
375.95986048983457
 21
276.46119242092618
  0
LINE
  8
_0-f_
  6
CONTINUOUS
 62
    7
 10
375.90947083328695
 20
276.46119242092618
 11
375.44789669702891
 21
276.46119242092618
  0
LINE
  8
_0-f_
  6
CONTINUOUS
 62
    7
 10
379.36214244061091
 20
276.38119242092625
 11
378.08684400207756
 21
276.38119242092625
  0
LINE
  8
_0-f_
  6
CONTINUOUS
 62
    7
 10
377.01545989448664
 20
276.38119242092625
 11
376.56026858491884
 21
276.38119242092625
  0
LINE
  8
_0-f_
  6
CONTINUOUS
 62
    7
 10
376.47987648983468
 20
276.38119242092625
 11
375.95986048983457
 21
276.38119242092625
  0
LINE
  8
_0-f_
  6
CONTINUOUS
 62
    7
 10
375.87734686506838
 20
276.38119242092625
 11
375.41465337422733
 21
276.38119242092625
  0
LINE
  8
_0-f_
  6
CONTINUOUS
 62
    7
 10
379.39560410796014
 20
276.30119242092621
 11
378.05387335414719
 21
276.30119242092621
  0
LINE
  8
_0-f_
  6
CONTINUOUS
 62
    7
 10
377.04811522886371
 20
276.30119242092621
 11
376.59077791891667
 21
276.30119242092621
  0
LINE
  8
_0-f_
  6
CONTINUOUS
 62
    7
 10
376.47987648983468
 20
276.30119242092621
 11
375.95986048983457
 21
276.30119242092621
  0
LINE
  8
_0-f_
  6
CONTINUOUS
 62
    7
 10
375.8452228968498
 20
276.30119242092621
 11
375.3814100514258
 21
276.30119242092621
  0
LINE
  8
_0-f_
  6
CONTINUOUS
 62
    7
 10
379.42906577530948
 20
276.22119242092629
 11
378.02090270621693
 21
276.22119242092617
  0
LINE
  8
_0-f_
  6
CONTINUOUS
 62
    7
 10
377.08077056324078
 20
276.22119242092617
 11
376.6212872529145
 21
276.22119242092617
  0
LINE
  8
_0-f_
  6
CONTINUOUS
 62
    7
 10
376.47987648983468
 20
276.22119242092617
 11
375.95986048983457
 21
276.22119242092617
  0
LINE
  8
_0-f_
  6
CONTINUOUS
 62
    7
 10
375.81309892863123
 20
276.22119242092629
 11
375.34816672862422
 21
276.22119242092617
  0
LINE
  8
_0-f_
  6
CONTINUOUS
 62
    7
 10
379.46252744265871
 20
276.14119242092625
 11
377.98793205828656
 21
276.14119242092625
  0
LINE
  8
_0-f_
  6
CONTINUOUS
 62
    7
 10
377.22787648983456
 20
276.14119242092625
 11
376.65179658691233
 21
276.14119242092625
  0
LINE
  8
_0-f_
  6
CONTINUOUS
 62
    7
 10
376.47987648983468
 20
276.14119242092625
 11
375.95986048983457
 21
276.14119242092625
  0
LINE
  8
_0-f_
  6
CONTINUOUS
 62
    7
 10
375.78097496041266
 20
276.14119242092625
 11
375.31492340582258
 21
276.14119242092625
  0
LINE
  8
_0-f_
  6
CONTINUOUS
 62
    7
 10
379.49598911000805
 20
276.0611924209262
 11
378.99023998887725
 21
276.0611924209262
  0
LINE
  8
_0-f_
  6
CONTINUOUS
 62
    7
 10
378.98388448983451
 20
276.0611924209262
 11
378.46388448983475
 21
276.0611924209262
  0
LINE
  8
_0-f_
  6
CONTINUOUS
 62
    7
 10
378.45766444622302
 20
276.0611924209262
 11
377.95496141035619
 21
276.0611924209262
  0
LINE
  8
_0-f_
  6
CONTINUOUS
 62
    7
 10
377.22787648983456
 20
276.0611924209262
 11
376.68230592091015
 21
276.0611924209262
  0
LINE
  8
_0-f_
  6
CONTINUOUS
 62
    7
 10
376.47987648983468
 20
276.0611924209262
 11
375.95986048983457
 21
276.0611924209262
  0
LINE
  8
_0-f_
  6
CONTINUOUS
 62
    7
 10
375.74885099219415
 20
276.0611924209262
 11
375.28168008302106
 21
276.0611924209262
  0
LINE
  8
_0-f_
  6
CONTINUOUS
 62
    7
 10
379.52945077735728
 20
275.98119242092622
 11
379.02455693835179
 21
275.98119242092622
  0
LINE
  8
_0-f_
  6
CONTINUOUS
 62
    7
 10
378.98388448983451
 20
275.98119242092622
 11
378.46388448983475
 21
275.98119242092622
  0
LINE
  8
_0-f_
  6
CONTINUOUS
 62
    7
 10
378.42393319019425
 20
275.98119242092622
 11
377.92199076242582
 21
275.98119242092622
  0
LINE
  8
_0-f_
  6
CONTINUOUS
 62
    7
 10
377.22787648983456
 20
275.98119242092622
 11
376.71281525490804
 21
275.98119242092622
  0
LINE
  8
_0-f_
  6
CONTINUOUS
 62
    7
 10
376.47987648983468
 20
275.98119242092622
 11
375.95986048983457
 21
275.98119242092622
  0
LINE
  8
_0-f_
  6
CONTINUOUS
 62
    7
 10
375.71672702397552
 20
275.98119242092622
 11
375.20387648983467
 21
275.98119242092622
  0
LINE
  8
_0-f_
  6
CONTINUOUS
 62
    7
 10
379.56291244470663
 20
275.90119242092624
 11
379.05887388782639
 21
275.90119242092624
  0
LINE
  8
_0-f_
  6
CONTINUOUS
 62
    7
 10
378.98388448983451
 20
275.90119242092624
 11
378.46388448983475
 21
275.90119242092624
  0
LINE
  8
_0-f_
  6
CONTINUOUS
 62
    7
 10
378.39020193416547
 20
275.90119242092624
 11
377.88902011449551
 21
275.90119242092624
  0
LINE
  8
_0-f_
  6
CONTINUOUS
 62
    7
 10
377.22787648983456
 20
275.90119242092624
 11
376.74332458890592
 21
275.90119242092624
  0
LINE
  8
_0-f_
  6
CONTINUOUS
 62
    7
 10
376.47987648983468
 20
275.90119242092624
 11
375.95986048983457
 21
275.90119242092624
  0
LINE
  8
_0-f_
  6
CONTINUOUS
 62
    7
 10
375.68460305575707
 20
275.90119242092624
 11
375.20387648983467
 21
275.90119242092624
  0
LINE
  8
_0-f_
  6
CONTINUOUS
 62
    7
 10
379.59637411205591
 20
275.8211924209262
 11
379.09319083730099
 21
275.8211924209262
  0
LINE
  8
_0-f_
  6
CONTINUOUS
 62
    7
 10
378.98388448983451
 20
275.8211924209262
 11
378.46388448983475
 21
275.8211924209262
  0
LINE
  8
_0-f_
  6
CONTINUOUS
 62
    7
 10
378.35647067813676
 20
275.8211924209262
 11
377.8560494665652
 21
275.8211924209262
  0
LINE
  8
_0-f_
  6
CONTINUOUS
 62
    7
 10
377.22787648983456
 20
275.8211924209262
 11
376.78055574645384
 21
275.8211924209262
  0
LINE
  8
_0-f_
  6
CONTINUOUS
 62
    7
 10
376.47987648983468
 20
275.8211924209262
 11
375.95986048983457
 21
275.8211924209262
  0
LINE
  8
_0-f_
  6
CONTINUOUS
 62
    7
 10
375.6524790875385
 20
275.8211924209262
 11
375.20387648983467
 21
275.8211924209262
  0
LINE
  8
_0-f_
  6
CONTINUOUS
 62
    7
 10
379.6298357794052
 20
275.74119242092627
 11
379.12750778677554
 21
275.74119242092627
  0
LINE
  8
_0-f_
  6
CONTINUOUS
 62
    7
 10
378.98388448983451
 20
275.74119242092627
 11
378.46388448983475
 21
275.74119242092627
  0
LINE
  8
_0-f_
  6
CONTINUOUS
 62
    7
 10
378.32273942210799
 20
275.74119242092627
 11
377.82307881863488
 21
275.74119242092627
  0
LINE
  8
_0-f_
  6
CONTINUOUS
 62
    7
 10
377.22787648983456
 20
275.74119242092627
 11
376.89281824270205
 21
275.74119242092627
  0
LINE
  8
_0-f_
  6
CONTINUOUS
 62
    7
 10
376.47987648983468
 20
275.74119242092627
 11
375.95986048983457
 21
275.74119242092627
  0
LINE
  8
_0-f_
  6
CONTINUOUS
 62
    7
 10
375.62035511931992
 20
275.74119242092627
 11
375.20387648983467
 21
275.74119242092627
  0
LINE
  8
_0-f_
  6
CONTINUOUS
 62
    7
 10
379.66329744675448
 20
275.66119242092623
 11
379.16182473625008
 21
275.66119242092623
  0
LINE
  8
_0-f_
  6
CONTINUOUS
 62
    7
 10
378.98388448983451
 20
275.66119242092623
 11
378.46388448983475
 21
275.66119242092623
  0
LINE
  8
_0-f_
  6
CONTINUOUS
 62
    7
 10
378.28900816607921
 20
275.66119242092623
 11
377.79010817070457
 21
275.66119242092623
  0
LINE
  8
_0-f_
  6
CONTINUOUS
 62
    7
 10
376.47987648983468
 20
275.66119242092623
 11
375.95986048983457
 21
275.66119242092623
  0
LINE
  8
_0-f_
  6
CONTINUOUS
 62
    7
 10
375.58823115110135
 20
275.66119242092623
 11
375.20387648983467
 21
275.66119242092623
  0
LINE
  8
_0-f_
  6
CONTINUOUS
 62
    7
 10
379.69675911410377
 20
275.58119242092624
 11
379.19614168572468
 21
275.58119242092624
  0
LINE
  8
_0-f_
  6
CONTINUOUS
 62
    7
 10
378.98388448983451
 20
275.58119242092624
 11
378.46388448983475
 21
275.58119242092624
  0
LINE
  8
_0-f_
  6
CONTINUOUS
 62
    7
 10
378.25527691005044
 20
275.58119242092624
 11
377.7571375227742
 21
275.58119242092624
  0
LINE
  8
_0-f_
  6
CONTINUOUS
 62
    7
 10
376.47987648983468
 20
275.58119242092624
 11
375.95986048983457
 21
275.58119242092624
  0
LINE
  8
_0-f_
  6
CONTINUOUS
 62
    7
 10
375.5297939156867
 20
275.58119242092624
 11
375.20387648983467
 21
275.58119242092624
  0
LINE
  8
_0-f_
  6
CONTINUOUS
 62
    7
 10
379.73022078145306
 20
275.50119242092626
 11
379.23045863519928
 21
275.50119242092626
  0
LINE
  8
_0-f_
  6
CONTINUOUS
 62
    7
 10
378.98388448983451
 20
275.50119242092626
 11
378.46388448983475
 21
275.50119242092626
  0
LINE
  8
_0-f_
  6
CONTINUOUS
 62
    7
 10
378.22154565402167
 20
275.50119242092626
 11
377.72416687484389
 21
275.50119242092626
  0
LINE
  8
_0-f_
  6
CONTINUOUS
 62
    7
 10
376.47987648983468
 20
275.50119242092626
 11
375.95986048983457
 21
275.50119242092626
  0
LINE
  8
_0-f_
  6
CONTINUOUS
 62
    7
 10
379.7636824488024
 20
275.42119242092622
 11
379.26477558467388
 21
275.42119242092622
  0
LINE
  8
_0-f_
  6
CONTINUOUS
 62
    7
 10
378.98388448983451
 20
275.42119242092622
 11
378.46388448983475
 21
275.42119242092622
  0
LINE
  8
_0-f_
  6
CONTINUOUS
 62
    7
 10
378.18781439799295
 20
275.42119242092622
 11
377.69119622691358
 21
275.42119242092622
  0
LINE
  8
_0-f_
  6
CONTINUOUS
 62
    7
 10
376.47987648983468
 20
275.42119242092622
 11
375.95986048983457
 21
275.42119242092622
  0
LINE
  8
_0-f_
  6
CONTINUOUS
 62
    7
 10
379.79714411615169
 20
275.34119242092618
 11
379.29909253414843
 21
275.34119242092618
  0
LINE
  8
_0-f_
  6
CONTINUOUS
 62
    7
 10
378.98388448983451
 20
275.34119242092618
 11
378.46388448983475
 21
275.34119242092618
  0
LINE
  8
_0-f_
  6
CONTINUOUS
 62
    7
 10
378.15408314196418
 20
275.34119242092618
 11
377.65822557898321
 21
275.34119242092618
  0
LINE
  8
_0-f_
  6
CONTINUOUS
 62
    7
 10
376.47987648983468
 20
275.34119242092618
 11
375.95986048983457
 21
275.34119242092618
  0
LINE
  8
_0-f_
  6
CONTINUOUS
 62
    7
 10
379.8380036739951
 20
275.26119242092625
 11
379.33340948362297
 21
275.26119242092619
  0
LINE
  8
_0-f_
  6
CONTINUOUS
 62
    7
 10
378.98388448983451
 20
275.26119242092619
 11
378.46388448983475
 21
275.26119242092619
  0
LINE
  8
_0-f_
  6
CONTINUOUS
 62
    7
 10
378.12035188593541
 20
275.26119242092619
 11
377.61743103461407
 21
275.26119242092619
  0
LINE
  8
_0-f_
  6
CONTINUOUS
 62
    7
 10
376.47987648983468
 20
275.26119242092619
 11
375.95986048983457
 21
275.26119242092619
  0
LINE
  8
_0-f_
  6
CONTINUOUS
 62
    7
 10
380.00387648983406
 20
275.18119242092621
 11
379.36772643309757
 21
275.18119242092621
  0
LINE
  8
_0-f_
  6
CONTINUOUS
 62
    7
 10
378.98388448983451
 20
275.18119242092621
 11
378.46388448983475
 21
275.18119242092621
  0
LINE
  8
_0-f_
  6
CONTINUOUS
 62
    7
 10
378.08662062990663
 20
275.18119242092621
 11
377.46789248983498
 21
275.18119242092621
  0
LINE
  8
_0-f_
  6
CONTINUOUS
 62
    7
 10
376.47987648983468
 20
275.18119242092621
 11
375.95986048983457
 21
275.18119242092621
  0
LINE
  8
_0-f_
  6
CONTINUOUS
 62
    7
 10
380.00387648983406
 20
275.10119242092617
 11
379.40204338257217
 21
275.10119242092617
  0
LINE
  8
_0-f_
  6
CONTINUOUS
 62
    7
 10
378.98388448983451
 20
275.10119242092617
 11
378.46388448983475
 21
275.10119242092617
  0
LINE
  8
_0-f_
  6
CONTINUOUS
 62
    7
 10
378.05288937387786
 20
275.10119242092617
 11
377.46789248983498
 21
275.10119242092617
  0
LINE
  8
_0-f_
  6
CONTINUOUS
 62
    7
 10
376.47987648983468
 20
275.10119242092617
 11
375.95986048983457
 21
275.10119242092617
  0
LINE
  8
_0-f_
  6
CONTINUOUS
 62
    7
 10
380.00387648983406
 20
275.02119242092624
 11
379.43636033204677
 21
275.02119242092624
  0
LINE
  8
_0-f_
  6
CONTINUOUS
 62
    7
 10
378.98388448983451
 20
275.02119242092624
 11
378.46388448983475
 21
275.02119242092624
  0
LINE
  8
_0-f_
  6
CONTINUOUS
 62
    7
 10
378.01915811784909
 20
275.02119242092624
 11
377.46789248983498
 21
275.02119242092624
  0
LINE
  8
_0-f_
  6
CONTINUOUS
 62
    7
 10
376.47987648983468
 20
275.02119242092624
 11
375.95986048983457
 21
275.02119242092624
  0
LINE
  8
_0-f_
  6
CONTINUOUS
 62
    7
 10
380.00387648983406
 20
274.9411924209262
 11
379.47312622765969
 21
274.9411924209262
  0
LINE
  8
_0-f_
  6
CONTINUOUS
 62
    7
 10
378.98388448983451
 20
274.9411924209262
 11
378.46388448983475
 21
274.9411924209262
  0
LINE
  8
_0-f_
  6
CONTINUOUS
 62
    7
 10
377.98263681044307
 20
274.9411924209262
 11
377.46789248983498
 21
274.9411924209262
  0
LINE
  8
_0-f_
  6
CONTINUOUS
 62
    7
 10
376.47987648983468
 20
274.9411924209262
 11
375.95986048983457
 21
274.9411924209262
  0
LINE
  8
_0-f_
  6
CONTINUOUS
 62
    7
 10
380.00387648983406
 20
274.86119242092622
 11
379.54877955338623
 21
274.86119242092622
  0
LINE
  8
_0-f_
  6
CONTINUOUS
 62
    7
 10
378.98388448983451
 20
274.86119242092622
 11
378.46388448983475
 21
274.86119242092622
  0
LINE
  8
_0-f_
  6
CONTINUOUS
 62
    7
 10
377.90710657109219
 20
274.86119242092622
 11
377.46789248983498
 21
274.86119242092622
  0
LINE
  8
_0-f_
  6
CONTINUOUS
 62
    7
 10
376.47987648983468
 20
274.86119242092622
 11
375.95986048983457
 21
274.86119242092622
  0
LINE
  8
_0-f_
  6
CONTINUOUS
 62
    7
 10
377.49986848983451
 20
278.82123242092626
 11
377.99986848983451
 21
278.82123242092626
  0
LINE
  8
_0-f_
  6
CONTINUOUS
 62
    7
 10
378.46388448983464
 20
277.70131242092623
 11
377.49986848983451
 21
277.70131242092623
  0
LINE
  8
_0-f_
  6
CONTINUOUS
 62
    7
 10
378.46388448983464
 20
277.02943242092624
 11
377.49986848983451
 21
277.02943242092624
  0
LINE
  8
_0-f_
  6
CONTINUOUS
 62
    7
 10
377.49986848983451
 20
276.58939242092629
 11
378.17265011331625
 21
276.58939242092629
  0
LINE
  8
_0-f_
  6
CONTINUOUS
 62
    7
 10
378.17265011331625
 20
276.58939242092629
 11
377.63938082548776
 21
275.29546749969256
  0
ARC
  8
_0-f_
  6
CONTINUOUS
 62
    7
 10
377.77556227328148
 20
275.0611924209262
 40
0.2399999999999999
 50
270
 51
337.13773188217988
  0
LINE
  8
_0-f_
  6
CONTINUOUS
 62
    7
 10
375.96321806543756
 20
277.70131242092623
 11
375.28263982080921
 21
276.06350202828753
  0
LINE
  8
_0-f_
  6
CONTINUOUS
 62
    7
 10
376.47659789426314
 20
277.70131242092623
 11
377.06331039428426
 21
276.26396685711484
  0
LINE
  8
_0-f_
  6
CONTINUOUS
 62
    7
 10
375.95986048983457
 20
276.5866804209262
 11
375.5876665722958
 21
275.65978642076652
  0
LINE
  8
_0-f_
  6
CONTINUOUS
 62
    7
 10
375.20387648983456
 20
276.01420042092627
 11
375.20387648983456
 21
275.53431242092626
  0
LINE
  8
_0-f_
  6
CONTINUOUS
 62
    7
 10
375.20387648983456
 20
275.53431242092626
 11
375.40207057206896
 21
275.53431242092626
  0
ARC
  8
_0-f_
  6
CONTINUOUS
 62
    7
 10
375.40207057206896
 20
275.73431242092624
 40
0.2
 50
270
 51
338.12209204226036
  0
LINE
  8
_0-f_
  6
CONTINUOUS
 62
    7
 10
375.20876419093435
 20
276.01420042092627
 11
375.20387648983456
 21
276.01420042092627
  0
ARC
  8
_0-f_
  6
CONTINUOUS
 62
    7
 10
375.20876419093435
 20
276.0942004209262
 40
0.08
 50
270
 51
337.43508599410586
  0
ARC
  8
_0-f_
  6
CONTINUOUS
 62
    7
 10
376.94474423649945
 20
275.93431242092623
 40
0.2
 50
200.8751841896235
 51
270
  0
LINE
  8
_0-f_
  6
CONTINUOUS
 62
    7
 10
375.95986048983457
 20
274.82119242092625
 11
375.95986048983457
 21
276.5866804209262
  0
LINE
  8
_0-f_
  6
CONTINUOUS
 62
    7
 10
376.47987648983462
 20
274.82119242092625
 11
376.47987648983462
 21
276.5919924209262
  0
LINE
  8
_0-f_
  6
CONTINUOUS
 62
    7
 10
375.95986048983457
 20
274.82119242092625
 11
376.47987648983462
 21
274.82119242092625
  0
LINE
  8
_0-f_
  6
CONTINUOUS
 62
    7
 10
376.47987648983462
 20
276.5919924209262
 11
376.75787245725996
 21
275.86304575183135
  0
LINE
  8
_0-f_
  6
CONTINUOUS
 62
    7
 10
377.22787648983456
 20
275.73431242092624
 11
377.22787648983456
 21
276.21420042092626
  0
LINE
  8
_0-f_
  6
CONTINUOUS
 62
    7
 10
377.22787648983456
 20
275.73431242092624
 11
376.94474423649945
 21
275.73431242092624
  0
ARC
  8
_0-f_
  6
CONTINUOUS
 62
    7
 10
377.52843384906129
 20
275.34119242092629
 40
0.12
 50
270
 51
337.60181985621841
  0
LINE
  8
_0-f_
  6
CONTINUOUS
 62
    7
 10
377.46789248983464
 20
275.22119242092623
 11
377.52843384906129
 21
275.22119242092623
  0
LINE
  8
_0-f_
  6
CONTINUOUS
 62
    7
 10
377.46789248983464
 20
275.22119242092623
 11
377.46789248983464
 21
274.82119242092625
  0
LINE
  8
_0-f_
  6
CONTINUOUS
 62
    7
 10
377.46789248983464
 20
274.82119242092625
 11
377.77556227328148
 21
274.82119242092625
  0
LINE
  8
_0-f_
  6
CONTINUOUS
 62
    7
 10
377.22787648983456
 20
276.21420042092626
 11
377.1373774694207
 21
276.21420042092626
  0
ARC
  8
_0-f_
  6
CONTINUOUS
 62
    7
 10
377.1373774694207
 20
276.29420042092624
 40
0.08
 50
202.2048740517549
 51
270
  0
LINE
  8
_0-f_
  6
CONTINUOUS
 62
    7
 10
377.49986848983451
 20
276.58939242092629
 11
377.49986848983451
 21
277.02943242092624
  0
LINE
  8
_0-f_
  6
CONTINUOUS
 62
    7
 10
375.28388448983458
 20
278.14135242092624
 11
375.95986048983457
 21
278.14135242092624
  0
LINE
  8
_0-f_
  6
CONTINUOUS
 62
    7
 10
375.28388448983458
 20
277.70131242092623
 11
375.96321806543756
 21
277.70131242092623
  0
LINE
  8
_0-f_
  6
CONTINUOUS
 62
    7
 10
375.28388448983458
 20
278.14135242092624
 11
375.28388448983458
 21
277.70131242092623
  0
LINE
  8
_0-f_
  6
CONTINUOUS
 62
    7
 10
376.47659789426314
 20
277.70131242092623
 11
377.14786848983454
 21
277.70131242092623
  0
LINE
  8
_0-f_
  6
CONTINUOUS
 62
    7
 10
376.47987648983462
 20
278.14135242092624
 11
377.14786848983454
 21
278.14135242092624
  0
LINE
  8
_0-f_
  6
CONTINUOUS
 62
    7
 10
376.47987648983462
 20
278.14135242092624
 11
376.47987648983462
 21
278.82123242092626
  0
LINE
  8
_0-f_
  6
CONTINUOUS
 62
    7
 10
375.95986048983457
 20
278.14135242092624
 11
375.95986048983457
 21
278.82123242092626
  0
LINE
  8
_0-f_
  6
CONTINUOUS
 62
    7
 10
375.95986048983457
 20
277.69330442092621
 11
375.95986048983457
 21
277.70131242092623
  0
LINE
  8
_0-f_
  6
CONTINUOUS
 62
    7
 10
376.47987648983462
 20
277.69330442092621
 11
376.47987648983462
 21
277.70131242092623
  0
LINE
  8
_0-f_
  6
CONTINUOUS
 62
    7
 10
375.95986048983457
 20
278.82123242092626
 11
376.47987648983462
 21
278.82123242092626
  0
LINE
  8
_0-f_
  6
CONTINUOUS
 62
    7
 10
377.49986848983451
 20
277.70131242092623
 11
377.49986848983451
 21
278.82123242092626
  0
LINE
  8
_0-f_
  6
CONTINUOUS
 62
    7
 10
377.14786848983454
 20
277.70131242092623
 11
377.14786848983454
 21
278.14135242092624
  0
LINE
  8
_0-f_
  6
CONTINUOUS
 62
    7
 10
378.98388448983462
 20
277.70131242092623
 11
378.98388448983462
 21
277.02943242092624
  0
LINE
  8
_0-f_
  6
CONTINUOUS
 62
    7
 10
378.46388448983464
 20
277.70131242092623
 11
378.46388448983464
 21
277.02943242092624
  0
LINE
  8
_0-f_
  6
CONTINUOUS
 62
    7
 10
380.00387648983462
 20
277.02943242092624
 11
378.98388448983462
 21
277.02943242092624
  0
LINE
  8
_0-f_
  6
CONTINUOUS
 62
    7
 10
378.98388448983462
 20
276.07600842092626
 11
379.45978738973957
 21
274.96657904053779
  0
LINE
  8
_0-f_
  6
CONTINUOUS
 62
    7
 10
378.46388448983464
 20
276.07594442092625
 11
377.99670822407813
 21
274.96794828735062
  0
LINE
  8
_0-f_
  6
CONTINUOUS
 62
    7
 10
378.46388448983464
 20
276.07594442092625
 11
378.46388448983464
 21
274.82119242092625
  0
LINE
  8
_0-f_
  6
CONTINUOUS
 62
    7
 10
378.98388448983462
 20
276.07600842092626
 11
378.98388448983462
 21
274.82119242092625
  0
LINE
  8
_0-f_
  6
CONTINUOUS
 62
    7
 10
378.46388448983464
 20
274.82119242092625
 11
378.98388448983462
 21
274.82119242092625
  0
LINE
  8
_0-f_
  6
CONTINUOUS
 62
    7
 10
379.27505845133436
 20
276.58939242092629
 11
379.81651219936373
 21
275.29488729689308
  0
ARC
  8
_0-f_
  6
CONTINUOUS
 62
    7
 10
379.68035100471604
 20
275.0611924209262
 40
0.2399999999999999
 50
203.21748710460054
 51
270
  0
LINE
  8
_0-f_
  6
CONTINUOUS
 62
    7
 10
380.00387648983462
 20
274.82119242092625
 11
379.68035100471604
 21
274.82119242092625
  0
LINE
  8
_0-f_
  6
CONTINUOUS
 62
    7
 10
380.00387648983462
 20
275.22119242092623
 11
380.00387648983462
 21
274.82119242092625
  0
LINE
  8
_0-f_
  6
CONTINUOUS
 62
    7
 10
380.00387648983462
 20
275.22119242092623
 11
379.92721827637979
 21
275.22119242092623
  0
ARC
  8
_0-f_
  6
CONTINUOUS
 62
    7
 10
379.92721827637979
 20
275.34119242092629
 40
0.12
 50
202.6981362709997
 51
270
  0
LINE
  8
_0-f_
  6
CONTINUOUS
 62
    7
 10
379.27505845133436
 20
276.58939242092629
 11
380.00387648983462
 21
276.58939242092629
  0
LINE
  8
_0-f_
  6
CONTINUOUS
 62
    7
 10
380.00387648983462
 20
277.02943242092624
 11
380.00387648983462
 21
276.58939242092629
  0
LINE
  8
_0-f_
  6
CONTINUOUS
 62
    7
 10
380.00387648983462
 20
277.70131242092623
 11
378.98388448983462
 21
277.70131242092623
  0
LINE
  8
_0-f_
  6
CONTINUOUS
 62
    7
 10
380.00387648983462
 20
278.14135242092624
 11
378.98388448983462
 21
278.14135242092624
  0
LINE
  8
_0-f_
  6
CONTINUOUS
 62
    7
 10
378.98388448983462
 20
278.82123242092626
 11
378.98388448983462
 21
278.14135242092624
  0
LINE
  8
_0-f_
  6
CONTINUOUS
 62
    7
 10
378.46388448983464
 20
278.82123242092626
 11
378.46388448983464
 21
278.14135242092624
  0
LINE
  8
_0-f_
  6
CONTINUOUS
 62
    7
 10
377.99986848983451
 20
278.14135242092624
 11
377.99986848983451
 21
278.82123242092626
  0
LINE
  8
_0-f_
  6
CONTINUOUS
 62
    7
 10
378.46388448983464
 20
278.14135242092624
 11
377.99986848983451
 21
278.14135242092624
  0
LINE
  8
_0-f_
  6
CONTINUOUS
 62
    7
 10
378.46388448983464
 20
278.82123242092626
 11
378.98388448983462
 21
278.82123242092626
  0
LINE
  8
_0-f_
  6
CONTINUOUS
 62
    7
 10
380.00387648983462
 20
278.14135242092624
 11
380.00387648983462
 21
277.70131242092623
  0
LINE
  8
_0-f_
  6
CONTINUOUS
 62
    7
 10
383.17845473338292
 20
276.58939242092629
 11
383.17845473338292
 21
277.02943242092624
  0
LINE
  8
_0-f_
  6
CONTINUOUS
 62
    7
 10
383.17845473338292
 20
277.02943242092624
 11
380.778454733383
 21
277.02943242092624
  0
LINE
  8
_0-f_
  6
CONTINUOUS
 62
    7
 10
380.778454733383
 20
277.02943242092624
 11
380.778454733383
 21
276.58939242092629
  0
LINE
  8
_0-f_
  6
CONTINUOUS
 62
    7
 10
380.778454733383
 20
276.58939242092629
 11
381.53846273338303
 21
276.58939242092629
  0
LINE
  8
_0-f_
  6
CONTINUOUS
 62
    7
 10
381.53846273338303
 20
276.58939242092629
 11
381.53846273338303
 21
275.26127242092628
  0
LINE
  8
_0-f_
  6
CONTINUOUS
 62
    7
 10
381.53846273338303
 20
275.26127242092628
 11
380.778454733383
 21
275.26127242092628
  0
LINE
  8
_0-f_
  6
CONTINUOUS
 62
    7
 10
380.778454733383
 20
275.26127242092628
 11
380.778454733383
 21
274.82119242092625
  0
LINE
  8
_0-f_
  6
CONTINUOUS
 62
    7
 10
380.778454733383
 20
274.82119242092625
 11
382.26566273338301
 21
274.82119242092625
  0
ARC
  8
_0-f_
  6
CONTINUOUS
 62
    7
 10
382.26566273338301
 20
275.62119242092626
 40
0.8000000000000078
 50
270
 51
285.45094822953388
  0
LINE
  8
_0-f_
  6
CONTINUOUS
 62
    7
 10
382.47879337326901
 20
274.85010531148805
 11
383.17845473338292
 21
275.05207242092627
  0
LINE
  8
_0-f_
  6
CONTINUOUS
 62
    7
 10
383.17845473338292
 20
275.05207242092627
 11
383.17845473338292
 21
275.49215242092623
  0
LINE
  8
_0-f_
  6
CONTINUOUS
 62
    7
 10
383.17845473338292
 20
275.49215242092623
 11
382.37847873338308
 21
275.26127242092628
  0
LINE
  8
_0-f_
  6
CONTINUOUS
 62
    7
 10
382.37847873338308
 20
275.26127242092628
 11
382.27845473338289
 21
275.26127242092628
  0
LINE
  8
_0-f_
  6
CONTINUOUS
 62
    7
 10
382.27845473338289
 20
275.26127242092628
 11
382.27845473338289
 21
276.58939242092629
  0
LINE
  8
_0-f_
  6
CONTINUOUS
 62
    7
 10
382.27845473338289
 20
276.58939242092629
 11
383.17845473338292
 21
276.58939242092629
  0
LINE
  8
_0-f_
  6
CONTINUOUS
 62
    7
 10
384.25242146694461
 20
278.14135242092624
 11
384.09598333452277
 21
278.82123242092626
  0
LINE
  8
_0-f_
  6
CONTINUOUS
 62
    7
 10
384.09598333452277
 20
278.82123242092626
 11
383.25726507471575
 21
278.82123242092626
  0
LINE
  8
_0-f_
  6
CONTINUOUS
 62
    7
 10
383.25726507471575
 20
278.82123242092626
 11
383.4153244634868
 21
278.14135242092624
  0
LINE
  8
_0-f_
  6
CONTINUOUS
 62
    7
 10
383.4153244634868
 20
278.14135242092624
 11
380.778454733383
 21
278.14135242092624
  0
LINE
  8
_0-f_
  6
CONTINUOUS
 62
    7
 10
380.778454733383
 20
278.14135242092624
 11
380.778454733383
 21
277.70131242092623
  0
LINE
  8
_0-f_
  6
CONTINUOUS
 62
    7
 10
380.778454733383
 20
277.70131242092623
 11
383.51762553637434
 21
277.70131242092623
  0
LINE
  8
_0-f_
  6
CONTINUOUS
 62
    7
 10
383.51762553637434
 20
277.70131242092623
 11
384.1008775132384
 21
275.19250002380477
  0
ARC
  8
_0-f_
  6
CONTINUOUS
 62
    7
 10
384.56840929056261
 20
275.30119242092621
 40
0.4800000000000017
 50
193.0877165037698
 51
270
  0
LINE
  8
_0-f_
  6
CONTINUOUS
 62
    7
 10
384.56840929056261
 20
274.82119242092625
 11
385.57845473338301
 21
274.82119242092625
  0
LINE
  8
_0-f_
  6
CONTINUOUS
 62
    7
 10
385.57845473338301
 20
274.82119242092625
 11
385.57845473338301
 21
275.26127242092628
  0
LINE
  8
_0-f_
  6
CONTINUOUS
 62
    7
 10
385.57845473338301
 20
275.26127242092628
 11
384.98187191242334
 21
275.26127242092628
  0
ARC
  8
_0-f_
  6
CONTINUOUS
 62
    7
 10
384.97847873338299
 20
275.34119242092629
 40
0.0799919999999998
 50
267.56884201629123
 51
272.43115798371281
  0
LINE
  8
_0-f_
  6
CONTINUOUS
 62
    7
 10
384.97508555434274
 20
275.26127242092628
 11
384.91511831995649
 21
275.26127242092628
  0
LINE
  8
_0-f_
  6
CONTINUOUS
 62
    7
 10
384.91511831995649
 20
275.26127242092628
 11
384.90245247337464
 21
275.31631818017127
  0
ARC
  8
_0-f_
  6
CONTINUOUS
 62
    7
 10
384.97847873338299
 20
275.34119242092629
 40
0.0799919999999998
 50
187.79901102615551
 51
198.1170401314526
  0
LINE
  8
_0-f_
  6
CONTINUOUS
 62
    7
 10
384.8992266447533
 20
275.33033762881291
 11
384.35367321106258
 21
277.70131242092623
  0
LINE
  8
_0-f_
  6
CONTINUOUS
 62
    7
 10
384.35367321106258
 20
277.70131242092623
 11
385.57845473338301
 21
277.70131242092623
  0
LINE
  8
_0-f_
  6
CONTINUOUS
 62
    7
 10
385.57845473338301
 20
277.70131242092623
 11
385.57845473338301
 21
278.14135242092624
  0
LINE
  8
_0-f_
  6
CONTINUOUS
 62
    7
 10
385.57845473338301
 20
278.14135242092624
 11
384.25242146694461
 21
278.14135242092624
  0
LINE
  8
_0-f_
  6
CONTINUOUS
 62
    7
 10
385.258462733383
 20
278.82123242092626
 11
384.73846273338302
 21
278.82123242092626
  0
LINE
  8
_0-f_
  6
CONTINUOUS
 62
    7
 10
384.73846273338302
 20
278.82123242092626
 11
384.73846273338302
 21
278.46517642092624
  0
LINE
  8
_0-f_
  6
CONTINUOUS
 62
    7
 10
384.73846273338302
 20
278.46517642092624
 11
385.258462733383
 21
278.46517642092624
  0
LINE
  8
_0-f_
  6
CONTINUOUS
 62
    7
 10
385.258462733383
 20
278.46517642092624
 11
385.258462733383
 21
278.82123242092626
  0
LINE
  8
_0-f_
  6
CONTINUOUS
 62
    7
 10
384.56538977046137
 20
276.78119242092623
 11
383.7315362335504
 21
276.78119242092623
  0
LINE
  8
_0-f_
  6
CONTINUOUS
 62
    7
 10
383.17845473338264
 20
276.78119242092623
 11
380.77845473338311
 21
276.78119242092623
  0
LINE
  8
_0-f_
  6
CONTINUOUS
 62
    7
 10
384.54698203587031
 20
276.86119242092627
 11
383.7129377292531
 21
276.86119242092627
  0
LINE
  8
_0-f_
  6
CONTINUOUS
 62
    7
 10
383.17845473338264
 20
276.86119242092627
 11
380.77845473338311
 21
276.86119242092627
  0
LINE
  8
_0-f_
  6
CONTINUOUS
 62
    7
 10
384.52857430127926
 20
276.9411924209262
 11
383.69433922495574
 21
276.9411924209262
  0
LINE
  8
_0-f_
  6
CONTINUOUS
 62
    7
 10
383.17845473338264
 20
276.9411924209262
 11
380.77845473338311
 21
276.9411924209262
  0
LINE
  8
_0-f_
  6
CONTINUOUS
 62
    7
 10
384.51016656668821
 20
277.02119242092624
 11
383.67574072065838
 21
277.02119242092624
  0
LINE
  8
_0-f_
  6
CONTINUOUS
 62
    7
 10
383.17845473338264
 20
277.02119242092624
 11
380.77845473338311
 21
277.02119242092624
  0
LINE
  8
_0-f_
  6
CONTINUOUS
 62
    7
 10
384.49175883209716
 20
277.10119242092622
 11
383.65714221636097
 21
277.10119242092622
  0
LINE
  8
_0-f_
  6
CONTINUOUS
 62
    7
 10
384.47335109750617
 20
277.18119242092621
 11
383.63854371206367
 21
277.18119242092621
  0
LINE
  8
_0-f_
  6
CONTINUOUS
 62
    7
 10
384.45494336291512
 20
277.26119242092625
 11
383.61994520776631
 21
277.26119242092625
  0
LINE
  8
_0-f_
  6
CONTINUOUS
 62
    7
 10
384.43653562832412
 20
277.34119242092629
 11
383.60134670346895
 21
277.34119242092629
  0
LINE
  8
_0-f_
  6
CONTINUOUS
 62
    7
 10
384.41812789373307
 20
277.42119242092627
 11
383.58274819917165
 21
277.42119242092627
  0
LINE
  8
_0-f_
  6
CONTINUOUS
 62
    7
 10
384.39972015914202
 20
277.50119242092626
 11
383.56414969487423
 21
277.50119242092626
  0
LINE
  8
_0-f_
  6
CONTINUOUS
 62
    7
 10
384.38131242455097
 20
277.5811924209263
 11
383.54555119057687
 21
277.5811924209263
  0
LINE
  8
_0-f_
  6
CONTINUOUS
 62
    7
 10
384.36290468995998
 20
277.66119242092623
 11
383.52695268627951
 21
277.66119242092623
  0
LINE
  8
_0-f_
  6
CONTINUOUS
 62
    7
 10
385.57845473338307
 20
277.74119242092627
 11
380.77845473338277
 21
277.74119242092627
  0
LINE
  8
_0-f_
  6
CONTINUOUS
 62
    7
 10
385.57845473338307
 20
277.82119242092625
 11
380.77845473338277
 21
277.82119242092625
  0
LINE
  8
_0-f_
  6
CONTINUOUS
 62
    7
 10
385.57845473338307
 20
277.90119242092624
 11
380.77845473338277
 21
277.90119242092624
  0
LINE
  8
_0-f_
  6
CONTINUOUS
 62
    7
 10
385.57845473338307
 20
277.98119242092628
 11
380.77845473338277
 21
277.98119242092628
  0
LINE
  8
_0-f_
  6
CONTINUOUS
 62
    7
 10
385.57845473338307
 20
278.0611924209262
 11
380.77845473338277
 21
278.0611924209262
  0
LINE
  8
_0-f_
  6
CONTINUOUS
 62
    7
 10
385.57845473338307
 20
278.14119242092625
 11
380.77845473338277
 21
278.14119242092625
  0
LINE
  8
_0-f_
  6
CONTINUOUS
 62
    7
 10
384.23405054782256
 20
278.22119242092623
 11
383.39676315619818
 21
278.22119242092629
  0
LINE
  8
_0-f_
  6
CONTINUOUS
 62
    7
 10
384.21564281323151
 20
278.30119242092621
 11
383.37816465190076
 21
278.30119242092621
  0
LINE
  8
_0-f_
  6
CONTINUOUS
 62
    7
 10
384.19723507864046
 20
278.38119242092625
 11
383.35956614760346
 21
278.38119242092625
  0
LINE
  8
_0-f_
  6
CONTINUOUS
 62
    7
 10
384.17882734404947
 20
278.4611924209263
 11
383.34096764330616
 21
278.4611924209263
  0
LINE
  8
_0-f_
  6
CONTINUOUS
 62
    7
 10
385.258462733383
 20
278.54119242092628
 11
384.73846273338228
 21
278.54119242092628
  0
LINE
  8
_0-f_
  6
CONTINUOUS
 62
    7
 10
384.16041960945842
 20
278.54119242092628
 11
383.32236913900874
 21
278.54119242092628
  0
LINE
  8
_0-f_
  6
CONTINUOUS
 62
    7
 10
385.258462733383
 20
278.62119242092626
 11
384.73846273338228
 21
278.62119242092626
  0
LINE
  8
_0-f_
  6
CONTINUOUS
 62
    7
 10
384.14201187486742
 20
278.62119242092626
 11
383.30377063471144
 21
278.62119242092626
  0
LINE
  8
_0-f_
  6
CONTINUOUS
 62
    7
 10
385.258462733383
 20
278.7011924209263
 11
384.73846273338228
 21
278.7011924209263
  0
LINE
  8
_0-f_
  6
CONTINUOUS
 62
    7
 10
384.12360414027637
 20
278.7011924209263
 11
383.28517213041403
 21
278.7011924209263
  0
LINE
  8
_0-f_
  6
CONTINUOUS
 62
    7
 10
385.258462733383
 20
278.78119242092623
 11
384.73846273338228
 21
278.78119242092623
  0
LINE
  8
_0-f_
  6
CONTINUOUS
 62
    7
 10
384.10519640568532
 20
278.78119242092623
 11
383.26657362611667
 21
278.78119242092623
  0
LINE
  8
_0-f_
  6
CONTINUOUS
 62
    7
 10
384.58379750505242
 20
276.70119242092625
 11
383.75013473784782
 21
276.70119242092625
  0
LINE
  8
_0-f_
  6
CONTINUOUS
 62
    7
 10
383.17845473338264
 20
276.70119242092625
 11
380.77845473338311
 21
276.70119242092625
  0
LINE
  8
_0-f_
  6
CONTINUOUS
 62
    7
 10
384.60220523964347
 20
276.62119242092626
 11
383.76873324214512
 21
276.62119242092626
  0
LINE
  8
_0-f_
  6
CONTINUOUS
 62
    7
 10
383.17845473338264
 20
276.62119242092626
 11
380.77845473338311
 21
276.62119242092626
  0
LINE
  8
_0-f_
  6
CONTINUOUS
 62
    7
 10
384.62061297423446
 20
276.54119242092622
 11
383.78733174644248
 21
276.54119242092622
  0
LINE
  8
_0-f_
  6
CONTINUOUS
 62
    7
 10
382.27845473338277
 20
276.54119242092622
 11
381.53846273338314
 21
276.54119242092622
  0
LINE
  8
_0-f_
  6
CONTINUOUS
 62
    7
 10
384.63902070882546
 20
276.46119242092618
 11
383.80593025073983
 21
276.46119242092618
  0
LINE
  8
_0-f_
  6
CONTINUOUS
 62
    7
 10
382.27845473338277
 20
276.46119242092618
 11
381.53846273338314
 21
276.46119242092618
  0
LINE
  8
_0-f_
  6
CONTINUOUS
 62
    7
 10
384.65742844341651
 20
276.38119242092625
 11
383.82452875503725
 21
276.38119242092625
  0
LINE
  8
_0-f_
  6
CONTINUOUS
 62
    7
 10
382.27845473338277
 20
276.38119242092625
 11
381.53846273338314
 21
276.38119242092625
  0
LINE
  8
_0-f_
  6
CONTINUOUS
 62
    7
 10
384.67583617800756
 20
276.30119242092621
 11
383.84312725933455
 21
276.30119242092621
  0
LINE
  8
_0-f_
  6
CONTINUOUS
 62
    7
 10
382.27845473338277
 20
276.30119242092621
 11
381.53846273338314
 21
276.30119242092621
  0
LINE
  8
_0-f_
  6
CONTINUOUS
 62
    7
 10
384.69424391259861
 20
276.22119242092617
 11
383.86172576363197
 21
276.22119242092617
  0
LINE
  8
_0-f_
  6
CONTINUOUS
 62
    7
 10
382.27845473338277
 20
276.22119242092617
 11
381.53846273338314
 21
276.22119242092617
  0
LINE
  8
_0-f_
  6
CONTINUOUS
 62
    7
 10
384.71265164718966
 20
276.14119242092625
 11
383.88032426792927
 21
276.14119242092625
  0
LINE
  8
_0-f_
  6
CONTINUOUS
 62
    7
 10
382.27845473338277
 20
276.14119242092625
 11
381.53846273338314
 21
276.14119242092625
  0
LINE
  8
_0-f_
  6
CONTINUOUS
 62
    7
 10
384.73105938178065
 20
276.0611924209262
 11
383.89892277222663
 21
276.0611924209262
  0
LINE
  8
_0-f_
  6
CONTINUOUS
 62
    7
 10
382.27845473338277
 20
276.0611924209262
 11
381.53846273338314
 21
276.0611924209262
  0
LINE
  8
_0-f_
  6
CONTINUOUS
 62
    7
 10
384.7494671163717
 20
275.98119242092622
 11
383.91752127652398
 21
275.98119242092622
  0
LINE
  8
_0-f_
  6
CONTINUOUS
 62
    7
 10
382.27845473338277
 20
275.98119242092622
 11
381.53846273338314
 21
275.98119242092622
  0
LINE
  8
_0-f_
  6
CONTINUOUS
 62
    7
 10
384.7678748509627
 20
275.90119242092624
 11
383.93611978082134
 21
275.90119242092624
  0
LINE
  8
_0-f_
  6
CONTINUOUS
 62
    7
 10
382.27845473338277
 20
275.90119242092624
 11
381.53846273338314
 21
275.90119242092624
  0
LINE
  8
_0-f_
  6
CONTINUOUS
 62
    7
 10
384.78628258555375
 20
275.8211924209262
 11
383.9547182851187
 21
275.8211924209262
  0
LINE
  8
_0-f_
  6
CONTINUOUS
 62
    7
 10
382.27845473338277
 20
275.8211924209262
 11
381.53846273338314
 21
275.8211924209262
  0
LINE
  8
_0-f_
  6
CONTINUOUS
 62
    7
 10
384.8046903201448
 20
275.74119242092627
 11
383.97331678941606
 21
275.74119242092627
  0
LINE
  8
_0-f_
  6
CONTINUOUS
 62
    7
 10
382.27845473338277
 20
275.74119242092627
 11
381.53846273338314
 21
275.74119242092627
  0
LINE
  8
_0-f_
  6
CONTINUOUS
 62
    7
 10
384.82309805473579
 20
275.66119242092623
 11
383.99191529371342
 21
275.66119242092623
  0
LINE
  8
_0-f_
  6
CONTINUOUS
 62
    7
 10
382.27845473338277
 20
275.66119242092623
 11
381.53846273338314
 21
275.66119242092623
  0
LINE
  8
_0-f_
  6
CONTINUOUS
 62
    7
 10
384.84150578932685
 20
275.58119242092624
 11
384.01051379801072
 21
275.58119242092624
  0
LINE
  8
_0-f_
  6
CONTINUOUS
 62
    7
 10
382.27845473338277
 20
275.58119242092624
 11
381.53846273338314
 21
275.58119242092624
  0
LINE
  8
_0-f_
  6
CONTINUOUS
 62
    7
 10
384.85991352391784
 20
275.50119242092626
 11
384.02911230230808
 21
275.50119242092626
  0
LINE
  8
_0-f_
  6
CONTINUOUS
 62
    7
 10
382.27845473338277
 20
275.50119242092626
 11
381.53846273338314
 21
275.50119242092626
  0
LINE
  8
_0-f_
  6
CONTINUOUS
 62
    7
 10
384.87832125850889
 20
275.42119242092622
 11
384.04771080660544
 21
275.42119242092622
  0
LINE
  8
_0-f_
  6
CONTINUOUS
 62
    7
 10
383.17845473338321
 20
275.42119242092622
 11
382.93258546380616
 21
275.42119242092622
  0
LINE
  8
_0-f_
  6
CONTINUOUS
 62
    7
 10
382.27845473338277
 20
275.42119242092622
 11
381.53846273338314
 21
275.42119242092622
  0
LINE
  8
_0-f_
  6
CONTINUOUS
 62
    7
 10
384.89672899309994
 20
275.34119242092618
 11
384.06630931090285
 21
275.34119242092618
  0
LINE
  8
_0-f_
  6
CONTINUOUS
 62
    7
 10
383.17845473338321
 20
275.34119242092618
 11
382.65539350261429
 21
275.34119242092618
  0
LINE
  8
_0-f_
  6
CONTINUOUS
 62
    7
 10
382.27845473338277
 20
275.34119242092618
 11
381.53846273338314
 21
275.34119242092618
  0
LINE
  8
_0-f_
  6
CONTINUOUS
 62
    7
 10
385.57845473338301
 20
275.26119242092619
 11
384.08490781520015
 21
275.26119242092619
  0
LINE
  8
_0-f_
  6
CONTINUOUS
 62
    7
 10
383.17845473338321
 20
275.26119242092619
 11
380.778454733383
 21
275.26119242092619
  0
LINE
  8
_0-f_
  6
CONTINUOUS
 62
    7
 10
385.57845473338301
 20
275.18119242092621
 11
384.10446250607163
 21
275.18119242092621
  0
LINE
  8
_0-f_
  6
CONTINUOUS
 62
    7
 10
383.17845473338321
 20
275.18119242092621
 11
380.778454733383
 21
275.18119242092621
  0
LINE
  8
_0-f_
  6
CONTINUOUS
 62
    7
 10
385.57845473338301
 20
275.10119242092617
 11
384.13340096410388
 21
275.10119242092617
  0
LINE
  8
_0-f_
  6
CONTINUOUS
 62
    7
 10
383.17845473338321
 20
275.10119242092617
 11
380.778454733383
 21
275.10119242092617
  0
LINE
  8
_0-f_
  6
CONTINUOUS
 62
    7
 10
385.57845473338301
 20
275.02119242092624
 11
384.18035690354418
 21
275.02119242092624
  0
LINE
  8
_0-f_
  6
CONTINUOUS
 62
    7
 10
383.07147918246039
 20
275.02119242092624
 11
380.778454733383
 21
275.02119242092624
  0
LINE
  8
_0-f_
  6
CONTINUOUS
 62
    7
 10
385.57845473338301
 20
274.9411924209262
 11
384.25135366666655
 21
274.9411924209262
  0
LINE
  8
_0-f_
  6
CONTINUOUS
 62
    7
 10
382.79434044950131
 20
274.9411924209262
 11
380.778454733383
 21
274.9411924209262
  0
LINE
  8
_0-f_
  6
CONTINUOUS
 62
    7
 10
385.57845473338301
 20
274.86119242092622
 11
384.37743134686218
 21
274.86119242092622
  0
LINE
  8
_0-f_
  6
CONTINUOUS
 62
    7
 10
382.51720171654222
 20
274.86119242092622
 11
380.778454733383
 21
274.86119242092622
  0
LINE
  8
_0-f_
  6
CONTINUOUS
 62
    7
 10
384.25242146694461
 20
278.14135242092624
 11
385.57845473338301
 21
278.14135242092624
  0
LINE
  8
_0-f_
  6
CONTINUOUS
 62
    7
 10
384.56840929056261
 20
274.82119242092625
 11
385.57845473338301
 21
274.82119242092625
  0
LINE
  8
_0-f_
  6
CONTINUOUS
 62
    7
 10
384.91511831995649
 20
275.26127242092628
 11
385.57845473338301
 21
275.26127242092628
  0
LINE
  8
_0-f_
  6
CONTINUOUS
 62
    7
 10
384.35367321106258
 20
277.70131242092623
 11
385.57845473338301
 21
277.70131242092623
  0
LINE
  8
_0-f_
  6
CONTINUOUS
 62
    7
 10
384.73846273338302
 20
278.82123242092626
 11
385.258462733383
 21
278.82123242092626
  0
LINE
  8
_0-f_
  6
CONTINUOUS
 62
    7
 10
385.258462733383
 20
278.46517642092624
 11
384.73846273338302
 21
278.46517642092624
  0
LINE
  8
_0-f_
  6
CONTINUOUS
 62
    7
 10
383.51762553637434
 20
277.70131242092623
 11
384.1008775132384
 21
275.19250002380477
  0
LINE
  8
_0-f_
  6
CONTINUOUS
 62
    7
 10
384.35367321106258
 20
277.70131242092623
 11
384.91511831995649
 21
275.26127242092628
  0
LINE
  8
_0-f_
  6
CONTINUOUS
 62
    7
 10
382.27845473338289
 20
276.58939242092629
 11
383.17845473338292
 21
276.58939242092629
  0
LINE
  8
_0-f_
  6
CONTINUOUS
 62
    7
 10
383.17845473338292
 20
277.02943242092624
 11
380.778454733383
 21
277.02943242092624
  0
LINE
  8
_0-f_
  6
CONTINUOUS
 62
    7
 10
382.48727073338307
 20
274.85255242092626
 11
383.17845473338292
 21
275.05207242092627
  0
LINE
  8
_0-f_
  6
CONTINUOUS
 62
    7
 10
382.37847873338313
 20
275.26127242092628
 11
383.17845473338292
 21
275.49215242092623
  0
LINE
  8
_0-f_
  6
CONTINUOUS
 62
    7
 10
380.778454733383
 20
274.82119242092625
 11
382.26566273338301
 21
274.82119242092625
  0
LINE
  8
_0-f_
  6
CONTINUOUS
 62
    7
 10
381.53846273338303
 20
276.58939242092629
 11
381.53846273338303
 21
275.26127242092628
  0
LINE
  8
_0-f_
  6
CONTINUOUS
 62
    7
 10
381.53846273338303
 20
275.26127242092628
 11
380.778454733383
 21
275.26127242092628
  0
LINE
  8
_0-f_
  6
CONTINUOUS
 62
    7
 10
380.778454733383
 20
275.26127242092628
 11
380.778454733383
 21
274.82119242092625
  0
LINE
  8
_0-f_
  6
CONTINUOUS
 62
    7
 10
380.778454733383
 20
276.58939242092629
 11
381.53846273338303
 21
276.58939242092629
  0
LINE
  8
_0-f_
  6
CONTINUOUS
 62
    7
 10
380.778454733383
 20
277.02943242092624
 11
380.778454733383
 21
276.58939242092629
  0
LINE
  8
_0-f_
  6
CONTINUOUS
 62
    7
 10
382.27845473338289
 20
275.26127242092628
 11
382.27845473338289
 21
276.58939242092629
  0
ARC
  8
_0-f_
  6
CONTINUOUS
 62
    7
 10
382.26566273338301
 20
275.62119242092626
 40
0.8000000000000001
 50
270
 51
286.10199
  0
LINE
  8
_0-f_
  6
CONTINUOUS
 62
    7
 10
382.37847873338313
 20
275.26127242092628
 11
382.27845473338289
 21
275.26127242092628
  0
LINE
  8
_0-f_
  6
CONTINUOUS
 62
    7
 10
383.17845473338292
 20
275.49215242092623
 11
383.17845473338292
 21
275.05207242092627
  0
LINE
  8
_0-f_
  6
CONTINUOUS
 62
    7
 10
383.17845473338292
 20
276.58939242092629
 11
383.17845473338292
 21
277.02943242092624
  0
ARC
  8
_0-f_
  6
CONTINUOUS
 62
    7
 10
384.56840929056261
 20
275.30119242092621
 40
0.4799999999999999
 50
193.08771650376977
 51
269.99999999999972
  0
ARC
  8
_0-f_
  6
CONTINUOUS
 62
    7
 10
384.97847873338299
 20
275.34119242092629
 40
0.0799919999999998
 50
192.96201000000002
 51
270
  0
LINE
  8
_0-f_
  6
CONTINUOUS
 62
    7
 10
380.778454733383
 20
278.14135242092624
 11
383.4153244634868
 21
278.14135242092624
  0
LINE
  8
_0-f_
  6
CONTINUOUS
 62
    7
 10
380.778454733383
 20
277.70131242092623
 11
383.51762553637434
 21
277.70131242092623
  0
LINE
  8
_0-f_
  6
CONTINUOUS
 62
    7
 10
380.778454733383
 20
278.14135242092624
 11
380.778454733383
 21
277.70131242092623
  0
LINE
  8
_0-f_
  6
CONTINUOUS
 62
    7
 10
383.25726507471575
 20
278.82123242092626
 11
384.09598333452277
 21
278.82123242092626
  0
LINE
  8
_0-f_
  6
CONTINUOUS
 62
    7
 10
383.25726507471575
 20
278.82123242092626
 11
383.4153244634868
 21
278.14135242092624
  0
LINE
  8
_0-f_
  6
CONTINUOUS
 62
    7
 10
384.09598333452277
 20
278.82123242092626
 11
384.25242146694461
 21
278.14135242092624
  0
LINE
  8
_0-f_
  6
CONTINUOUS
 62
    7
 10
384.73846273338302
 20
278.82123242092626
 11
384.73846273338302
 21
278.46517642092624
  0
LINE
  8
_0-f_
  6
CONTINUOUS
 62
    7
 10
385.57845473338301
 20
275.26127242092628
 11
385.57845473338301
 21
274.82119242092625
  0
LINE
  8
_0-f_
  6
CONTINUOUS
 62
    7
 10
385.57845473338301
 20
275.26127242092628
 11
385.57845473338301
 21
274.82119242092625
  0
LINE
  8
_0-f_
  6
CONTINUOUS
 62
    7
 10
385.57845473338301
 20
278.14135242092624
 11
385.57845473338301
 21
277.70131242092623
  0
LINE
  8
_0-f_
  6
CONTINUOUS
 62
    7
 10
385.258462733383
 20
278.82127242092622
 11
385.258462733383
 21
278.46522442092623
  0
LINE
  8
_0-f_
  6
CONTINUOUS
 62
    7
 10
388.83253050290818
 20
278.37895746178015
 11
391.08493537056665
 21
277.8212404209263
  0
LINE
  8
_0-f_
  6
CONTINUOUS
 62
    7
 10
391.08493537056665
 20
277.8212404209263
 11
391.08493537056665
 21
278.26127242092628
  0
LINE
  8
_0-f_
  6
CONTINUOUS
 62
    7
 10
391.08493537056665
 20
278.26127242092628
 11
388.96027248008966
 21
278.78921198383063
  0
ARC
  8
_0-f_
  6
CONTINUOUS
 62
    7
 10
388.68491137056668
 20
277.62123242092628
 40
1.1999999999999964
 50
76.734271344360408
 51
103.26596249111499
  0
LINE
  8
_0-f_
  6
CONTINUOUS
 62
    7
 10
388.40954549428903
 20
278.78921086001742
 11
386.28491137056665
 21
278.26128842092623
  0
LINE
  8
_0-f_
  6
CONTINUOUS
 62
    7
 10
386.28491137056665
 20
278.26128842092623
 11
386.28491137056665
 21
277.82123242092621
  0
LINE
  8
_0-f_
  6
CONTINUOUS
 62
    7
 10
386.28491137056665
 20
277.82123242092621
 11
388.52512676188093
 21
278.37573326525307
  0
ARC
  8
_0-f_
  6
CONTINUOUS
 62
    7
 10
388.68491137056674
 20
277.79740042092624
 40
0.5999999999999982
 50
75.757176751039125
 51
105.44466990909265
  0
LINE
  8
_0-f_
  6
CONTINUOUS
 62
    7
 10
390.39051937056661
 20
277.65326442092623
 11
386.97931937056649
 21
277.65326442092623
  0
LINE
  8
_0-f_
  6
CONTINUOUS
 62
    7
 10
386.97931937056649
 20
277.65326442092623
 11
386.97931937056649
 21
277.21322442092628
  0
LINE
  8
_0-f_
  6
CONTINUOUS
 62
    7
 10
386.97931937056649
 20
277.21322442092628
 11
390.39051937056661
 21
277.21322442092628
  0
LINE
  8
_0-f_
  6
CONTINUOUS
 62
    7
 10
390.39051937056661
 20
277.21322442092628
 11
390.39051937056661
 21
277.65326442092623
  0
LINE
  8
_0-f_
  6
CONTINUOUS
 62
    7
 10
391.08493537056665
 20
276.73314442092624
 11
386.28491137056659
 21
276.73314442092624
  0
LINE
  8
_0-f_
  6
CONTINUOUS
 62
    7
 10
386.28491137056659
 20
276.73314442092624
 11
386.28491137056665
 21
276.29330442092623
  0
LINE
  8
_0-f_
  6
CONTINUOUS
 62
    7
 10
386.28491137056665
 20
276.29330442092623
 11
387.53459325680183
 21
276.29330442092623
  0
LINE
  8
_0-f_
  6
CONTINUOUS
 62
    7
 10
387.53459325680183
 20
276.29330442092623
 11
386.76652737056656
 21
274.96271242092621
  0
LINE
  8
_0-f_
  6
CONTINUOUS
 62
    7
 10
386.76652737056656
 20
274.96271242092621
 11
386.76652737056656
 21
274.82119242092625
  0
LINE
  8
_0-f_
  6
CONTINUOUS
 62
    7
 10
386.76652737056656
 20
274.82119242092625
 11
390.60331937056662
 21
274.82119242092625
  0
LINE
  8
_0-f_
  6
CONTINUOUS
 62
    7
 10
390.60331937056662
 20
274.82119242092625
 11
390.60331937056662
 21
274.96263242092624
  0
LINE
  8
_0-f_
  6
CONTINUOUS
 62
    7
 10
390.60331937056662
 20
274.96263242092624
 11
389.83522577943683
 21
276.29330442092623
  0
LINE
  8
_0-f_
  6
CONTINUOUS
 62
    7
 10
389.83522577943683
 20
276.29330442092623
 11
391.08493537056665
 21
276.29330442092623
  0
LINE
  8
_0-f_
  6
CONTINUOUS
 62
    7
 10
391.08493537056665
 20
276.29330442092623
 11
391.08493537056665
 21
276.73314442092624
  0
LINE
  8
_0-f_
  6
CONTINUOUS
 62
    7
 10
388.04261046434067
 20
276.29330442092623
 11
389.32731229151267
 21
276.29330442092623
  0
LINE
  8
_0-f_
  6
CONTINUOUS
 62
    7
 10
389.32731229151267
 20
276.29330442092623
 11
389.87051937056657
 21
275.35183242092626
  0
LINE
  8
_0-f_
  6
CONTINUOUS
 62
    7
 10
389.87051937056657
 20
275.35183242092626
 11
389.87051937056657
 21
275.2932724209262
  0
LINE
  8
_0-f_
  6
CONTINUOUS
 62
    7
 10
389.87051937056657
 20
275.2932724209262
 11
387.49934337056663
 21
275.2932724209262
  0
LINE
  8
_0-f_
  6
CONTINUOUS
 62
    7
 10
387.49934337056663
 20
275.2932724209262
 11
387.49934337056663
 21
275.35183242092626
  0
LINE
  8
_0-f_
  6
CONTINUOUS
 62
    7
 10
387.49934337056663
 20
275.35183242092626
 11
388.04261046434067
 21
276.29330442092623
  0
LINE
  8
_0-f_
  6
CONTINUOUS
 62
    7
 10
390.39051937056672
 20
277.26119242092625
 11
386.97931937056654
 21
277.26119242092625
  0
LINE
  8
_0-f_
  6
CONTINUOUS
 62
    7
 10
390.39051937056672
 20
277.34119242092629
 11
386.97931937056654
 21
277.34119242092629
  0
LINE
  8
_0-f_
  6
CONTINUOUS
 62
    7
 10
390.39051937056672
 20
277.42119242092627
 11
386.97931937056654
 21
277.42119242092627
  0
LINE
  8
_0-f_
  6
CONTINUOUS
 62
    7
 10
390.39051937056672
 20
277.50119242092626
 11
386.97931937056654
 21
277.50119242092626
  0
LINE
  8
_0-f_
  6
CONTINUOUS
 62
    7
 10
390.39051937056672
 20
277.5811924209263
 11
386.97931937056654
 21
277.5811924209263
  0
LINE
  8
_0-f_
  6
CONTINUOUS
 62
    7
 10
391.08493537056631
 20
277.90119242092624
 11
390.7620399580411
 21
277.90119242092624
  0
LINE
  8
_0-f_
  6
CONTINUOUS
 62
    7
 10
386.60795438217286
 20
277.90119242092624
 11
386.28491137056665
 21
277.90119242092624
  0
LINE
  8
_0-f_
  6
CONTINUOUS
 62
    7
 10
391.08493537056631
 20
277.98119242092628
 11
390.43895069195582
 21
277.98119242092628
  0
LINE
  8
_0-f_
  6
CONTINUOUS
 62
    7
 10
386.93115899608597
 20
277.98119242092628
 11
386.28491137056665
 21
277.98119242092628
  0
LINE
  8
_0-f_
  6
CONTINUOUS
 62
    7
 10
391.08493537056631
 20
278.0611924209262
 11
390.11586142587078
 21
278.0611924209262
  0
LINE
  8
_0-f_
  6
CONTINUOUS
 62
    7
 10
387.25436360999913
 20
278.0611924209262
 11
386.28491137056665
 21
278.0611924209262
  0
LINE
  8
_0-f_
  6
CONTINUOUS
 62
    7
 10
391.08493537056631
 20
278.14119242092625
 11
389.79277215978556
 21
278.14119242092625
  0
LINE
  8
_0-f_
  6
CONTINUOUS
 62
    7
 10
387.57756822391229
 20
278.14119242092625
 11
386.28491137056665
 21
278.14119242092625
  0
LINE
  8
_0-f_
  6
CONTINUOUS
 62
    7
 10
391.08493537056631
 20
278.22119242092623
 11
389.46968289370034
 21
278.22119242092629
  0
LINE
  8
_0-f_
  6
CONTINUOUS
 62
    7
 10
387.9007728378254
 20
278.22119242092623
 11
386.28491137056665
 21
278.22119242092629
  0
LINE
  8
_0-f_
  6
CONTINUOUS
 62
    7
 10
390.92427958996689
 20
278.30119242092621
 11
389.14659362761518
 21
278.30119242092621
  0
LINE
  8
_0-f_
  6
CONTINUOUS
 62
    7
 10
388.22397745173851
 20
278.30119242092621
 11
386.44550579466232
 21
278.30119242092621
  0
LINE
  8
_0-f_
  6
CONTINUOUS
 62
    7
 10
390.60232411782329
 20
278.38119242092625
 11
388.81951501502425
 21
278.38119242092625
  0
LINE
  8
_0-f_
  6
CONTINUOUS
 62
    7
 10
388.54685961897388
 20
278.38119242092625
 11
386.76746735058782
 21
278.38119242092625
  0
LINE
  8
_0-f_
  6
CONTINUOUS
 62
    7
 10
390.28036864567969
 20
278.4611924209263
 11
387.08942890651338
 21
278.4611924209263
  0
LINE
  8
_0-f_
  6
CONTINUOUS
 62
    7
 10
389.95841317353609
 20
278.54119242092628
 11
387.41139046243887
 21
278.54119242092628
  0
LINE
  8
_0-f_
  6
CONTINUOUS
 62
    7
 10
389.63645770139249
 20
278.62119242092626
 11
387.73335201836449
 21
278.62119242092626
  0
LINE
  8
_0-f_
  6
CONTINUOUS
 62
    7
 10
389.31450222924889
 20
278.7011924209263
 11
388.05531357428998
 21
278.7011924209263
  0
LINE
  8
_0-f_
  6
CONTINUOUS
 62
    7
 10
388.99254675710529
 20
278.78119242092623
 11
388.37727513021548
 21
278.78119242092623
  0
LINE
  8
_0-f_
  6
CONTINUOUS
 62
    7
 10
391.08493537056688
 20
276.70119242092625
 11
386.28491137056665
 21
276.70119242092625
  0
LINE
  8
_0-f_
  6
CONTINUOUS
 62
    7
 10
391.08493537056688
 20
276.62119242092626
 11
386.28491137056665
 21
276.62119242092626
  0
LINE
  8
_0-f_
  6
CONTINUOUS
 62
    7
 10
391.08493537056688
 20
276.54119242092622
 11
386.28491137056665
 21
276.54119242092622
  0
LINE
  8
_0-f_
  6
CONTINUOUS
 62
    7
 10
391.08493537056688
 20
276.46119242092618
 11
386.28491137056665
 21
276.46119242092618
  0
LINE
  8
_0-f_
  6
CONTINUOUS
 62
    7
 10
391.08493537056688
 20
276.38119242092625
 11
386.28491137056665
 21
276.38119242092625
  0
LINE
  8
_0-f_
  6
CONTINUOUS
 62
    7
 10
391.08493537056688
 20
276.30119242092621
 11
386.28491137056665
 21
276.30119242092621
  0
LINE
  8
_0-f_
  6
CONTINUOUS
 62
    7
 10
389.87685043603403
 20
276.22119242092629
 11
389.36891921013012
 21
276.22119242092629
  0
LINE
  8
_0-f_
  6
CONTINUOUS
 62
    7
 10
388.00099894889877
 20
276.22119242092617
 11
387.49296759905832
 21
276.22119242092617
  0
LINE
  8
_0-f_
  6
CONTINUOUS
 62
    7
 10
389.92302822236331
 20
276.14119242092625
 11
389.41507731820377
 21
276.14119242092625
  0
LINE
  8
_0-f_
  6
CONTINUOUS
 62
    7
 10
387.9548357411752
 20
276.14119242092625
 11
387.44678870207201
 21
276.14119242092625
  0
LINE
  8
_0-f_
  6
CONTINUOUS
 62
    7
 10
389.96920600869265
 20
276.0611924209262
 11
389.46123542627743
 21
276.0611924209262
  0
LINE
  8
_0-f_
  6
CONTINUOUS
 62
    7
 10
387.90867253345164
 20
276.0611924209262
 11
387.40060980508565
 21
276.0611924209262
  0
LINE
  8
_0-f_
  6
CONTINUOUS
 62
    7
 10
390.01538379502199
 20
275.98119242092622
 11
389.50739353435108
 21
275.98119242092622
  0
LINE
  8
_0-f_
  6
CONTINUOUS
 62
    7
 10
387.86250932572807
 20
275.98119242092622
 11
387.35443090809935
 21
275.98119242092622
  0
LINE
  8
_0-f_
  6
CONTINUOUS
 62
    7
 10
390.06156158135127
 20
275.90119242092624
 11
389.55355164242474
 21
275.90119242092624
  0
LINE
  8
_0-f_
  6
CONTINUOUS
 62
    7
 10
387.8163461180045
 20
275.90119242092624
 11
387.30825201111304
 21
275.90119242092624
  0
LINE
  8
_0-f_
  6
CONTINUOUS
 62
    7
 10
390.10773936768055
 20
275.8211924209262
 11
389.59970975049839
 21
275.8211924209262
  0
LINE
  8
_0-f_
  6
CONTINUOUS
 62
    7
 10
387.77018291028094
 20
275.8211924209262
 11
387.26207311412668
 21
275.8211924209262
  0
LINE
  8
_0-f_
  6
CONTINUOUS
 62
    7
 10
390.15391715400983
 20
275.74119242092627
 11
389.64586785857205
 21
275.74119242092627
  0
LINE
  8
_0-f_
  6
CONTINUOUS
 62
    7
 10
387.72401970255737
 20
275.74119242092627
 11
387.21589421714037
 21
275.74119242092627
  0
LINE
  8
_0-f_
  6
CONTINUOUS
 62
    7
 10
390.20009494033917
 20
275.66119242092623
 11
389.6920259666457
 21
275.66119242092623
  0
LINE
  8
_0-f_
  6
CONTINUOUS
 62
    7
 10
387.6778564948338
 20
275.66119242092623
 11
387.16971532015407
 21
275.66119242092623
  0
LINE
  8
_0-f_
  6
CONTINUOUS
 62
    7
 10
390.24627272666845
 20
275.58119242092624
 11
389.73818407471936
 21
275.58119242092624
  0
LINE
  8
_0-f_
  6
CONTINUOUS
 62
    7
 10
387.63169328711024
 20
275.58119242092624
 11
387.12353642316771
 21
275.58119242092624
  0
LINE
  8
_0-f_
  6
CONTINUOUS
 62
    7
 10
390.29245051299779
 20
275.50119242092626
 11
389.78434218279301
 21
275.50119242092626
  0
LINE
  8
_0-f_
  6
CONTINUOUS
 62
    7
 10
387.58553007938667
 20
275.50119242092626
 11
387.07735752618146
 21
275.50119242092626
  0
LINE
  8
_0-f_
  6
CONTINUOUS
 62
    7
 10
390.33862829932707
 20
275.42119242092622
 11
389.83050029086661
 21
275.42119242092622
  0
LINE
  8
_0-f_
  6
CONTINUOUS
 62
    7
 10
387.53936687166311
 20
275.42119242092622
 11
387.0311786291951
 21
275.42119242092622
  0
LINE
  8
_0-f_
  6
CONTINUOUS
 62
    7
 10
390.38480608565635
 20
275.34119242092618
 11
389.87051937056663
 21
275.34119242092618
  0
LINE
  8
_0-f_
  6
CONTINUOUS
 62
    7
 10
387.49934337056231
 20
275.34119242092618
 11
386.98499973220885
 21
275.34119242092618
  0
LINE
  8
_0-f_
  6
CONTINUOUS
 62
    7
 10
390.43098387198563
 20
275.26119242092619
 11
386.93882083522249
 21
275.26119242092619
  0
LINE
  8
_0-f_
  6
CONTINUOUS
 62
    7
 10
390.47716165831497
 20
275.18119242092621
 11
386.89264193823612
 21
275.18119242092621
  0
LINE
  8
_0-f_
  6
CONTINUOUS
 62
    7
 10
390.52333944464431
 20
275.10119242092617
 11
386.84646304124988
 21
275.10119242092617
  0
LINE
  8
_0-f_
  6
CONTINUOUS
 62
    7
 10
390.56951723097359
 20
275.02119242092624
 11
386.80028414426351
 21
275.02119242092624
  0
LINE
  8
_0-f_
  6
CONTINUOUS
 62
    7
 10
390.60331937056515
 20
274.9411924209262
 11
386.76652737056781
 21
274.9411924209262
  0
LINE
  8
_0-f_
  6
CONTINUOUS
 62
    7
 10
390.60331937056515
 20
274.86119242092622
 11
386.76652737056781
 21
274.86119242092622
  0
LINE
  8
_0-f_
  6
CONTINUOUS
 62
    7
 10
386.28491137056665
 20
278.26128842092623
 11
388.41211137056661
 21
278.78984842092621
  0
LINE
  8
_0-f_
  6
CONTINUOUS
 62
    7
 10
386.28491137056665
 20
277.82123242092621
 11
388.54892737056662
 21
278.38162442092619
  0
LINE
  8
_0-f_
  6
CONTINUOUS
 62
    7
 10
386.97931937056649
 20
277.65326442092623
 11
390.39051937056661
 21
277.65326442092623
  0
LINE
  8
_0-f_
  6
CONTINUOUS
 62
    7
 10
386.97931937056649
 20
277.21322442092628
 11
390.39051937056661
 21
277.21322442092628
  0
LINE
  8
_0-f_
  6
CONTINUOUS
 62
    7
 10
386.28491137056665
 20
276.73314442092624
 11
391.08493537056665
 21
276.73314442092624
  0
LINE
  8
_0-f_
  6
CONTINUOUS
 62
    7
 10
386.76652737056656
 20
274.82119242092625
 11
390.60331937056662
 21
274.82119242092625
  0
LINE
  8
_0-f_
  6
CONTINUOUS
 62
    7
 10
387.49934337056663
 20
275.2932724209262
 11
389.87051937056657
 21
275.2932724209262
  0
LINE
  8
_0-f_
  6
CONTINUOUS
 62
    7
 10
388.04252737056675
 20
276.29316042092626
 11
387.49934337056663
 21
275.35183242092626
  0
LINE
  8
_0-f_
  6
CONTINUOUS
 62
    7
 10
386.28491137056665
 20
276.29330442092623
 11
387.53532737056673
 21
276.29330442092623
  0
LINE
  8
_0-f_
  6
CONTINUOUS
 62
    7
 10
386.28491137056665
 20
276.73314442092624
 11
386.28491137056665
 21
276.29330442092623
  0
LINE
  8
_0-f_
  6
CONTINUOUS
 62
    7
 10
387.53451937056656
 20
276.29317642092622
 11
386.76652737056656
 21
274.96271242092621
  0
LINE
  8
_0-f_
  6
CONTINUOUS
 62
    7
 10
386.76652737056656
 20
274.82119242092625
 11
386.76652737056656
 21
274.96263242092624
  0
LINE
  8
_0-f_
  6
CONTINUOUS
 62
    7
 10
387.49934337056663
 20
275.2932724209262
 11
387.49934337056663
 21
275.35191242092628
  0
LINE
  8
_0-f_
  6
CONTINUOUS
 62
    7
 10
386.28491137056665
 20
278.26127242092628
 11
386.28491137056665
 21
277.82123242092621
  0
LINE
  8
_0-f_
  6
CONTINUOUS
 62
    7
 10
386.97931937056649
 20
277.65326442092623
 11
386.97931937056649
 21
277.21322442092628
  0
LINE
  8
_0-f_
  6
CONTINUOUS
 62
    7
 10
389.83532737056674
 20
276.29312842092622
 11
390.60331937056662
 21
274.96263242092624
  0
LINE
  8
_0-f_
  6
CONTINUOUS
 62
    7
 10
389.83532737056674
 20
276.29330442092623
 11
391.08493537056665
 21
276.29330442092623
  0
LINE
  8
_0-f_
  6
CONTINUOUS
 62
    7
 10
388.04333537056669
 20
276.29330442092623
 11
389.32733537056669
 21
276.29330442092623
  0
LINE
  8
_0-f_
  6
CONTINUOUS
 62
    7
 10
389.32733537056669
 20
276.29326442092622
 11
389.87051937056657
 21
275.35183242092626
  0
LINE
  8
_0-f_
  6
CONTINUOUS
 62
    7
 10
389.87051937056657
 20
275.2932724209262
 11
389.87051937056657
 21
275.35191242092628
  0
LINE
  8
_0-f_
  6
CONTINUOUS
 62
    7
 10
390.60331937056662
 20
274.82119242092625
 11
390.60331937056662
 21
274.96263242092624
  0
LINE
  8
_0-f_
  6
CONTINUOUS
 62
    7
 10
391.08493537056665
 20
276.73314442092624
 11
391.08493537056665
 21
276.29330442092623
  0
LINE
  8
_0-f_
  6
CONTINUOUS
 62
    7
 10
388.82172737056669
 20
278.38163242092628
 11
391.08493537056665
 21
277.82124042092619
  0
LINE
  8
_0-f_
  6
CONTINUOUS
 62
    7
 10
388.95774337056667
 20
278.78984042092623
 11
391.08493537056665
 21
278.26127242092628
  0
ARC
  8
_0-f_
  6
CONTINUOUS
 62
    7
 10
388.68491137056674
 20
277.62123242092628
 40
1.2000000000000004
 50
76.866900000000015
 51
103.133
  0
ARC
  8
_0-f_
  6
CONTINUOUS
 62
    7
 10
388.68491137056674
 20
277.79740042092624
 40
0.6000000000000002
 50
76.866900000000015
 51
103.133
  0
LINE
  8
_0-f_
  6
CONTINUOUS
 62
    7
 10
390.39051937056661
 20
277.65326442092623
 11
390.39051937056661
 21
277.21322442092628
  0
LINE
  8
_0-f_
  6
CONTINUOUS
 62
    7
 10
391.08493537056665
 20
278.26127242092628
 11
391.08493537056665
 21
277.82123242092621
  0
LINE
  8
_0-f_
  6
CONTINUOUS
 62
    7
 10
394.23951328328565
 20
278.82123242092626
 11
391.47950528328568
 21
278.82123242092626
  0
LINE
  8
_0-f_
  6
CONTINUOUS
 62
    7
 10
391.47950528328568
 20
278.82123242092626
 11
391.47950528328568
 21
278.38119242092625
  0
LINE
  8
_0-f_
  6
CONTINUOUS
 62
    7
 10
391.47950528328568
 20
278.38119242092625
 11
394.23951328328565
 21
278.38119242092625
  0
LINE
  8
_0-f_
  6
CONTINUOUS
 62
    7
 10
394.23951328328565
 20
278.38119242092625
 11
394.23951328328565
 21
278.82123242092626
  0
LINE
  8
_0-f_
  6
CONTINUOUS
 62
    7
 10
394.23951328328565
 20
277.70131242092623
 11
391.47950528328568
 21
277.70131242092623
  0
LINE
  8
_0-f_
  6
CONTINUOUS
 62
    7
 10
391.47950528328568
 20
277.70131242092623
 11
391.47950528328568
 21
277.26127242092628
  0
LINE
  8
_0-f_
  6
CONTINUOUS
 62
    7
 10
391.47950528328568
 20
277.26127242092628
 11
392.59552128328573
 21
277.26127242092628
  0
LINE
  8
_0-f_
  6
CONTINUOUS
 62
    7
 10
392.59552128328573
 20
277.26127242092628
 11
392.59552128328573
 21
274.82119242092625
  0
LINE
  8
_0-f_
  6
CONTINUOUS
 62
    7
 10
392.59552128328573
 20
274.82119242092625
 11
393.1235132832856
 21
274.82119242092625
  0
LINE
  8
_0-f_
  6
CONTINUOUS
 62
    7
 10
393.1235132832856
 20
274.82119242092625
 11
393.1235132832856
 21
277.26127242092628
  0
LINE
  8
_0-f_
  6
CONTINUOUS
 62
    7
 10
393.1235132832856
 20
277.26127242092628
 11
394.23951328328565
 21
277.26127242092628
  0
LINE
  8
_0-f_
  6
CONTINUOUS
 62
    7
 10
394.23951328328565
 20
277.26127242092628
 11
394.23951328328565
 21
277.70131242092623
  0
LINE
  8
_0-f_
  6
CONTINUOUS
 62
    7
 10
391.69550528328568
 20
276.78119242092623
 11
391.69550528328568
 21
275.46287240092977
  0
ARC
  8
_0-f_
  6
CONTINUOUS
 62
    7
 10
391.5355132832857
 20
275.46127242092621
 40
0.1600000000000022
 50
270
 51
0.5729601837918403
  0
LINE
  8
_0-f_
  6
CONTINUOUS
 62
    7
 10
391.5355132832857
 20
275.30127242092624
 11
391.47950528328568
 21
275.30127242092624
  0
LINE
  8
_0-f_
  6
CONTINUOUS
 62
    7
 10
391.47950528328568
 20
275.30127242092624
 11
391.47950528328568
 21
274.82119242092625
  0
LINE
  8
_0-f_
  6
CONTINUOUS
 62
    7
 10
391.47950528328568
 20
274.82119242092625
 11
391.7755132832857
 21
274.82119242092625
  0
ARC
  8
_0-f_
  6
CONTINUOUS
 62
    7
 10
391.7755132832857
 20
275.22119242092623
 40
0.4
 50
270
 51
0
  0
LINE
  8
_0-f_
  6
CONTINUOUS
 62
    7
 10
392.17551328328568
 20
275.22119242092623
 11
392.17551328328568
 21
276.78119242092623
  0
LINE
  8
_0-f_
  6
CONTINUOUS
 62
    7
 10
392.17551328328568
 20
276.78119242092623
 11
391.69550528328568
 21
276.78119242092623
  0
LINE
  8
_0-f_
  6
CONTINUOUS
 62
    7
 10
393.54352128328571
 20
276.78119242092623
 11
393.54352128328571
 21
275.21761474794403
  0
ARC
  8
_0-f_
  6
CONTINUOUS
 62
    7
 10
393.94350528328573
 20
275.22119242092623
 40
0.4
 50
180.51247073885855
 51
270
  0
LINE
  8
_0-f_
  6
CONTINUOUS
 62
    7
 10
393.94350528328573
 20
274.82119242092625
 11
394.23951328328565
 21
274.82119242092625
  0
LINE
  8
_0-f_
  6
CONTINUOUS
 62
    7
 10
394.23951328328565
 20
274.82119242092625
 11
394.23951328328565
 21
275.30127242092624
  0
LINE
  8
_0-f_
  6
CONTINUOUS
 62
    7
 10
394.23951328328565
 20
275.30127242092624
 11
394.18350528328568
 21
275.30127242092624
  0
ARC
  8
_0-f_
  6
CONTINUOUS
 62
    7
 10
394.18350528328568
 20
275.46127242092621
 40
0.1600000000000022
 50
179.42703981620815
 51
270
  0
LINE
  8
_0-f_
  6
CONTINUOUS
 62
    7
 10
394.02351328328575
 20
275.46287240092977
 11
394.02351328328575
 21
276.78119242092623
  0
LINE
  8
_0-f_
  6
CONTINUOUS
 62
    7
 10
394.02351328328575
 20
276.78119242092623
 11
393.54352128328571
 21
276.78119242092623
  0
LINE
  8
_0-f_
  6
CONTINUOUS
 62
    7
 10
395.65952128328581
 20
277.46127242092621
 11
396.27951328328578
 21
277.46127242092621
  0
LINE
  8
_0-f_
  6
CONTINUOUS
 62
    7
 10
396.27951328328578
 20
277.46127242092621
 11
396.27951328328578
 21
277.90131242092622
  0
LINE
  8
_0-f_
  6
CONTINUOUS
 62
    7
 10
396.27951328328578
 20
277.90131242092622
 11
395.65952128328581
 21
277.90131242092627
  0
LINE
  8
_0-f_
  6
CONTINUOUS
 62
    7
 10
395.65952128328581
 20
277.90131242092627
 11
395.65952128328581
 21
278.82123242092626
  0
LINE
  8
_0-f_
  6
CONTINUOUS
 62
    7
 10
395.65952128328581
 20
278.82123242092626
 11
395.2195212832857
 21
278.82123242092626
  0
LINE
  8
_0-f_
  6
CONTINUOUS
 62
    7
 10
395.2195212832857
 20
278.82123242092626
 11
395.2195212832857
 21
277.90131242092627
  0
LINE
  8
_0-f_
  6
CONTINUOUS
 62
    7
 10
395.2195212832857
 20
277.90131242092627
 11
394.63951328328574
 21
277.90131242092627
  0
LINE
  8
_0-f_
  6
CONTINUOUS
 62
    7
 10
394.63951328328574
 20
277.90131242092627
 11
394.63951328328574
 21
277.46127242092621
  0
LINE
  8
_0-f_
  6
CONTINUOUS
 62
    7
 10
394.63951328328574
 20
277.46127242092621
 11
395.21952128328576
 21
277.46127242092621
  0
LINE
  8
_0-f_
  6
CONTINUOUS
 62
    7
 10
395.21952128328576
 20
277.46127242092621
 11
395.2195212832857
 21
275.30127242092624
  0
LINE
  8
_0-f_
  6
CONTINUOUS
 62
    7
 10
395.2195212832857
 20
275.30127242092624
 11
394.63951328328574
 21
275.30127242092624
  0
LINE
  8
_0-f_
  6
CONTINUOUS
 62
    7
 10
394.63951328328574
 20
275.30127242092624
 11
394.63951328328574
 21
274.82119242092625
  0
LINE
  8
_0-f_
  6
CONTINUOUS
 62
    7
 10
394.63951328328574
 20
274.82119242092625
 11
396.27951328328578
 21
274.82119242092625
  0
LINE
  8
_0-f_
  6
CONTINUOUS
 62
    7
 10
396.27951328328578
 20
274.82119242092625
 11
396.27951328328578
 21
275.30127242092624
  0
LINE
  8
_0-f_
  6
CONTINUOUS
 62
    7
 10
396.27951328328578
 20
275.30127242092624
 11
395.65952128328581
 21
275.30127242092624
  0
LINE
  8
_0-f_
  6
CONTINUOUS
 62
    7
 10
395.65952128328581
 20
275.30127242092624
 11
395.65952128328581
 21
277.46127242092621
  0
LINE
  8
_0-f_
  6
CONTINUOUS
 62
    7
 10
395.65952128328581
 20
276.78119242092623
 11
395.21952128328553
 21
276.78119242092623
  0
LINE
  8
_0-f_
  6
CONTINUOUS
 62
    7
 10
394.02351328328558
 20
276.78119242092623
 11
393.54352128328571
 21
276.78119242092623
  0
LINE
  8
_0-f_
  6
CONTINUOUS
 62
    7
 10
393.1235132832856
 20
276.78119242092623
 11
392.59552128328573
 21
276.78119242092623
  0
LINE
  8
_0-f_
  6
CONTINUOUS
 62
    7
 10
392.17551328328568
 20
276.78119242092623
 11
391.69550528328563
 21
276.78119242092623
  0
LINE
  8
_0-f_
  6
CONTINUOUS
 62
    7
 10
395.65952128328581
 20
276.86119242092627
 11
395.21952128328553
 21
276.86119242092627
  0
LINE
  8
_0-f_
  6
CONTINUOUS
 62
    7
 10
393.1235132832856
 20
276.86119242092627
 11
392.59552128328573
 21
276.86119242092627
  0
LINE
  8
_0-f_
  6
CONTINUOUS
 62
    7
 10
395.65952128328581
 20
276.9411924209262
 11
395.21952128328553
 21
276.9411924209262
  0
LINE
  8
_0-f_
  6
CONTINUOUS
 62
    7
 10
393.1235132832856
 20
276.9411924209262
 11
392.59552128328573
 21
276.9411924209262
  0
LINE
  8
_0-f_
  6
CONTINUOUS
 62
    7
 10
395.65952128328581
 20
277.02119242092624
 11
395.21952128328553
 21
277.02119242092624
  0
LINE
  8
_0-f_
  6
CONTINUOUS
 62
    7
 10
393.1235132832856
 20
277.02119242092624
 11
392.59552128328573
 21
277.02119242092624
  0
LINE
  8
_0-f_
  6
CONTINUOUS
 62
    7
 10
395.65952128328581
 20
277.10119242092622
 11
395.21952128328553
 21
277.10119242092622
  0
LINE
  8
_0-f_
  6
CONTINUOUS
 62
    7
 10
393.1235132832856
 20
277.10119242092622
 11
392.59552128328573
 21
277.10119242092622
  0
LINE
  8
_0-f_
  6
CONTINUOUS
 62
    7
 10
395.65952128328581
 20
277.18119242092621
 11
395.21952128328553
 21
277.18119242092621
  0
LINE
  8
_0-f_
  6
CONTINUOUS
 62
    7
 10
393.1235132832856
 20
277.18119242092621
 11
392.59552128328573
 21
277.18119242092621
  0
LINE
  8
_0-f_
  6
CONTINUOUS
 62
    7
 10
395.65952128328581
 20
277.26119242092625
 11
395.21952128328553
 21
277.26119242092625
  0
LINE
  8
_0-f_
  6
CONTINUOUS
 62
    7
 10
393.1235132832856
 20
277.26119242092625
 11
392.59552128328573
 21
277.26119242092625
  0
LINE
  8
_0-f_
  6
CONTINUOUS
 62
    7
 10
395.65952128328581
 20
277.34119242092629
 11
395.21952128328553
 21
277.34119242092629
  0
LINE
  8
_0-f_
  6
CONTINUOUS
 62
    7
 10
394.23951328328565
 20
277.34119242092629
 11
391.47950528328556
 21
277.34119242092629
  0
LINE
  8
_0-f_
  6
CONTINUOUS
 62
    7
 10
395.65952128328581
 20
277.42119242092627
 11
395.21952128328553
 21
277.42119242092627
  0
LINE
  8
_0-f_
  6
CONTINUOUS
 62
    7
 10
394.23951328328565
 20
277.42119242092627
 11
391.47950528328556
 21
277.42119242092627
  0
LINE
  8
_0-f_
  6
CONTINUOUS
 62
    7
 10
396.27951328328584
 20
277.50119242092626
 11
394.63951328328562
 21
277.50119242092626
  0
LINE
  8
_0-f_
  6
CONTINUOUS
 62
    7
 10
394.23951328328565
 20
277.50119242092626
 11
391.47950528328556
 21
277.50119242092626
  0
LINE
  8
_0-f_
  6
CONTINUOUS
 62
    7
 10
396.27951328328584
 20
277.5811924209263
 11
394.63951328328562
 21
277.5811924209263
  0
LINE
  8
_0-f_
  6
CONTINUOUS
 62
    7
 10
394.23951328328565
 20
277.5811924209263
 11
391.47950528328556
 21
277.5811924209263
  0
LINE
  8
_0-f_
  6
CONTINUOUS
 62
    7
 10
396.27951328328584
 20
277.66119242092623
 11
394.63951328328562
 21
277.66119242092623
  0
LINE
  8
_0-f_
  6
CONTINUOUS
 62
    7
 10
394.23951328328565
 20
277.66119242092623
 11
391.47950528328556
 21
277.66119242092623
  0
LINE
  8
_0-f_
  6
CONTINUOUS
 62
    7
 10
396.27951328328584
 20
277.74119242092627
 11
394.63951328328562
 21
277.74119242092627
  0
LINE
  8
_0-f_
  6
CONTINUOUS
 62
    7
 10
396.27951328328584
 20
277.82119242092625
 11
394.63951328328562
 21
277.82119242092625
  0
LINE
  8
_0-f_
  6
CONTINUOUS
 62
    7
 10
396.27951328328584
 20
277.90119242092624
 11
394.63951328328562
 21
277.90119242092624
  0
LINE
  8
_0-f_
  6
CONTINUOUS
 62
    7
 10
395.65952128328581
 20
277.98119242092628
 11
395.21952128328576
 21
277.98119242092628
  0
LINE
  8
_0-f_
  6
CONTINUOUS
 62
    7
 10
395.65952128328581
 20
278.0611924209262
 11
395.21952128328576
 21
278.0611924209262
  0
LINE
  8
_0-f_
  6
CONTINUOUS
 62
    7
 10
395.65952128328581
 20
278.14119242092625
 11
395.21952128328576
 21
278.14119242092625
  0
LINE
  8
_0-f_
  6
CONTINUOUS
 62
    7
 10
395.65952128328581
 20
278.22119242092629
 11
395.21952128328576
 21
278.22119242092629
  0
LINE
  8
_0-f_
  6
CONTINUOUS
 62
    7
 10
395.65952128328581
 20
278.30119242092621
 11
395.21952128328576
 21
278.30119242092621
  0
LINE
  8
_0-f_
  6
CONTINUOUS
 62
    7
 10
395.65952128328581
 20
278.38119242092625
 11
395.21952128328576
 21
278.38119242092625
  0
LINE
  8
_0-f_
  6
CONTINUOUS
 62
    7
 10
394.23951328328565
 20
278.38119242092625
 11
391.47950528328556
 21
278.38119242092625
  0
LINE
  8
_0-f_
  6
CONTINUOUS
 62
    7
 10
395.65952128328581
 20
278.4611924209263
 11
395.21952128328576
 21
278.4611924209263
  0
LINE
  8
_0-f_
  6
CONTINUOUS
 62
    7
 10
394.23951328328565
 20
278.4611924209263
 11
391.47950528328556
 21
278.4611924209263
  0
LINE
  8
_0-f_
  6
CONTINUOUS
 62
    7
 10
395.65952128328581
 20
278.54119242092628
 11
395.21952128328576
 21
278.54119242092628
  0
LINE
  8
_0-f_
  6
CONTINUOUS
 62
    7
 10
394.23951328328565
 20
278.54119242092628
 11
391.47950528328556
 21
278.54119242092628
  0
LINE
  8
_0-f_
  6
CONTINUOUS
 62
    7
 10
395.65952128328581
 20
278.62119242092626
 11
395.21952128328576
 21
278.62119242092626
  0
LINE
  8
_0-f_
  6
CONTINUOUS
 62
    7
 10
394.23951328328565
 20
278.62119242092626
 11
391.47950528328556
 21
278.62119242092626
  0
LINE
  8
_0-f_
  6
CONTINUOUS
 62
    7
 10
395.65952128328581
 20
278.7011924209263
 11
395.21952128328576
 21
278.7011924209263
  0
LINE
  8
_0-f_
  6
CONTINUOUS
 62
    7
 10
394.23951328328565
 20
278.7011924209263
 11
391.47950528328556
 21
278.7011924209263
  0
LINE
  8
_0-f_
  6
CONTINUOUS
 62
    7
 10
395.65952128328581
 20
278.78119242092623
 11
395.21952128328576
 21
278.78119242092623
  0
LINE
  8
_0-f_
  6
CONTINUOUS
 62
    7
 10
394.23951328328565
 20
278.78119242092623
 11
391.47950528328556
 21
278.78119242092623
  0
LINE
  8
_0-f_
  6
CONTINUOUS
 62
    7
 10
395.65952128328581
 20
276.70119242092625
 11
395.21952128328553
 21
276.70119242092625
  0
LINE
  8
_0-f_
  6
CONTINUOUS
 62
    7
 10
394.02351328328558
 20
276.70119242092625
 11
393.54352128328571
 21
276.70119242092625
  0
LINE
  8
_0-f_
  6
CONTINUOUS
 62
    7
 10
393.1235132832856
 20
276.70119242092625
 11
392.59552128328573
 21
276.70119242092625
  0
LINE
  8
_0-f_
  6
CONTINUOUS
 62
    7
 10
392.17551328328568
 20
276.70119242092625
 11
391.69550528328563
 21
276.70119242092625
  0
LINE
  8
_0-f_
  6
CONTINUOUS
 62
    7
 10
395.65952128328581
 20
276.62119242092626
 11
395.21952128328553
 21
276.62119242092626
  0
LINE
  8
_0-f_
  6
CONTINUOUS
 62
    7
 10
394.02351328328558
 20
276.62119242092626
 11
393.54352128328571
 21
276.62119242092626
  0
LINE
  8
_0-f_
  6
CONTINUOUS
 62
    7
 10
393.1235132832856
 20
276.62119242092626
 11
392.59552128328573
 21
276.62119242092626
  0
LINE
  8
_0-f_
  6
CONTINUOUS
 62
    7
 10
392.17551328328568
 20
276.62119242092626
 11
391.69550528328563
 21
276.62119242092626
  0
LINE
  8
_0-f_
  6
CONTINUOUS
 62
    7
 10
395.65952128328581
 20
276.54119242092622
 11
395.21952128328553
 21
276.54119242092622
  0
LINE
  8
_0-f_
  6
CONTINUOUS
 62
    7
 10
394.02351328328558
 20
276.54119242092622
 11
393.54352128328571
 21
276.54119242092622
  0
LINE
  8
_0-f_
  6
CONTINUOUS
 62
    7
 10
393.1235132832856
 20
276.54119242092622
 11
392.59552128328573
 21
276.54119242092622
  0
LINE
  8
_0-f_
  6
CONTINUOUS
 62
    7
 10
392.17551328328568
 20
276.54119242092622
 11
391.69550528328563
 21
276.54119242092622
  0
LINE
  8
_0-f_
  6
CONTINUOUS
 62
    7
 10
395.65952128328581
 20
276.46119242092618
 11
395.21952128328553
 21
276.46119242092618
  0
LINE
  8
_0-f_
  6
CONTINUOUS
 62
    7
 10
394.02351328328558
 20
276.46119242092618
 11
393.54352128328571
 21
276.46119242092618
  0
LINE
  8
_0-f_
  6
CONTINUOUS
 62
    7
 10
393.1235132832856
 20
276.46119242092618
 11
392.59552128328573
 21
276.46119242092618
  0
LINE
  8
_0-f_
  6
CONTINUOUS
 62
    7
 10
392.17551328328568
 20
276.46119242092618
 11
391.69550528328563
 21
276.46119242092618
  0
LINE
  8
_0-f_
  6
CONTINUOUS
 62
    7
 10
395.65952128328581
 20
276.38119242092625
 11
395.21952128328553
 21
276.38119242092625
  0
LINE
  8
_0-f_
  6
CONTINUOUS
 62
    7
 10
394.02351328328558
 20
276.38119242092625
 11
393.54352128328571
 21
276.38119242092625
  0
LINE
  8
_0-f_
  6
CONTINUOUS
 62
    7
 10
393.1235132832856
 20
276.38119242092625
 11
392.59552128328573
 21
276.38119242092625
  0
LINE
  8
_0-f_
  6
CONTINUOUS
 62
    7
 10
392.17551328328568
 20
276.38119242092625
 11
391.69550528328563
 21
276.38119242092625
  0
LINE
  8
_0-f_
  6
CONTINUOUS
 62
    7
 10
395.65952128328581
 20
276.30119242092621
 11
395.21952128328553
 21
276.30119242092621
  0
LINE
  8
_0-f_
  6
CONTINUOUS
 62
    7
 10
394.02351328328558
 20
276.30119242092621
 11
393.54352128328571
 21
276.30119242092621
  0
LINE
  8
_0-f_
  6
CONTINUOUS
 62
    7
 10
393.1235132832856
 20
276.30119242092621
 11
392.59552128328573
 21
276.30119242092621
  0
LINE
  8
_0-f_
  6
CONTINUOUS
 62
    7
 10
392.17551328328568
 20
276.30119242092621
 11
391.69550528328563
 21
276.30119242092621
  0
LINE
  8
_0-f_
  6
CONTINUOUS
 62
    7
 10
395.65952128328581
 20
276.22119242092617
 11
395.21952128328553
 21
276.22119242092617
  0
LINE
  8
_0-f_
  6
CONTINUOUS
 62
    7
 10
394.02351328328558
 20
276.22119242092617
 11
393.54352128328571
 21
276.22119242092617
  0
LINE
  8
_0-f_
  6
CONTINUOUS
 62
    7
 10
393.1235132832856
 20
276.22119242092617
 11
392.59552128328573
 21
276.22119242092617
  0
LINE
  8
_0-f_
  6
CONTINUOUS
 62
    7
 10
392.17551328328568
 20
276.22119242092617
 11
391.69550528328563
 21
276.22119242092617
  0
LINE
  8
_0-f_
  6
CONTINUOUS
 62
    7
 10
395.65952128328581
 20
276.14119242092625
 11
395.21952128328553
 21
276.14119242092625
  0
LINE
  8
_0-f_
  6
CONTINUOUS
 62
    7
 10
394.02351328328558
 20
276.14119242092625
 11
393.54352128328571
 21
276.14119242092625
  0
LINE
  8
_0-f_
  6
CONTINUOUS
 62
    7
 10
393.1235132832856
 20
276.14119242092625
 11
392.59552128328573
 21
276.14119242092625
  0
LINE
  8
_0-f_
  6
CONTINUOUS
 62
    7
 10
392.17551328328568
 20
276.14119242092625
 11
391.69550528328563
 21
276.14119242092625
  0
LINE
  8
_0-f_
  6
CONTINUOUS
 62
    7
 10
395.65952128328581
 20
276.0611924209262
 11
395.21952128328553
 21
276.0611924209262
  0
LINE
  8
_0-f_
  6
CONTINUOUS
 62
    7
 10
394.02351328328558
 20
276.0611924209262
 11
393.54352128328571
 21
276.0611924209262
  0
LINE
  8
_0-f_
  6
CONTINUOUS
 62
    7
 10
393.1235132832856
 20
276.0611924209262
 11
392.59552128328573
 21
276.0611924209262
  0
LINE
  8
_0-f_
  6
CONTINUOUS
 62
    7
 10
392.17551328328568
 20
276.0611924209262
 11
391.69550528328563
 21
276.0611924209262
  0
LINE
  8
_0-f_
  6
CONTINUOUS
 62
    7
 10
395.65952128328581
 20
275.98119242092622
 11
395.21952128328553
 21
275.98119242092622
  0
LINE
  8
_0-f_
  6
CONTINUOUS
 62
    7
 10
394.02351328328558
 20
275.98119242092622
 11
393.54352128328571
 21
275.98119242092622
  0
LINE
  8
_0-f_
  6
CONTINUOUS
 62
    7
 10
393.1235132832856
 20
275.98119242092622
 11
392.59552128328573
 21
275.98119242092622
  0
LINE
  8
_0-f_
  6
CONTINUOUS
 62
    7
 10
392.17551328328568
 20
275.98119242092622
 11
391.69550528328563
 21
275.98119242092622
  0
LINE
  8
_0-f_
  6
CONTINUOUS
 62
    7
 10
395.65952128328581
 20
275.90119242092624
 11
395.21952128328553
 21
275.90119242092624
  0
LINE
  8
_0-f_
  6
CONTINUOUS
 62
    7
 10
394.02351328328558
 20
275.90119242092624
 11
393.54352128328571
 21
275.90119242092624
  0
LINE
  8
_0-f_
  6
CONTINUOUS
 62
    7
 10
393.1235132832856
 20
275.90119242092624
 11
392.59552128328573
 21
275.90119242092624
  0
LINE
  8
_0-f_
  6
CONTINUOUS
 62
    7
 10
392.17551328328568
 20
275.90119242092624
 11
391.69550528328563
 21
275.90119242092624
  0
LINE
  8
_0-f_
  6
CONTINUOUS
 62
    7
 10
395.65952128328581
 20
275.8211924209262
 11
395.21952128328553
 21
275.8211924209262
  0
LINE
  8
_0-f_
  6
CONTINUOUS
 62
    7
 10
394.02351328328558
 20
275.8211924209262
 11
393.54352128328571
 21
275.8211924209262
  0
LINE
  8
_0-f_
  6
CONTINUOUS
 62
    7
 10
393.1235132832856
 20
275.8211924209262
 11
392.59552128328573
 21
275.8211924209262
  0
LINE
  8
_0-f_
  6
CONTINUOUS
 62
    7
 10
392.17551328328568
 20
275.8211924209262
 11
391.69550528328563
 21
275.8211924209262
  0
LINE
  8
_0-f_
  6
CONTINUOUS
 62
    7
 10
395.65952128328581
 20
275.74119242092627
 11
395.21952128328553
 21
275.74119242092627
  0
LINE
  8
_0-f_
  6
CONTINUOUS
 62
    7
 10
394.02351328328558
 20
275.74119242092627
 11
393.54352128328571
 21
275.74119242092627
  0
LINE
  8
_0-f_
  6
CONTINUOUS
 62
    7
 10
393.1235132832856
 20
275.74119242092627
 11
392.59552128328573
 21
275.74119242092627
  0
LINE
  8
_0-f_
  6
CONTINUOUS
 62
    7
 10
392.17551328328568
 20
275.74119242092627
 11
391.69550528328563
 21
275.74119242092627
  0
LINE
  8
_0-f_
  6
CONTINUOUS
 62
    7
 10
395.65952128328581
 20
275.66119242092623
 11
395.21952128328553
 21
275.66119242092623
  0
LINE
  8
_0-f_
  6
CONTINUOUS
 62
    7
 10
394.02351328328558
 20
275.66119242092623
 11
393.54352128328571
 21
275.66119242092623
  0
LINE
  8
_0-f_
  6
CONTINUOUS
 62
    7
 10
393.1235132832856
 20
275.66119242092623
 11
392.59552128328573
 21
275.66119242092623
  0
LINE
  8
_0-f_
  6
CONTINUOUS
 62
    7
 10
392.17551328328568
 20
275.66119242092623
 11
391.69550528328563
 21
275.66119242092623
  0
LINE
  8
_0-f_
  6
CONTINUOUS
 62
    7
 10
395.65952128328581
 20
275.58119242092624
 11
395.21952128328553
 21
275.58119242092624
  0
LINE
  8
_0-f_
  6
CONTINUOUS
 62
    7
 10
394.02351328328558
 20
275.58119242092624
 11
393.54352128328571
 21
275.58119242092624
  0
LINE
  8
_0-f_
  6
CONTINUOUS
 62
    7
 10
393.1235132832856
 20
275.58119242092624
 11
392.59552128328573
 21
275.58119242092624
  0
LINE
  8
_0-f_
  6
CONTINUOUS
 62
    7
 10
392.17551328328568
 20
275.58119242092624
 11
391.69550528328563
 21
275.58119242092624
  0
LINE
  8
_0-f_
  6
CONTINUOUS
 62
    7
 10
395.65952128328581
 20
275.50119242092626
 11
395.21952128328553
 21
275.50119242092626
  0
LINE
  8
_0-f_
  6
CONTINUOUS
 62
    7
 10
394.02351328328558
 20
275.50119242092626
 11
393.54352128328571
 21
275.50119242092626
  0
LINE
  8
_0-f_
  6
CONTINUOUS
 62
    7
 10
393.1235132832856
 20
275.50119242092626
 11
392.59552128328573
 21
275.50119242092626
  0
LINE
  8
_0-f_
  6
CONTINUOUS
 62
    7
 10
392.17551328328568
 20
275.50119242092626
 11
391.69550528328563
 21
275.50119242092626
  0
LINE
  8
_0-f_
  6
CONTINUOUS
 62
    7
 10
395.65952128328581
 20
275.42119242092622
 11
395.21952128328553
 21
275.42119242092622
  0
LINE
  8
_0-f_
  6
CONTINUOUS
 62
    7
 10
394.02905072032058
 20
275.42119242092622
 11
393.54352128328571
 21
275.42119242092622
  0
LINE
  8
_0-f_
  6
CONTINUOUS
 62
    7
 10
393.1235132832856
 20
275.42119242092622
 11
392.59552128328573
 21
275.42119242092622
  0
LINE
  8
_0-f_
  6
CONTINUOUS
 62
    7
 10
392.17551328328568
 20
275.42119242092622
 11
391.68993008515372
 21
275.42119242092622
  0
LINE
  8
_0-f_
  6
CONTINUOUS
 62
    7
 10
395.65952128328581
 20
275.34119242092618
 11
395.21952128328553
 21
275.34119242092618
  0
LINE
  8
_0-f_
  6
CONTINUOUS
 62
    7
 10
394.07851437812627
 20
275.34119242092618
 11
393.54352128328571
 21
275.34119242092618
  0
LINE
  8
_0-f_
  6
CONTINUOUS
 62
    7
 10
393.1235132832856
 20
275.34119242092618
 11
392.59552128328573
 21
275.34119242092618
  0
LINE
  8
_0-f_
  6
CONTINUOUS
 62
    7
 10
392.17551328328568
 20
275.34119242092618
 11
391.64052095741647
 21
275.34119242092618
  0
LINE
  8
_0-f_
  6
CONTINUOUS
 62
    7
 10
396.27951328328561
 20
275.26119242092619
 11
394.63951328328585
 21
275.26119242092619
  0
LINE
  8
_0-f_
  6
CONTINUOUS
 62
    7
 10
394.23951328328548
 20
275.26119242092619
 11
393.54352128328571
 21
275.26119242092619
  0
LINE
  8
_0-f_
  6
CONTINUOUS
 62
    7
 10
393.1235132832856
 20
275.26119242092619
 11
392.59552128328573
 21
275.26119242092619
  0
LINE
  8
_0-f_
  6
CONTINUOUS
 62
    7
 10
392.17551328328568
 20
275.26119242092619
 11
391.47950528328573
 21
275.26119242092619
  0
LINE
  8
_0-f_
  6
CONTINUOUS
 62
    7
 10
396.27951328328561
 20
275.18119242092621
 11
394.63951328328585
 21
275.18119242092621
  0
LINE
  8
_0-f_
  6
CONTINUOUS
 62
    7
 10
394.23951328328548
 20
275.18119242092621
 11
393.54671617520569
 21
275.18119242092621
  0
LINE
  8
_0-f_
  6
CONTINUOUS
 62
    7
 10
393.1235132832856
 20
275.18119242092621
 11
392.59552128328573
 21
275.18119242092621
  0
LINE
  8
_0-f_
  6
CONTINUOUS
 62
    7
 10
392.17236509843963
 20
275.18119242092621
 11
391.47950528328573
 21
275.18119242092621
  0
LINE
  8
_0-f_
  6
CONTINUOUS
 62
    7
 10
396.27951328328561
 20
275.10119242092617
 11
394.63951328328585
 21
275.10119242092617
  0
LINE
  8
_0-f_
  6
CONTINUOUS
 62
    7
 10
394.23951328328548
 20
275.10119242092617
 11
393.56245577702782
 21
275.10119242092617
  0
LINE
  8
_0-f_
  6
CONTINUOUS
 62
    7
 10
393.1235132832856
 20
275.10119242092617
 11
392.59552128328573
 21
275.10119242092617
  0
LINE
  8
_0-f_
  6
CONTINUOUS
 62
    7
 10
392.15680188117204
 20
275.10119242092617
 11
391.47950528328573
 21
275.10119242092617
  0
LINE
  8
_0-f_
  6
CONTINUOUS
 62
    7
 10
396.27951328328561
 20
275.02119242092624
 11
394.63951328328585
 21
275.02119242092624
  0
LINE
  8
_0-f_
  6
CONTINUOUS
 62
    7
 10
394.23951328328548
 20
275.02119242092624
 11
393.59825906482956
 21
275.02119242092624
  0
LINE
  8
_0-f_
  6
CONTINUOUS
 62
    7
 10
393.1235132832856
 20
275.02119242092624
 11
392.59552128328573
 21
275.02119242092624
  0
LINE
  8
_0-f_
  6
CONTINUOUS
 62
    7
 10
392.12063780863934
 20
275.02119242092624
 11
391.47950528328573
 21
275.02119242092624
  0
LINE
  8
_0-f_
  6
CONTINUOUS
 62
    7
 10
396.27951328328561
 20
274.9411924209262
 11
394.63951328328585
 21
274.9411924209262
  0
LINE
  8
_0-f_
  6
CONTINUOUS
 62
    7
 10
394.23951328328548
 20
274.9411924209262
 11
393.65854196886005
 21
274.9411924209262
  0
LINE
  8
_0-f_
  6
CONTINUOUS
 62
    7
 10
393.1235132832856
 20
274.9411924209262
 11
392.59552128328573
 21
274.9411924209262
  0
LINE
  8
_0-f_
  6
CONTINUOUS
 62
    7
 10
392.06078370756114
 20
274.9411924209262
 11
391.47950528328573
 21
274.9411924209262
  0
LINE
  8
_0-f_
  6
CONTINUOUS
 62
    7
 10
396.27951328328561
 20
274.86119242092622
 11
394.63951328328585
 21
274.86119242092622
  0
LINE
  8
_0-f_
  6
CONTINUOUS
 62
    7
 10
394.23951328328548
 20
274.86119242092622
 11
393.77002804101772
 21
274.86119242092622
  0
LINE
  8
_0-f_
  6
CONTINUOUS
 62
    7
 10
393.1235132832856
 20
274.86119242092622
 11
392.59552128328573
 21
274.86119242092622
  0
LINE
  8
_0-f_
  6
CONTINUOUS
 62
    7
 10
391.94842393999295
 20
274.86119242092622
 11
391.47950528328573
 21
274.86119242092622
  0
LINE
  8
_0-f_
  6
CONTINUOUS
 62
    7
 10
392.59552128328573
 20
277.26127242092628
 11
392.59552128328573
 21
274.82119242092625
  0
LINE
  8
_0-f_
  6
CONTINUOUS
 62
    7
 10
393.1235132832856
 20
277.26127242092628
 11
393.1235132832856
 21
274.82119242092625
  0
LINE
  8
_0-f_
  6
CONTINUOUS
 62
    7
 10
391.69550528328568
 20
276.78119242092623
 11
391.69550528328568
 21
275.46127242092621
  0
LINE
  8
_0-f_
  6
CONTINUOUS
 62
    7
 10
392.17551328328568
 20
276.78119242092623
 11
392.17551328328568
 21
275.22119242092623
  0
ARC
  8
_0-f_
  6
CONTINUOUS
 62
    7
 10
391.5355132832857
 20
275.46127242092621
 40
0.16
 50
270
 51
0
  0
LINE
  8
_0-f_
  6
CONTINUOUS
 62
    7
 10
391.47950528328568
 20
274.82119242092625
 11
391.7755132832857
 21
274.82119242092625
  0
LINE
  8
_0-f_
  6
CONTINUOUS
 62
    7
 10
391.47950528328568
 20
275.30127242092624
 11
391.5355132832857
 21
275.30127242092624
  0
LINE
  8
_0-f_
  6
CONTINUOUS
 62
    7
 10
391.47950528328568
 20
275.30127242092624
 11
391.47950528328568
 21
274.82119242092625
  0
ARC
  8
_0-f_
  6
CONTINUOUS
 62
    7
 10
391.7755132832857
 20
275.22119242092623
 40
0.4
 50
270
 51
0
  0
LINE
  8
_0-f_
  6
CONTINUOUS
 62
    7
 10
391.69550528328568
 20
276.78119242092623
 11
392.17551328328568
 21
276.78119242092623
  0
LINE
  8
_0-f_
  6
CONTINUOUS
 62
    7
 10
392.59552128328573
 20
274.82119242092625
 11
393.1235132832856
 21
274.82119242092625
  0
LINE
  8
_0-f_
  6
CONTINUOUS
 62
    7
 10
393.54352128328571
 20
276.78119242092623
 11
393.54352128328571
 21
275.22119242092623
  0
LINE
  8
_0-f_
  6
CONTINUOUS
 62
    7
 10
394.02351328328575
 20
276.78119242092623
 11
394.02351328328575
 21
275.46127242092621
  0
ARC
  8
_0-f_
  6
CONTINUOUS
 62
    7
 10
393.94350528328573
 20
275.22119242092623
 40
0.4
 50
180
 51
270
  0
LINE
  8
_0-f_
  6
CONTINUOUS
 62
    7
 10
393.94350528328573
 20
274.82119242092625
 11
394.23951328328565
 21
274.82119242092625
  0
LINE
  8
_0-f_
  6
CONTINUOUS
 62
    7
 10
394.23951328328565
 20
275.30127242092624
 11
394.23951328328565
 21
274.82119242092625
  0
LINE
  8
_0-f_
  6
CONTINUOUS
 62
    7
 10
394.18350528328568
 20
275.30127242092624
 11
394.23951328328565
 21
275.30127242092624
  0
ARC
  8
_0-f_
  6
CONTINUOUS
 62
    7
 10
394.18350528328568
 20
275.46127242092621
 40
0.16
 50
180
 51
270
  0
LINE
  8
_0-f_
  6
CONTINUOUS
 62
    7
 10
393.54352128328571
 20
276.78119242092623
 11
394.02351328328575
 21
276.78119242092623
  0
LINE
  8
_0-f_
  6
CONTINUOUS
 62
    7
 10
391.47950528328568
 20
278.82123242092626
 11
394.23951328328565
 21
278.82123242092626
  0
LINE
  8
_0-f_
  6
CONTINUOUS
 62
    7
 10
391.47950528328568
 20
278.38119242092625
 11
394.23951328328565
 21
278.38119242092625
  0
LINE
  8
_0-f_
  6
CONTINUOUS
 62
    7
 10
391.47950528328568
 20
277.70131242092623
 11
394.23951328328565
 21
277.70131242092623
  0
LINE
  8
_0-f_
  6
CONTINUOUS
 62
    7
 10
391.47950528328568
 20
277.26127242092628
 11
392.59552128328573
 21
277.26127242092628
  0
LINE
  8
_0-f_
  6
CONTINUOUS
 62
    7
 10
391.47950528328568
 20
277.70131242092623
 11
391.47950528328568
 21
277.26127242092628
  0
LINE
  8
_0-f_
  6
CONTINUOUS
 62
    7
 10
391.47950528328568
 20
278.82123242092626
 11
391.47950528328568
 21
278.38119242092625
  0
LINE
  8
_0-f_
  6
CONTINUOUS
 62
    7
 10
393.1235132832856
 20
277.26127242092628
 11
394.23951328328565
 21
277.26127242092628
  0
LINE
  8
_0-f_
  6
CONTINUOUS
 62
    7
 10
394.23951328328565
 20
277.70131242092623
 11
394.23951328328565
 21
277.26127242092628
  0
LINE
  8
_0-f_
  6
CONTINUOUS
 62
    7
 10
394.23951328328565
 20
278.82123242092626
 11
394.23951328328565
 21
278.38119242092625
  0
LINE
  8
_0-f_
  6
CONTINUOUS
 62
    7
 10
395.2195212832857
 20
277.46127242092621
 11
395.2195212832857
 21
275.30127242092624
  0
LINE
  8
_0-f_
  6
CONTINUOUS
 62
    7
 10
395.65952128328581
 20
277.46127242092621
 11
395.65952128328581
 21
275.30127242092624
  0
LINE
  8
_0-f_
  6
CONTINUOUS
 62
    7
 10
394.63951328328574
 20
274.82119242092625
 11
396.27951328328578
 21
274.82119242092625
  0
LINE
  8
_0-f_
  6
CONTINUOUS
 62
    7
 10
394.63951328328574
 20
275.30127242092624
 11
395.2195212832857
 21
275.30127242092624
  0
LINE
  8
_0-f_
  6
CONTINUOUS
 62
    7
 10
394.63951328328574
 20
275.30127242092624
 11
394.63951328328574
 21
274.82119242092625
  0
LINE
  8
_0-f_
  6
CONTINUOUS
 62
    7
 10
396.27951328328578
 20
275.30127242092624
 11
395.65952128328581
 21
275.30127242092624
  0
LINE
  8
_0-f_
  6
CONTINUOUS
 62
    7
 10
396.27951328328578
 20
275.30127242092624
 11
396.27951328328578
 21
274.82119242092625
  0
LINE
  8
_0-f_
  6
CONTINUOUS
 62
    7
 10
395.2195212832857
 20
278.82123242092626
 11
395.65952128328581
 21
278.82123242092626
  0
LINE
  8
_0-f_
  6
CONTINUOUS
 62
    7
 10
395.2195212832857
 20
278.82123242092626
 11
395.2195212832857
 21
277.90131242092627
  0
LINE
  8
_0-f_
  6
CONTINUOUS
 62
    7
 10
394.63951328328574
 20
277.90131242092627
 11
395.2195212832857
 21
277.90131242092627
  0
LINE
  8
_0-f_
  6
CONTINUOUS
 62
    7
 10
394.63951328328574
 20
277.46127242092621
 11
395.2195212832857
 21
277.46127242092621
  0
LINE
  8
_0-f_
  6
CONTINUOUS
 62
    7
 10
394.63951328328574
 20
277.90131242092627
 11
394.63951328328574
 21
277.46127242092621
  0
LINE
  8
_0-f_
  6
CONTINUOUS
 62
    7
 10
395.65952128328581
 20
278.82123242092626
 11
395.65952128328581
 21
277.90131242092627
  0
LINE
  8
_0-f_
  6
CONTINUOUS
 62
    7
 10
396.27951328328578
 20
277.46127242092621
 11
395.65952128328581
 21
277.46127242092621
  0
LINE
  8
_0-f_
  6
CONTINUOUS
 62
    7
 10
395.65952128328581
 20
277.90131242092627
 11
396.27951328328578
 21
277.90131242092627
  0
LINE
  8
_0-f_
  6
CONTINUOUS
 62
    7
 10
396.27951328328578
 20
277.89994442092626
 11
396.27951328328578
 21
277.46127242092621
  0
LINE
  8
_0-f_
  6
CONTINUOUS
 62
    7
 10
368.80286290872084
 20
278.82123242092626
 11
364.64285490872066
 21
278.82123242092626
  0
LINE
  8
_0-f_
  6
CONTINUOUS
 62
    7
 10
364.64285490872066
 20
278.82123242092626
 11
364.64285490872066
 21
278.34115242092622
  0
LINE
  8
_0-f_
  6
CONTINUOUS
 62
    7
 10
364.64285490872066
 20
278.34115242092622
 11
366.32283890872071
 21
278.34115242092628
  0
LINE
  8
_0-f_
  6
CONTINUOUS
 62
    7
 10
366.32283890872071
 20
278.34115242092628
 11
366.32283890872071
 21
275.30127242092624
  0
LINE
  8
_0-f_
  6
CONTINUOUS
 62
    7
 10
366.32283890872071
 20
275.30127242092624
 11
364.32286290872059
 21
275.30127242092624
  0
LINE
  8
_0-f_
  6
CONTINUOUS
 62
    7
 10
364.32286290872059
 20
275.30127242092624
 11
364.32286290872059
 21
274.82119242092625
  0
LINE
  8
_0-f_
  6
CONTINUOUS
 62
    7
 10
364.32286290872059
 20
274.82119242092625
 11
369.12283890872078
 21
274.82119242092625
  0
LINE
  8
_0-f_
  6
CONTINUOUS
 62
    7
 10
369.12283890872078
 20
274.82119242092625
 11
369.12283890872078
 21
275.30127242092624
  0
LINE
  8
_0-f_
  6
CONTINUOUS
 62
    7
 10
369.12283890872078
 20
275.30127242092624
 11
367.12283890872067
 21
275.30127242092624
  0
LINE
  8
_0-f_
  6
CONTINUOUS
 62
    7
 10
367.12283890872067
 20
275.30127242092624
 11
367.12283890872067
 21
278.34115242092622
  0
LINE
  8
_0-f_
  6
CONTINUOUS
 62
    7
 10
367.12283890872067
 20
278.34115242092622
 11
368.80286290872084
 21
278.34115242092628
  0
LINE
  8
_0-f_
  6
CONTINUOUS
 62
    7
 10
368.80286290872084
 20
278.34115242092628
 11
368.80286290872084
 21
278.82123242092626
  0
LINE
  8
_0-f_
  6
CONTINUOUS
 62
    7
 10
367.12283890872067
 20
276.78119242092623
 11
366.32283890872071
 21
276.78119242092623
  0
LINE
  8
_0-f_
  6
CONTINUOUS
 62
    7
 10
367.12283890872067
 20
276.86119242092627
 11
366.32283890872071
 21
276.86119242092627
  0
LINE
  8
_0-f_
  6
CONTINUOUS
 62
    7
 10
367.12283890872067
 20
276.9411924209262
 11
366.32283890872071
 21
276.9411924209262
  0
LINE
  8
_0-f_
  6
CONTINUOUS
 62
    7
 10
367.12283890872067
 20
277.02119242092624
 11
366.32283890872071
 21
277.02119242092624
  0
LINE
  8
_0-f_
  6
CONTINUOUS
 62
    7
 10
367.12283890872067
 20
277.10119242092622
 11
366.32283890872071
 21
277.10119242092622
  0
LINE
  8
_0-f_
  6
CONTINUOUS
 62
    7
 10
367.12283890872067
 20
277.18119242092621
 11
366.32283890872071
 21
277.18119242092621
  0
LINE
  8
_0-f_
  6
CONTINUOUS
 62
    7
 10
367.12283890872067
 20
277.26119242092625
 11
366.32283890872071
 21
277.26119242092625
  0
LINE
  8
_0-f_
  6
CONTINUOUS
 62
    7
 10
367.12283890872067
 20
277.34119242092629
 11
366.32283890872071
 21
277.34119242092629
  0
LINE
  8
_0-f_
  6
CONTINUOUS
 62
    7
 10
367.12283890872067
 20
277.42119242092627
 11
366.32283890872071
 21
277.42119242092627
  0
LINE
  8
_0-f_
  6
CONTINUOUS
 62
    7
 10
367.12283890872067
 20
277.50119242092626
 11
366.32283890872071
 21
277.50119242092626
  0
LINE
  8
_0-f_
  6
CONTINUOUS
 62
    7
 10
367.12283890872067
 20
277.5811924209263
 11
366.32283890872071
 21
277.5811924209263
  0
LINE
  8
_0-f_
  6
CONTINUOUS
 62
    7
 10
367.12283890872067
 20
277.66119242092623
 11
366.32283890872071
 21
277.66119242092623
  0
LINE
  8
_0-f_
  6
CONTINUOUS
 62
    7
 10
367.12283890872067
 20
277.74119242092627
 11
366.32283890872071
 21
277.74119242092627
  0
LINE
  8
_0-f_
  6
CONTINUOUS
 62
    7
 10
367.12283890872067
 20
277.82119242092625
 11
366.32283890872071
 21
277.82119242092625
  0
LINE
  8
_0-f_
  6
CONTINUOUS
 62
    7
 10
367.12283890872067
 20
277.90119242092624
 11
366.32283890872071
 21
277.90119242092624
  0
LINE
  8
_0-f_
  6
CONTINUOUS
 62
    7
 10
367.12283890872067
 20
277.98119242092628
 11
366.32283890872071
 21
277.98119242092628
  0
LINE
  8
_0-f_
  6
CONTINUOUS
 62
    7
 10
367.12283890872067
 20
278.0611924209262
 11
366.32283890872071
 21
278.0611924209262
  0
LINE
  8
_0-f_
  6
CONTINUOUS
 62
    7
 10
367.12283890872067
 20
278.14119242092625
 11
366.32283890872071
 21
278.14119242092625
  0
LINE
  8
_0-f_
  6
CONTINUOUS
 62
    7
 10
367.12283890872067
 20
278.22119242092629
 11
366.32283890872071
 21
278.22119242092629
  0
LINE
  8
_0-f_
  6
CONTINUOUS
 62
    7
 10
367.12283890872067
 20
278.30119242092621
 11
366.32283890872071
 21
278.30119242092621
  0
LINE
  8
_0-f_
  6
CONTINUOUS
 62
    7
 10
368.80286290872067
 20
278.38119242092625
 11
364.64285490872066
 21
278.38119242092625
  0
LINE
  8
_0-f_
  6
CONTINUOUS
 62
    7
 10
368.80286290872067
 20
278.4611924209263
 11
364.64285490872066
 21
278.4611924209263
  0
LINE
  8
_0-f_
  6
CONTINUOUS
 62
    7
 10
368.80286290872067
 20
278.54119242092628
 11
364.64285490872066
 21
278.54119242092628
  0
LINE
  8
_0-f_
  6
CONTINUOUS
 62
    7
 10
368.80286290872067
 20
278.62119242092626
 11
364.64285490872066
 21
278.62119242092626
  0
LINE
  8
_0-f_
  6
CONTINUOUS
 62
    7
 10
368.80286290872067
 20
278.7011924209263
 11
364.64285490872066
 21
278.7011924209263
  0
LINE
  8
_0-f_
  6
CONTINUOUS
 62
    7
 10
368.80286290872067
 20
278.78119242092623
 11
364.64285490872066
 21
278.78119242092623
  0
LINE
  8
_0-f_
  6
CONTINUOUS
 62
    7
 10
367.12283890872067
 20
276.70119242092625
 11
366.32283890872071
 21
276.70119242092625
  0
LINE
  8
_0-f_
  6
CONTINUOUS
 62
    7
 10
367.12283890872067
 20
276.62119242092626
 11
366.32283890872071
 21
276.62119242092626
  0
LINE
  8
_0-f_
  6
CONTINUOUS
 62
    7
 10
367.12283890872067
 20
276.54119242092622
 11
366.32283890872071
 21
276.54119242092622
  0
LINE
  8
_0-f_
  6
CONTINUOUS
 62
    7
 10
367.12283890872067
 20
276.46119242092618
 11
366.32283890872071
 21
276.46119242092618
  0
LINE
  8
_0-f_
  6
CONTINUOUS
 62
    7
 10
367.12283890872067
 20
276.38119242092625
 11
366.32283890872071
 21
276.38119242092625
  0
LINE
  8
_0-f_
  6
CONTINUOUS
 62
    7
 10
367.12283890872067
 20
276.30119242092621
 11
366.32283890872071
 21
276.30119242092621
  0
LINE
  8
_0-f_
  6
CONTINUOUS
 62
    7
 10
367.12283890872067
 20
276.22119242092617
 11
366.32283890872071
 21
276.22119242092617
  0
LINE
  8
_0-f_
  6
CONTINUOUS
 62
    7
 10
367.12283890872067
 20
276.14119242092625
 11
366.32283890872071
 21
276.14119242092625
  0
LINE
  8
_0-f_
  6
CONTINUOUS
 62
    7
 10
367.12283890872067
 20
276.0611924209262
 11
366.32283890872071
 21
276.0611924209262
  0
LINE
  8
_0-f_
  6
CONTINUOUS
 62
    7
 10
367.12283890872067
 20
275.98119242092622
 11
366.32283890872071
 21
275.98119242092622
  0
LINE
  8
_0-f_
  6
CONTINUOUS
 62
    7
 10
367.12283890872067
 20
275.90119242092624
 11
366.32283890872071
 21
275.90119242092624
  0
LINE
  8
_0-f_
  6
CONTINUOUS
 62
    7
 10
367.12283890872067
 20
275.8211924209262
 11
366.32283890872071
 21
275.8211924209262
  0
LINE
  8
_0-f_
  6
CONTINUOUS
 62
    7
 10
367.12283890872067
 20
275.74119242092627
 11
366.32283890872071
 21
275.74119242092627
  0
LINE
  8
_0-f_
  6
CONTINUOUS
 62
    7
 10
367.12283890872067
 20
275.66119242092623
 11
366.32283890872071
 21
275.66119242092623
  0
LINE
  8
_0-f_
  6
CONTINUOUS
 62
    7
 10
367.12283890872067
 20
275.58119242092624
 11
366.32283890872071
 21
275.58119242092624
  0
LINE
  8
_0-f_
  6
CONTINUOUS
 62
    7
 10
367.12283890872067
 20
275.50119242092626
 11
366.32283890872071
 21
275.50119242092626
  0
LINE
  8
_0-f_
  6
CONTINUOUS
 62
    7
 10
367.12283890872067
 20
275.42119242092622
 11
366.32283890872071
 21
275.42119242092622
  0
LINE
  8
_0-f_
  6
CONTINUOUS
 62
    7
 10
367.12283890872067
 20
275.34119242092618
 11
366.32283890872071
 21
275.34119242092618
  0
LINE
  8
_0-f_
  6
CONTINUOUS
 62
    7
 10
369.12283890872072
 20
275.26119242092619
 11
364.32286290872059
 21
275.26119242092619
  0
LINE
  8
_0-f_
  6
CONTINUOUS
 62
    7
 10
369.12283890872072
 20
275.18119242092621
 11
364.32286290872059
 21
275.18119242092621
  0
LINE
  8
_0-f_
  6
CONTINUOUS
 62
    7
 10
369.12283890872072
 20
275.10119242092617
 11
364.32286290872059
 21
275.10119242092617
  0
LINE
  8
_0-f_
  6
CONTINUOUS
 62
    7
 10
369.12283890872072
 20
275.02119242092624
 11
364.32286290872059
 21
275.02119242092624
  0
LINE
  8
_0-f_
  6
CONTINUOUS
 62
    7
 10
369.12283890872072
 20
274.9411924209262
 11
364.32286290872059
 21
274.9411924209262
  0
LINE
  8
_0-f_
  6
CONTINUOUS
 62
    7
 10
369.12283890872072
 20
274.86119242092622
 11
364.32286290872059
 21
274.86119242092622
  0
LINE
  8
_0-f_
  6
CONTINUOUS
 62
    7
 10
364.64285490872066
 20
278.82123242092626
 11
368.80286290872084
 21
278.82123242092626
  0
LINE
  8
_0-f_
  6
CONTINUOUS
 62
    7
 10
364.32286290872059
 20
274.82119242092625
 11
369.12283890872078
 21
274.82119242092625
  0
LINE
  8
_0-f_
  6
CONTINUOUS
 62
    7
 10
367.12283890872067
 20
275.30127242092624
 11
369.12283890872078
 21
275.30127242092624
  0
LINE
  8
_0-f_
  6
CONTINUOUS
 62
    7
 10
367.12283890872067
 20
278.34115242092628
 11
368.80286290872084
 21
278.34115242092628
  0
LINE
  8
_0-f_
  6
CONTINUOUS
 62
    7
 10
366.32283890872071
 20
278.34115242092628
 11
366.32283890872071
 21
275.30127242092624
  0
LINE
  8
_0-f_
  6
CONTINUOUS
 62
    7
 10
367.12283890872067
 20
278.34115242092628
 11
367.12283890872067
 21
275.30127242092624
  0
LINE
  8
_0-f_
  6
CONTINUOUS
 62
    7
 10
364.32286290872059
 20
275.30127242092624
 11
366.32283890872071
 21
275.30127242092624
  0
LINE
  8
_0-f_
  6
CONTINUOUS
 62
    7
 10
364.32286290872059
 20
275.30127242092624
 11
364.32286290872059
 21
274.82119242092625
  0
LINE
  8
_0-f_
  6
CONTINUOUS
 62
    7
 10
364.64285490872066
 20
278.34115242092622
 11
366.32283890872071
 21
278.34115242092628
  0
LINE
  8
_0-f_
  6
CONTINUOUS
 62
    7
 10
364.64285490872066
 20
278.82123242092626
 11
364.64285490872066
 21
278.34115242092622
  0
LINE
  8
_0-f_
  6
CONTINUOUS
 62
    7
 10
369.12283890872078
 20
275.30127242092624
 11
369.12283890872078
 21
274.82119242092625
  0
LINE
  8
_0-f_
  6
CONTINUOUS
 62
    7
 10
368.80286290872084
 20
278.82123242092626
 11
368.80286290872084
 21
278.34115242092622
  0
LINE
  8
_0-f_
  6
CONTINUOUS
 62
    7
 10
362.40292075071477
 20
277.38119242092625
 11
361.73335641795398
 21
275.54119242092628
  0
LINE
  8
_0-f_
  6
CONTINUOUS
 62
    7
 10
361.73335641795398
 20
275.54119242092628
 11
361.33330330646112
 21
275.54119242092628
  0
LINE
  8
_0-f_
  6
CONTINUOUS
 62
    7
 10
361.33330330646112
 20
275.54119242092628
 11
361.07092730646121
 21
274.82119242092625
  0
LINE
  8
_0-f_
  6
CONTINUOUS
 62
    7
 10
361.07092730646121
 20
274.82119242092625
 11
362.54543932530714
 21
274.82119242092625
  0
ARC
  8
_0-f_
  6
CONTINUOUS
 62
    7
 10
362.54543932530714
 20
275.22119242092623
 40
0.4000000000000004
 50
270
 51
339.99904441127069
  0
LINE
  8
_0-f_
  6
CONTINUOUS
 62
    7
 10
362.92131409186123
 20
275.08437809467387
 11
363.9022086231775
 21
277.77922382517477
  0
ARC
  8
_0-f_
  6
CONTINUOUS
 62
    7
 10
363.67668376324497
 20
277.86131242092625
 40
0.2399999999999993
 50
339.99904441126887
 51
90.000000000000014
  0
LINE
  8
_0-f_
  6
CONTINUOUS
 62
    7
 10
363.67668376324497
 20
278.10131242092621
 11
361.63735497616375
 21
278.10131242092621
  0
LINE
  8
_0-f_
  6
CONTINUOUS
 62
    7
 10
361.63735497616375
 20
278.10131242092621
 11
361.78213689948808
 21
278.499158748019
  0
ARC
  8
_0-f_
  6
CONTINUOUS
 62
    7
 10
361.55660660836173
 20
278.5812324209262
 40
0.2399999999999989
 50
340.002835592856
 51
90.000000000000043
  0
LINE
  8
_0-f_
  6
CONTINUOUS
 62
    7
 10
361.55660660836173
 20
278.82123242092626
 11
360.54456728237267
 21
278.82123242092626
  0
LINE
  8
_0-f_
  6
CONTINUOUS
 62
    7
 10
360.54456728237267
 20
278.82123242092626
 11
360.2829752582839
 21
278.10131242092621
  0
LINE
  8
_0-f_
  6
CONTINUOUS
 62
    7
 10
360.2829752582839
 20
278.10131242092621
 11
359.64292730646122
 21
278.10131242092621
  0
LINE
  8
_0-f_
  6
CONTINUOUS
 62
    7
 10
359.64292730646122
 20
278.10131242092621
 11
359.38049598311983
 21
277.38119242092625
  0
LINE
  8
_0-f_
  6
CONTINUOUS
 62
    7
 10
359.38049598311983
 20
277.38119242092625
 11
360.02055568621188
 21
277.38119242092625
  0
LINE
  8
_0-f_
  6
CONTINUOUS
 62
    7
 10
360.02055568621188
 20
277.38119242092625
 11
359.35093530646117
 21
275.54119242092628
  0
LINE
  8
_0-f_
  6
CONTINUOUS
 62
    7
 10
359.35093530646117
 20
275.54119242092628
 11
358.71091930646111
 21
275.54119242092628
  0
LINE
  8
_0-f_
  6
CONTINUOUS
 62
    7
 10
358.71091930646111
 20
275.54119242092628
 11
358.44854045966628
 21
274.82119242092625
  0
LINE
  8
_0-f_
  6
CONTINUOUS
 62
    7
 10
358.44854045966628
 20
274.82119242092625
 11
360.10789244557481
 21
274.82119242092625
  0
ARC
  8
_0-f_
  6
CONTINUOUS
 62
    7
 10
360.10789244557481
 20
275.30119242092621
 40
0.4800000000000009
 50
270
 51
340.00100452272619
  0
LINE
  8
_0-f_
  6
CONTINUOUS
 62
    7
 10
360.55894778174269
 20
275.13703066011027
 11
361.37571130646114
 21
277.38119242092625
  0
LINE
  8
_0-f_
  6
CONTINUOUS
 62
    7
 10
361.37571130646114
 20
277.38119242092625
 11
362.40292075071477
 21
277.38119242092625
  0
LINE
  8
_0-f_
  6
CONTINUOUS
 62
    7
 10
363.53893604863669
 20
276.78119242092623
 11
362.18458455524927
 21
276.78119242092623
  0
LINE
  8
_0-f_
  6
CONTINUOUS
 62
    7
 10
361.15734107870497
 20
276.78119242092623
 11
359.80220121455403
 21
276.78119242092623
  0
LINE
  8
_0-f_
  6
CONTINUOUS
 62
    7
 10
363.56805517839501
 20
276.86119242092627
 11
362.21369604797803
 21
276.86119242092627
  0
LINE
  8
_0-f_
  6
CONTINUOUS
 62
    7
 10
361.18645710907242
 20
276.86119242092627
 11
359.83131514410843
 21
276.86119242092627
  0
LINE
  8
_0-f_
  6
CONTINUOUS
 62
    7
 10
363.59717430815346
 20
276.9411924209262
 11
362.24280754070674
 21
276.9411924209262
  0
LINE
  8
_0-f_
  6
CONTINUOUS
 62
    7
 10
361.21557313943993
 20
276.9411924209262
 11
359.86042907366283
 21
276.9411924209262
  0
LINE
  8
_0-f_
  6
CONTINUOUS
 62
    7
 10
363.6262934379119
 20
277.02119242092624
 11
362.27191903343549
 21
277.02119242092624
  0
LINE
  8
_0-f_
  6
CONTINUOUS
 62
    7
 10
361.24468916980743
 20
277.02119242092624
 11
359.88954300321717
 21
277.02119242092624
  0
LINE
  8
_0-f_
  6
CONTINUOUS
 62
    7
 10
363.65541256767023
 20
277.10119242092622
 11
362.3010305261642
 21
277.10119242092622
  0
LINE
  8
_0-f_
  6
CONTINUOUS
 62
    7
 10
361.27380520017493
 20
277.10119242092628
 11
359.91865693277151
 21
277.10119242092622
  0
LINE
  8
_0-f_
  6
CONTINUOUS
 62
    7
 10
363.68453169742861
 20
277.18119242092621
 11
362.3301420188929
 21
277.18119242092621
  0
LINE
  8
_0-f_
  6
CONTINUOUS
 62
    7
 10
361.30292123054238
 20
277.18119242092621
 11
359.94777086232591
 21
277.18119242092621
  0
LINE
  8
_0-f_
  6
CONTINUOUS
 62
    7
 10
363.713650827187
 20
277.26119242092625
 11
362.35925351162172
 21
277.26119242092625
  0
LINE
  8
_0-f_
  6
CONTINUOUS
 62
    7
 10
361.33203726090989
 20
277.26119242092625
 11
359.97688479188031
 21
277.26119242092625
  0
LINE
  8
_0-f_
  6
CONTINUOUS
 62
    7
 10
363.74276995694538
 20
277.34119242092629
 11
362.38836500435042
 21
277.34119242092629
  0
LINE
  8
_0-f_
  6
CONTINUOUS
 62
    7
 10
361.36115329127739
 20
277.34119242092629
 11
360.00599872143471
 21
277.34119242092629
  0
LINE
  8
_0-f_
  6
CONTINUOUS
 62
    7
 10
363.77188908670377
 20
277.42119242092627
 11
359.39507307156856
 21
277.42119242092627
  0
LINE
  8
_0-f_
  6
CONTINUOUS
 62
    7
 10
363.80100821646221
 20
277.50119242092626
 11
359.42422724846591
 21
277.50119242092626
  0
LINE
  8
_0-f_
  6
CONTINUOUS
 62
    7
 10
363.83012734622059
 20
277.5811924209263
 11
359.45338142536326
 21
277.5811924209263
  0
LINE
  8
_0-f_
  6
CONTINUOUS
 62
    7
 10
363.85924647597898
 20
277.66119242092623
 11
359.48253560226055
 21
277.66119242092623
  0
LINE
  8
_0-f_
  6
CONTINUOUS
 62
    7
 10
363.88836560573731
 20
277.74119242092627
 11
359.51168977915796
 21
277.74119242092627
  0
LINE
  8
_0-f_
  6
CONTINUOUS
 62
    7
 10
363.91292035897874
 20
277.82119242092625
 11
359.54084395605526
 21
277.82119242092625
  0
LINE
  8
_0-f_
  6
CONTINUOUS
 62
    7
 10
363.91273180476622
 20
277.90119242092624
 11
359.56999813295255
 21
277.90119242092624
  0
LINE
  8
_0-f_
  6
CONTINUOUS
 62
    7
 10
363.88375819505671
 20
277.98119242092628
 11
359.5991523098499
 21
277.98119242092628
  0
LINE
  8
_0-f_
  6
CONTINUOUS
 62
    7
 10
363.80818991626512
 20
278.0611924209262
 11
359.62830648674725
 21
278.0611924209262
  0
LINE
  8
_0-f_
  6
CONTINUOUS
 62
    7
 10
361.65186787400637
 20
278.14119242092625
 11
360.29746615994054
 21
278.14119242092625
  0
LINE
  8
_0-f_
  6
CONTINUOUS
 62
    7
 10
361.68098100909702
 20
278.22119242092629
 11
360.3265351702849
 21
278.22119242092629
  0
LINE
  8
_0-f_
  6
CONTINUOUS
 62
    7
 10
361.71009414418756
 20
278.30119242092621
 11
360.3556041806292
 21
278.30119242092621
  0
LINE
  8
_0-f_
  6
CONTINUOUS
 62
    7
 10
361.73920727927811
 20
278.38119242092625
 11
360.38467319097356
 21
278.38119242092625
  0
LINE
  8
_0-f_
  6
CONTINUOUS
 62
    7
 10
361.76832041436876
 20
278.4611924209263
 11
360.41374220131792
 21
278.4611924209263
  0
LINE
  8
_0-f_
  6
CONTINUOUS
 62
    7
 10
361.79285336756976
 20
278.54119242092628
 11
360.44281121166233
 21
278.54119242092628
  0
LINE
  8
_0-f_
  6
CONTINUOUS
 62
    7
 10
361.79263882932236
 20
278.62119242092626
 11
360.47188022200663
 21
278.62119242092626
  0
LINE
  8
_0-f_
  6
CONTINUOUS
 62
    7
 10
361.76363561273928
 20
278.7011924209263
 11
360.50094923235099
 21
278.7011924209263
  0
LINE
  8
_0-f_
  6
CONTINUOUS
 62
    7
 10
361.68799169316054
 20
278.78119242092623
 11
360.53001824269535
 21
278.78119242092623
  0
LINE
  8
_0-f_
  6
CONTINUOUS
 62
    7
 10
363.5098169188783
 20
276.70119242092625
 11
362.15547306252057
 21
276.70119242092625
  0
LINE
  8
_0-f_
  6
CONTINUOUS
 62
    7
 10
361.12822504833747
 20
276.70119242092625
 11
359.77308728499963
 21
276.70119242092625
  0
LINE
  8
_0-f_
  6
CONTINUOUS
 62
    7
 10
363.48069778911992
 20
276.62119242092626
 11
362.12636156979181
 21
276.62119242092626
  0
LINE
  8
_0-f_
  6
CONTINUOUS
 62
    7
 10
361.09910901796997
 20
276.62119242092626
 11
359.74397335544529
 21
276.62119242092626
  0
LINE
  8
_0-f_
  6
CONTINUOUS
 62
    7
 10
363.45157865936153
 20
276.54119242092622
 11
362.09725007706311
 21
276.54119242092622
  0
LINE
  8
_0-f_
  6
CONTINUOUS
 62
    7
 10
361.06999298760246
 20
276.54119242092622
 11
359.71485942589089
 21
276.54119242092622
  0
LINE
  8
_0-f_
  6
CONTINUOUS
 62
    7
 10
363.42245952960315
 20
276.46119242092618
 11
362.06813858433435
 21
276.46119242092618
  0
LINE
  8
_0-f_
  6
CONTINUOUS
 62
    7
 10
361.04087695723496
 20
276.46119242092618
 11
359.68574549633649
 21
276.46119242092618
  0
LINE
  8
_0-f_
  6
CONTINUOUS
 62
    7
 10
363.3933403998447
 20
276.38119242092625
 11
362.03902709160565
 21
276.38119242092625
  0
LINE
  8
_0-f_
  6
CONTINUOUS
 62
    7
 10
361.01176092686751
 20
276.38119242092625
 11
359.6566315667821
 21
276.38119242092625
  0
LINE
  8
_0-f_
  6
CONTINUOUS
 62
    7
 10
363.36422127008638
 20
276.30119242092621
 11
362.00991559887694
 21
276.30119242092621
  0
LINE
  8
_0-f_
  6
CONTINUOUS
 62
    7
 10
360.98264489650001
 20
276.30119242092621
 11
359.62751763722775
 21
276.30119242092621
  0
LINE
  8
_0-f_
  6
CONTINUOUS
 62
    7
 10
363.33510214032793
 20
276.22119242092617
 11
361.98080410614813
 21
276.22119242092617
  0
LINE
  8
_0-f_
  6
CONTINUOUS
 62
    7
 10
360.95352886613256
 20
276.22119242092629
 11
359.59840370767341
 21
276.22119242092617
  0
LINE
  8
_0-f_
  6
CONTINUOUS
 62
    7
 10
363.30598301056961
 20
276.14119242092625
 11
361.95169261341943
 21
276.14119242092625
  0
LINE
  8
_0-f_
  6
CONTINUOUS
 62
    7
 10
360.92441283576505
 20
276.14119242092625
 11
359.56928977811901
 21
276.14119242092625
  0
LINE
  8
_0-f_
  6
CONTINUOUS
 62
    7
 10
363.27686388081116
 20
276.0611924209262
 11
361.92258112069072
 21
276.0611924209262
  0
LINE
  8
_0-f_
  6
CONTINUOUS
 62
    7
 10
360.89529680539755
 20
276.0611924209262
 11
359.54017584856462
 21
276.0611924209262
  0
LINE
  8
_0-f_
  6
CONTINUOUS
 62
    7
 10
363.24774475105278
 20
275.98119242092622
 11
361.89346962796196
 21
275.98119242092622
  0
LINE
  8
_0-f_
  6
CONTINUOUS
 62
    7
 10
360.86618077503005
 20
275.98119242092622
 11
359.51106191901022
 21
275.98119242092622
  0
LINE
  8
_0-f_
  6
CONTINUOUS
 62
    7
 10
363.21862562129439
 20
275.90119242092624
 11
361.86435813523326
 21
275.90119242092624
  0
LINE
  8
_0-f_
  6
CONTINUOUS
 62
    7
 10
360.8370647446626
 20
275.90119242092624
 11
359.48194798945588
 21
275.90119242092624
  0
LINE
  8
_0-f_
  6
CONTINUOUS
 62
    7
 10
363.18950649153601
 20
275.8211924209262
 11
361.8352466425045
 21
275.8211924209262
  0
LINE
  8
_0-f_
  6
CONTINUOUS
 62
    7
 10
360.80794871429515
 20
275.8211924209262
 11
359.45283405990148
 21
275.8211924209262
  0
LINE
  8
_0-f_
  6
CONTINUOUS
 62
    7
 10
363.16038736177762
 20
275.74119242092627
 11
361.8061351497758
 21
275.74119242092627
  0
LINE
  8
_0-f_
  6
CONTINUOUS
 62
    7
 10
360.77883268392765
 20
275.74119242092627
 11
359.42372013034708
 21
275.74119242092627
  0
LINE
  8
_0-f_
  6
CONTINUOUS
 62
    7
 10
363.13126823201929
 20
275.66119242092623
 11
361.77702365704704
 21
275.66119242092623
  0
LINE
  8
_0-f_
  6
CONTINUOUS
 62
    7
 10
360.74971665356014
 20
275.66119242092623
 11
359.39460620079268
 21
275.66119242092623
  0
LINE
  8
_0-f_
  6
CONTINUOUS
 62
    7
 10
363.10214910226085
 20
275.58119242092624
 11
361.74791216431834
 21
275.58119242092624
  0
LINE
  8
_0-f_
  6
CONTINUOUS
 62
    7
 10
360.72060062319264
 20
275.58119242092624
 11
359.36549227123834
 21
275.58119242092624
  0
LINE
  8
_0-f_
  6
CONTINUOUS
 62
    7
 10
363.07302997250241
 20
275.50119242092626
 11
361.31872686201666
 21
275.50119242092626
  0
LINE
  8
_0-f_
  6
CONTINUOUS
 62
    7
 10
360.69148459282513
 20
275.50119242092626
 11
358.69634270386132
 21
275.50119242092626
  0
LINE
  8
_0-f_
  6
CONTINUOUS
 62
    7
 10
363.04391084274408
 20
275.42119242092622
 11
361.2895739731278
 21
275.42119242092622
  0
LINE
  8
_0-f_
  6
CONTINUOUS
 62
    7
 10
360.66236856245763
 20
275.42119242092622
 11
358.66718949866186
 21
275.42119242092622
  0
LINE
  8
_0-f_
  6
CONTINUOUS
 62
    7
 10
363.0147917129857
 20
275.34119242092618
 11
361.26042108423889
 21
275.34119242092618
  0
LINE
  8
_0-f_
  6
CONTINUOUS
 62
    7
 10
360.63325253209018
 20
275.34119242092618
 11
358.63803629346245
 21
275.34119242092618
  0
LINE
  8
_0-f_
  6
CONTINUOUS
 62
    7
 10
362.98567258322731
 20
275.26119242092619
 11
361.23126819535003
 21
275.26119242092619
  0
LINE
  8
_0-f_
  6
CONTINUOUS
 62
    7
 10
360.60413650172268
 20
275.26119242092625
 11
358.60888308826298
 21
275.26119242092619
  0
LINE
  8
_0-f_
  6
CONTINUOUS
 62
    7
 10
362.95655345346893
 20
275.18119242092621
 11
361.20211530646117
 21
275.18119242092621
  0
LINE
  8
_0-f_
  6
CONTINUOUS
 62
    7
 10
360.57502047135517
 20
275.18119242092621
 11
358.57972988306364
 21
275.18119242092621
  0
LINE
  8
_0-f_
  6
CONTINUOUS
 62
    7
 10
362.92743432371054
 20
275.10119242092617
 11
361.17296241757225
 21
275.10119242092617
  0
LINE
  8
_0-f_
  6
CONTINUOUS
 62
    7
 10
360.54336509481357
 20
275.10119242092617
 11
358.55057667786423
 21
275.10119242092617
  0
LINE
  8
_0-f_
  6
CONTINUOUS
 62
    7
 10
362.89056385066345
 20
275.02119242092624
 11
361.14380952868339
 21
275.02119242092624
  0
LINE
  8
_0-f_
  6
CONTINUOUS
 62
    7
 10
360.49752964641908
 20
275.02119242092624
 11
358.52142347266482
 21
275.02119242092624
  0
LINE
  8
_0-f_
  6
CONTINUOUS
 62
    7
 10
362.83070974958315
 20
274.9411924209262
 11
361.11465663979453
 21
274.9411924209262
  0
LINE
  8
_0-f_
  6
CONTINUOUS
 62
    7
 10
360.4231967114228
 20
274.9411924209262
 11
358.49227026746536
 21
274.9411924209262
  0
LINE
  8
_0-f_
  6
CONTINUOUS
 62
    7
 10
362.71834998201388
 20
274.86119242092622
 11
361.08550375090562
 21
274.86119242092622
  0
LINE
  8
_0-f_
  6
CONTINUOUS
 62
    7
 10
360.29607156254838
 20
274.86119242092622
 11
358.46311706226595
 21
274.86119242092622
  0
LINE
  8
_0-f_
  6
CONTINUOUS
 62
    7
 10
361.37571130646114
 20
277.38119242092625
 11
362.40292075071477
 21
277.38119242092625
  0
LINE
  8
_0-f_
  6
CONTINUOUS
 62
    7
 10
361.73335641795398
 20
275.54119242092628
 11
362.40292075071477
 21
277.38119242092625
  0
LINE
  8
_0-f_
  6
CONTINUOUS
 62
    7
 10
361.07092730646121
 20
274.82119242092625
 11
362.54543932530714
 21
274.82119242092625
  0
LINE
  8
_0-f_
  6
CONTINUOUS
 62
    7
 10
361.63731130646107
 20
278.10131242092621
 11
363.67668376324497
 21
278.10131242092621
  0
ARC
  8
_0-f_
  6
CONTINUOUS
 62
    7
 10
361.55660660836173
 20
278.5812324209262
 40
0.2399999999999999
 50
340.00283559285606
 51
90.000000000000014
  0
LINE
  8
_0-f_
  6
CONTINUOUS
 62
    7
 10
359.35093530646117
 20
275.54119242092628
 11
360.02053530646117
 21
277.38113642092628
  0
LINE
  8
_0-f_
  6
CONTINUOUS
 62
    7
 10
360.55894759366879
 20
275.1370301433534
 11
361.37571130646114
 21
277.38119242092625
  0
LINE
  8
_0-f_
  6
CONTINUOUS
 62
    7
 10
358.44854045966628
 20
274.82119242092625
 11
360.10789244557481
 21
274.82119242092625
  0
LINE
  8
_0-f_
  6
CONTINUOUS
 62
    7
 10
358.71091930646111
 20
275.54119242092628
 11
359.35093530646117
 21
275.54119242092628
  0
LINE
  8
_0-f_
  6
CONTINUOUS
 62
    7
 10
358.44854045966628
 20
274.82119242092625
 11
358.71091930646111
 21
275.54119242092628
  0
ARC
  8
_0-f_
  6
CONTINUOUS
 62
    7
 10
360.10789244557481
 20
275.30119242092621
 40
0.4799999999999999
 50
270
 51
340.00093888113781
  0
LINE
  8
_0-f_
  6
CONTINUOUS
 62
    7
 10
361.07092730646121
 20
274.82119242092625
 11
361.33330330646112
 21
275.54119242092628
  0
LINE
  8
_0-f_
  6
CONTINUOUS
 62
    7
 10
361.33330330646112
 20
275.54119242092628
 11
361.73335641795398
 21
275.54119242092628
  0
LINE
  8
_0-f_
  6
CONTINUOUS
 62
    7
 10
359.38051930646139
 20
277.38125642092621
 11
359.64292730646122
 21
278.10131242092621
  0
LINE
  8
_0-f_
  6
CONTINUOUS
 62
    7
 10
359.38051930646139
 20
277.38119242092625
 11
360.02053530646117
 21
277.38119242092625
  0
LINE
  8
_0-f_
  6
CONTINUOUS
 62
    7
 10
360.54453530646128
 20
278.82123242092626
 11
361.55660660836173
 21
278.82123242092626
  0
LINE
  8
_0-f_
  6
CONTINUOUS
 62
    7
 10
360.2829752582839
 20
278.10131242092621
 11
360.54453530646128
 21
278.8211444209262
  0
LINE
  8
_0-f_
  6
CONTINUOUS
 62
    7
 10
359.64292730646122
 20
278.10131242092621
 11
360.2829752582839
 21
278.10131242092621
  0
LINE
  8
_0-f_
  6
CONTINUOUS
 62
    7
 10
361.63731130646107
 20
278.10119242092628
 11
361.78213689948808
 21
278.499158748019
  0
LINE
  8
_0-f_
  6
CONTINUOUS
 62
    7
 10
362.92131409186123
 20
275.08437809467387
 11
363.9022086231775
 21
277.77922382517477
  0
ARC
  8
_0-f_
  6
CONTINUOUS
 62
    7
 10
362.54543932530714
 20
275.22119242092623
 40
0.4
 50
270
 51
339.99904441127069
  0
ARC
  8
_0-f_
  6
CONTINUOUS
 62
    7
 10
363.67668376324497
 20
277.86131242092625
 40
0.2399999999999999
 50
339.99904441127069
 51
90.000000000000043
  0
LINE
  8
_0-f_
  6
CONTINUOUS
 62
    7
 10
358.95684551443969
 20
277.38119242092625
 11
359.10170022060169
 21
277.77923874801911
  0
ARC
  8
_0-f_
  6
CONTINUOUS
 62
    7
 10
358.87616992947534
 20
277.86131242092625
 40
0.2399999999999993
 50
340.00283559286606
 51
89.999999999999915
  0
LINE
  8
_0-f_
  6
CONTINUOUS
 62
    7
 10
358.87616992947534
 20
278.10131242092621
 11
357.68171831042122
 21
278.10131242092621
  0
LINE
  8
_0-f_
  6
CONTINUOUS
 62
    7
 10
357.68171831042122
 20
278.10131242092621
 11
357.82651747775435
 21
278.49914819316359
  0
ARC
  8
_0-f_
  6
CONTINUOUS
 62
    7
 10
357.60099102796943
 20
278.5812324209262
 40
0.2399999999999979
 50
340.00015411793316
 51
89.999999999999986
  0
LINE
  8
_0-f_
  6
CONTINUOUS
 62
    7
 10
357.60099102796943
 20
278.82123242092626
 11
356.42884404655854
 21
278.82123242092626
  0
LINE
  8
_0-f_
  6
CONTINUOUS
 62
    7
 10
356.42884404655854
 20
278.82123242092626
 11
356.16642004655858
 21
278.10131242092621
  0
LINE
  8
_0-f_
  6
CONTINUOUS
 62
    7
 10
356.16642004655858
 20
278.10131242092621
 11
354.20084404655876
 21
278.10131242092621
  0
LINE
  8
_0-f_
  6
CONTINUOUS
 62
    7
 10
354.20084404655876
 20
278.10131242092621
 11
353.93846445045983
 21
277.38119242092625
  0
LINE
  8
_0-f_
  6
CONTINUOUS
 62
    7
 10
353.93846445045983
 20
277.38119242092625
 11
355.90482655887075
 21
277.38119242092625
  0
LINE
  8
_0-f_
  6
CONTINUOUS
 62
    7
 10
355.90482655887075
 20
277.38119242092625
 11
355.2344651927051
 21
275.54119242092628
  0
LINE
  8
_0-f_
  6
CONTINUOUS
 62
    7
 10
355.2344651927051
 20
275.54119242092628
 11
353.90963604655872
 21
275.54119242092628
  0
LINE
  8
_0-f_
  6
CONTINUOUS
 62
    7
 10
353.90963604655872
 20
275.54119242092628
 11
353.64803604655862
 21
274.82119242092625
  0
LINE
  8
_0-f_
  6
CONTINUOUS
 62
    7
 10
353.64803604655862
 20
274.82119242092625
 11
356.20739318285587
 21
274.82119242092625
  0
ARC
  8
_0-f_
  6
CONTINUOUS
 62
    7
 10
356.20739318285587
 20
275.22119242092623
 40
0.399999999999999
 50
270
 51
340.00026326049675
  0
LINE
  8
_0-f_
  6
CONTINUOUS
 62
    7
 10
356.5832708597668
 20
275.0843860906632
 11
357.41922804655854
 21
277.38119242092625
  0
LINE
  8
_0-f_
  6
CONTINUOUS
 62
    7
 10
357.41922804655854
 20
277.38119242092625
 11
358.95684551443969
 21
277.38119242092625
  0
LINE
  8
_0-f_
  6
CONTINUOUS
 62
    7
 10
357.20084902806394
 20
276.78119242092623
 11
355.68623046120803
 21
276.78119242092623
  0
LINE
  8
_0-f_
  6
CONTINUOUS
 62
    7
 10
357.2299662305299
 20
276.86119242092627
 11
355.71537660756309
 21
276.86119242092627
  0
LINE
  8
_0-f_
  6
CONTINUOUS
 62
    7
 10
357.25908343299585
 20
276.9411924209262
 11
355.74452275391809
 21
276.9411924209262
  0
LINE
  8
_0-f_
  6
CONTINUOUS
 62
    7
 10
357.28820063546181
 20
277.02119242092624
 11
355.77366890027315
 21
277.02119242092624
  0
LINE
  8
_0-f_
  6
CONTINUOUS
 62
    7
 10
357.31731783792776
 20
277.10119242092622
 11
355.80281504662815
 21
277.10119242092628
  0
LINE
  8
_0-f_
  6
CONTINUOUS
 62
    7
 10
357.34643504039371
 20
277.18119242092621
 11
355.83196119298316
 21
277.18119242092621
  0
LINE
  8
_0-f_
  6
CONTINUOUS
 62
    7
 10
357.37555224285967
 20
277.26119242092625
 11
355.86110733933816
 21
277.26119242092625
  0
LINE
  8
_0-f_
  6
CONTINUOUS
 62
    7
 10
357.40466944532557
 20
277.34119242092629
 11
355.89025348569322
 21
277.34119242092629
  0
LINE
  8
_0-f_
  6
CONTINUOUS
 62
    7
 10
358.97140208198493
 20
277.42119242092627
 11
353.95303866565172
 21
277.42119242092627
  0
LINE
  8
_0-f_
  6
CONTINUOUS
 62
    7
 10
359.00051521707547
 20
277.50119242092626
 11
353.98218709603537
 21
277.50119242092626
  0
LINE
  8
_0-f_
  6
CONTINUOUS
 62
    7
 10
359.02962835216607
 20
277.5811924209263
 11
354.01133552641909
 21
277.5811924209263
  0
LINE
  8
_0-f_
  6
CONTINUOUS
 62
    7
 10
359.05874148725667
 20
277.66119242092623
 11
354.0404839568028
 21
277.66119242092623
  0
LINE
  8
_0-f_
  6
CONTINUOUS
 62
    7
 10
359.08785462234721
 20
277.74119242092627
 11
354.06963238718646
 21
277.74119242092627
  0
LINE
  8
_0-f_
  6
CONTINUOUS
 62
    7
 10
359.11240757744332
 20
277.82119242092625
 11
354.09878081757017
 21
277.82119242092625
  0
LINE
  8
_0-f_
  6
CONTINUOUS
 62
    7
 10
359.11221843051663
 20
277.90119242092624
 11
354.12792924795389
 21
277.90119242092624
  0
LINE
  8
_0-f_
  6
CONTINUOUS
 62
    7
 10
359.08324420099473
 20
277.98119242092628
 11
354.15707767833766
 21
277.98119242092628
  0
LINE
  8
_0-f_
  6
CONTINUOUS
 62
    7
 10
359.00767589416279
 20
278.0611924209262
 11
354.18622610872131
 21
278.0611924209262
  0
LINE
  8
_0-f_
  6
CONTINUOUS
 62
    7
 10
357.69623332188127
 20
278.14119242092625
 11
356.18095703555736
 21
278.14119242092625
  0
LINE
  8
_0-f_
  6
CONTINUOUS
 62
    7
 10
357.72535069692651
 20
278.22119242092629
 11
356.21011849794201
 21
278.22119242092623
  0
LINE
  8
_0-f_
  6
CONTINUOUS
 62
    7
 10
357.75446807197176
 20
278.30119242092621
 11
356.23927996032677
 21
278.30119242092621
  0
LINE
  8
_0-f_
  6
CONTINUOUS
 62
    7
 10
357.783585447017
 20
278.38119242092625
 11
356.26844142271148
 21
278.38119242092625
  0
LINE
  8
_0-f_
  6
CONTINUOUS
 62
    7
 10
357.81270282206225
 20
278.4611924209263
 11
356.29760288509618
 21
278.4611924209263
  0
LINE
  8
_0-f_
  6
CONTINUOUS
 62
    7
 10
357.83723730875539
 20
278.54119242092628
 11
356.32676434748089
 21
278.54119242092628
  0
LINE
  8
_0-f_
  6
CONTINUOUS
 62
    7
 10
357.83702277380775
 20
278.62119242092626
 11
356.3559258098656
 21
278.62119242092626
  0
LINE
  8
_0-f_
  6
CONTINUOUS
 62
    7
 10
357.80802023606822
 20
278.7011924209263
 11
356.3850872722503
 21
278.7011924209263
  0
LINE
  8
_0-f_
  6
CONTINUOUS
 62
    7
 10
357.73237621767106
 20
278.78119242092623
 11
356.41424873463501
 21
278.78119242092623
  0
LINE
  8
_0-f_
  6
CONTINUOUS
 62
    7
 10
357.17173182559799
 20
276.70119242092625
 11
355.65708431485302
 21
276.70119242092625
  0
LINE
  8
_0-f_
  6
CONTINUOUS
 62
    7
 10
357.14261462313203
 20
276.62119242092626
 11
355.62793816849796
 21
276.62119242092626
  0
LINE
  8
_0-f_
  6
CONTINUOUS
 62
    7
 10
357.11349742066608
 20
276.54119242092622
 11
355.59879202214296
 21
276.54119242092622
  0
LINE
  8
_0-f_
  6
CONTINUOUS
 62
    7
 10
357.08438021820012
 20
276.46119242092618
 11
355.5696458757879
 21
276.46119242092618
  0
LINE
  8
_0-f_
  6
CONTINUOUS
 62
    7
 10
357.05526301573417
 20
276.38119242092625
 11
355.5404997294329
 21
276.38119242092625
  0
LINE
  8
_0-f_
  6
CONTINUOUS
 62
    7
 10
357.02614581326822
 20
276.30119242092621
 11
355.51135358307783
 21
276.30119242092621
  0
LINE
  8
_0-f_
  6
CONTINUOUS
 62
    7
 10
356.99702861080226
 20
276.22119242092629
 11
355.48220743672283
 21
276.22119242092617
  0
LINE
  8
_0-f_
  6
CONTINUOUS
 62
    7
 10
356.96791140833631
 20
276.14119242092625
 11
355.45306129036777
 21
276.14119242092625
  0
LINE
  8
_0-f_
  6
CONTINUOUS
 62
    7
 10
356.93879420587041
 20
276.0611924209262
 11
355.42391514401277
 21
276.0611924209262
  0
LINE
  8
_0-f_
  6
CONTINUOUS
 62
    7
 10
356.90967700340445
 20
275.98119242092622
 11
355.39476899765771
 21
275.98119242092622
  0
LINE
  8
_0-f_
  6
CONTINUOUS
 62
    7
 10
356.8805598009385
 20
275.90119242092624
 11
355.3656228513027
 21
275.90119242092624
  0
LINE
  8
_0-f_
  6
CONTINUOUS
 62
    7
 10
356.85144259847254
 20
275.8211924209262
 11
355.3364767049477
 21
275.8211924209262
  0
LINE
  8
_0-f_
  6
CONTINUOUS
 62
    7
 10
356.82232539600659
 20
275.74119242092627
 11
355.3073305585927
 21
275.74119242092627
  0
LINE
  8
_0-f_
  6
CONTINUOUS
 62
    7
 10
356.79320819354069
 20
275.66119242092623
 11
355.27818441223764
 21
275.66119242092623
  0
LINE
  8
_0-f_
  6
CONTINUOUS
 62
    7
 10
356.76409099107474
 20
275.58119242092624
 11
355.24903826588258
 21
275.58119242092624
  0
LINE
  8
_0-f_
  6
CONTINUOUS
 62
    7
 10
356.73497378860878
 20
275.50119242092626
 11
353.8951027132253
 21
275.50119242092626
  0
LINE
  8
_0-f_
  6
CONTINUOUS
 62
    7
 10
356.70585658614283
 20
275.42119242092622
 11
353.86603604655869
 21
275.42119242092622
  0
LINE
  8
_0-f_
  6
CONTINUOUS
 62
    7
 10
356.67673938367687
 20
275.34119242092618
 11
353.83696937989197
 21
275.34119242092618
  0
LINE
  8
_0-f_
  6
CONTINUOUS
 62
    7
 10
356.64762218121092
 20
275.26119242092619
 11
353.80790271322536
 21
275.26119242092625
  0
LINE
  8
_0-f_
  6
CONTINUOUS
 62
    7
 10
356.61850497874497
 20
275.18119242092621
 11
353.77883604655864
 21
275.18119242092621
  0
LINE
  8
_0-f_
  6
CONTINUOUS
 62
    7
 10
356.58938777627901
 20
275.10119242092617
 11
353.74976937989197
 21
275.10119242092617
  0
LINE
  8
_0-f_
  6
CONTINUOUS
 62
    7
 10
356.55251770821178
 20
275.02119242092624
 11
353.72070271322525
 21
275.02119242092624
  0
LINE
  8
_0-f_
  6
CONTINUOUS
 62
    7
 10
356.49266360713307
 20
274.9411924209262
 11
353.69163604655859
 21
274.9411924209262
  0
LINE
  8
_0-f_
  6
CONTINUOUS
 62
    7
 10
356.38030383956192
 20
274.86119242092622
 11
353.66256937989192
 21
274.86119242092622
  0
LINE
  8
_0-f_
  6
CONTINUOUS
 62
    7
 10
354.20084404655876
 20
278.10131242092621
 11
356.16642004655858
 21
278.10131242092621
  0
LINE
  8
_0-f_
  6
CONTINUOUS
 62
    7
 10
356.16642004655858
 20
278.10131242092621
 11
354.20084404655876
 21
278.10131242092621
  0
LINE
  8
_0-f_
  6
CONTINUOUS
 62
    7
 10
355.90482655887075
 20
277.38119242092625
 11
353.93846445045983
 21
277.38119242092625
  0
LINE
  8
_0-f_
  6
CONTINUOUS
 62
    7
 10
355.2344651927051
 20
275.54119242092628
 11
355.90482655887075
 21
277.38119242092625
  0
LINE
  8
_0-f_
  6
CONTINUOUS
 62
    7
 10
353.64803604655862
 20
274.82119242092625
 11
356.20739318285587
 21
274.82119242092625
  0
LINE
  8
_0-f_
  6
CONTINUOUS
 62
    7
 10
353.90963604655872
 20
275.54119242092628
 11
355.2344651927051
 21
275.54119242092628
  0
LINE
  8
_0-f_
  6
CONTINUOUS
 62
    7
 10
353.64803604655862
 20
274.82119242092625
 11
353.90963604655872
 21
275.54119242092628
  0
LINE
  8
_0-f_
  6
CONTINUOUS
 62
    7
 10
353.93846445045983
 20
277.38119242092625
 11
354.20084404655876
 21
278.10131242092621
  0
LINE
  8
_0-f_
  6
CONTINUOUS
 62
    7
 10
356.5832708597668
 20
275.0843860906632
 11
357.41922804655854
 21
277.38119242092625
  0
ARC
  8
_0-f_
  6
CONTINUOUS
 62
    7
 10
356.20739318285587
 20
275.22119242092623
 40
0.4
 50
270
 51
340.00026326049698
  0
LINE
  8
_0-f_
  6
CONTINUOUS
 62
    7
 10
357.41922804655854
 20
277.38119242092625
 11
358.95684551443969
 21
277.38119242092625
  0
ARC
  8
_0-f_
  6
CONTINUOUS
 62
    7
 10
357.60099102796943
 20
278.5812324209262
 40
0.2399999999999999
 50
340.00015411793424
 51
89.999999999999957
  0
LINE
  8
_0-f_
  6
CONTINUOUS
 62
    7
 10
356.42884404655854
 20
278.82123242092626
 11
357.60099102796943
 21
278.82123242092626
  0
LINE
  8
_0-f_
  6
CONTINUOUS
 62
    7
 10
356.16642004655858
 20
278.10131242092621
 11
356.42884404655854
 21
278.82123242092626
  0
LINE
  8
_0-f_
  6
CONTINUOUS
 62
    7
 10
357.68171831042122
 20
278.10131242092621
 11
358.87616992947534
 21
278.10131242092621
  0
LINE
  8
_0-f_
  6
CONTINUOUS
 62
    7
 10
357.68171831042122
 20
278.10131242092621
 11
357.82651747775435
 21
278.49914819316359
  0
LINE
  8
_0-f_
  6
CONTINUOUS
 62
    7
 10
358.95684551443969
 20
277.38119242092625
 11
359.10170022060169
 21
277.77923874801911
  0
ARC
  8
_0-f_
  6
CONTINUOUS
 62
    7
 10
358.87616992947534
 20
277.86131242092625
 40
0.2399999999999999
 50
340.00283559286788
 51
89.999999999999986
  0
LINE
  8
_0-f_
  6
CONTINUOUS
 62
    7
 10
347.11813736893583
 20
278.04562321415318
 11
347.70692165273499
 21
278.50982653314713
  0
LINE
  8
_0-f_
  6
CONTINUOUS
 62
    7
 10
351.60268206149539
 20
275.20919242092623
 11
351.00096780183219
 21
275.06562181965876
  0
LINE
  8
_0-f_
  6
CONTINUOUS
 62
    7
 10
351.00096780183219
 20
275.06562181965876
 11
350.36013698171621
 21
274.99477471991906
  0
LINE
  8
_0-f_
  6
CONTINUOUS
 62
    7
 10
350.36013698171621
 20
274.99477471991906
 11
349.82819713134273
 21
274.99312820724629
  0
LINE
  8
_0-f_
  6
CONTINUOUS
 62
    7
 10
349.82819713134273
 20
274.99312820724629
 11
349.40227976443094
 21
275.02865908724846
  0
LINE
  8
_0-f_
  6
CONTINUOUS
 62
    7
 10
349.40227976443094
 20
275.02865908724846
 11
349.05277170449284
 21
275.09983320718084
  0
LINE
  8
_0-f_
  6
CONTINUOUS
 62
    7
 10
349.05277170449284
 20
275.09983320718084
 11
349.23549107064315
 21
275.78175197104702
  0
LINE
  8
_0-f_
  6
CONTINUOUS
 62
    7
 10
349.23549107064315
 20
275.78175197104702
 11
349.44272869039509
 21
276.55517421121482
  0
LINE
  8
_0-f_
  6
CONTINUOUS
 62
    7
 10
349.44272869039509
 20
276.55517421121482
 11
349.59521552559903
 21
276.47820239954513
  0
LINE
  8
_0-f_
  6
CONTINUOUS
 62
    7
 10
349.59521552559903
 20
276.47820239954513
 11
349.97734501293598
 21
276.0997717894208
  0
LINE
  8
_0-f_
  6
CONTINUOUS
 62
    7
 10
349.97734501293598
 20
276.0997717894208
 11
350.14206157823003
 21
275.93908419745014
  0
LINE
  8
_0-f_
  6
CONTINUOUS
 62
    7
 10
350.14206157823003
 20
275.93908419745014
 11
350.25397294715452
 21
275.87364855473083
  0
LINE
  8
_0-f_
  6
CONTINUOUS
 62
    7
 10
350.25397294715452
 20
275.87364855473083
 11
350.38098331556984
 21
275.84655643080555
  0
LINE
  8
_0-f_
  6
CONTINUOUS
 62
    7
 10
350.38098331556984
 20
275.84655643080555
 11
350.79238700464663
 21
275.84624886912519
  0
LINE
  8
_0-f_
  6
CONTINUOUS
 62
    7
 10
350.79238700464663
 20
275.84624886912519
 11
351.58115319899463
 21
275.84667010095177
  0
LINE
  8
_0-f_
  6
CONTINUOUS
 62
    7
 10
351.58115319899463
 20
275.84667010095177
 11
351.84081399788511
 21
276.09791158437508
  0
LINE
  8
_0-f_
  6
CONTINUOUS
 62
    7
 10
351.84081399788511
 20
276.09791158437508
 11
352.28859949065787
 21
277.76906944753853
  0
LINE
  8
_0-f_
  6
CONTINUOUS
 62
    7
 10
352.28859949065787
 20
277.76906944753853
 11
352.58983700397863
 21
278.89330291912142
  0
LINE
  8
_0-f_
  6
CONTINUOUS
 62
    7
 10
352.58983700397863
 20
278.89330291912142
 11
351.6461927214379
 21
279.28722918112874
  0
LINE
  8
_0-f_
  6
CONTINUOUS
 62
    7
 10
351.6461927214379
 20
279.28722918112874
 11
350.56638277838653
 21
279.48381695306512
  0
LINE
  8
_0-f_
  6
CONTINUOUS
 62
    7
 10
350.56638277838653
 20
279.48381695306512
 11
349.3840179373546
 21
279.46354090967986
  0
LINE
  8
_0-f_
  6
CONTINUOUS
 62
    7
 10
349.3840179373546
 20
279.46354090967986
 11
348.25795287395573
 21
279.20724607091921
  0
LINE
  8
_0-f_
  6
CONTINUOUS
 62
    7
 10
348.25795287395573
 20
279.20724607091921
 11
347.29972614042703
 21
278.72783047323401
  0
LINE
  8
_0-f_
  6
CONTINUOUS
 62
    7
 10
347.29972614042703
 20
278.72783047323401
 11
346.61077853179336
 21
278.05917512407484
  0
LINE
  8
_0-f_
  6
CONTINUOUS
 62
    7
 10
346.61077853179336
 20
278.05917512407484
 11
346.296021404599
 21
277.28006503979566
  0
LINE
  8
_0-f_
  6
CONTINUOUS
 62
    7
 10
346.296021404599
 20
277.28006503979566
 11
346.38308110581903
 21
276.46351522113741
  0
LINE
  8
_0-f_
  6
CONTINUOUS
 62
    7
 10
346.38308110581903
 20
276.46351522113741
 11
346.86205615711282
 21
275.72580360971324
  0
LINE
  8
_0-f_
  6
CONTINUOUS
 62
    7
 10
346.86205615711282
 20
275.72580360971324
 11
347.68703065672946
 21
275.12722339395657
  0
LINE
  8
_0-f_
  6
CONTINUOUS
 62
    7
 10
347.68703065672946
 20
275.12722339395657
 11
348.72373215896505
 21
274.74272404614533
  0
LINE
  8
_0-f_
  6
CONTINUOUS
 62
    7
 10
348.72373215896505
 20
274.74272404614533
 11
349.90125588966242
 21
274.58664919042872
  0
LINE
  8
_0-f_
  6
CONTINUOUS
 62
    7
 10
349.90125588966242
 20
274.58664919042872
 11
350.58808817978371
 21
274.60600723355674
  0
LINE
  8
_0-f_
  6
CONTINUOUS
 62
    7
 10
350.58808817978371
 20
274.60600723355674
 11
351.16457579869115
 21
274.68546329559456
  0
LINE
  8
_0-f_
  6
CONTINUOUS
 62
    7
 10
351.16457579869115
 20
274.68546329559456
 11
351.49126131381382
 21
274.79336787900564
  0
LINE
  8
_0-f_
  6
CONTINUOUS
 62
    7
 10
351.49126131381382
 20
274.79336787900564
 11
351.55787154340504
 21
275.04195863776386
  0
LINE
  8
_0-f_
  6
CONTINUOUS
 62
    7
 10
351.55787154340504
 20
275.04195863776386
 11
351.60268206149539
 21
275.20919242092623
  0
LINE
  8
_0-f_
  6
CONTINUOUS
 62
    7
 10
348.15966866908235
 20
277.51671400511862
 11
348.00423932915373
 21
276.93664379756808
  0
LINE
  8
_0-f_
  6
CONTINUOUS
 62
    7
 10
348.00423932915373
 20
276.93664379756808
 11
347.7390951610397
 21
275.94711226703726
  0
LINE
  8
_0-f_
  6
CONTINUOUS
 62
    7
 10
347.7390951610397
 20
275.94711226703726
 11
347.64882380007799
 21
275.61372371922141
  0
LINE
  8
_0-f_
  6
CONTINUOUS
 62
    7
 10
347.64882380007799
 20
275.61372371922141
 11
347.64581798306341
 21
275.61550653152199
  0
LINE
  8
_0-f_
  6
CONTINUOUS
 62
    7
 10
347.64581798306341
 20
275.61550653152199
 11
347.64280677334511
 21
275.61728442416791
  0
LINE
  8
_0-f_
  6
CONTINUOUS
 62
    7
 10
347.64280677334511
 20
275.61728442416791
 11
347.3043544942048
 21
275.86448844686004
  0
LINE
  8
_0-f_
  6
CONTINUOUS
 62
    7
 10
347.3043544942048
 20
275.86448844686004
 11
346.86945027190393
 21
276.37495169279129
  0
LINE
  8
_0-f_
  6
CONTINUOUS
 62
    7
 10
346.86945027190393
 20
276.37495169279129
 11
346.68727233624372
 21
276.93806702107577
  0
LINE
  8
_0-f_
  6
CONTINUOUS
 62
    7
 10
346.68727233624372
 20
276.93806702107577
 11
346.77298692303799
 21
277.51282568557417
  0
LINE
  8
_0-f_
  6
CONTINUOUS
 62
    7
 10
346.77298692303799
 20
277.51282568557417
 11
347.11813736893583
 21
278.04562321415318
  0
LINE
  8
_0-f_
  6
CONTINUOUS
 62
    7
 10
347.70692165273499
 20
278.50982653314713
 11
348.51254138031641
 21
278.8673456037244
  0
LINE
  8
_0-f_
  6
CONTINUOUS
 62
    7
 10
348.51254138031641
 20
278.8673456037244
 11
349.44215921978486
 21
279.06420753446673
  0
LINE
  8
_0-f_
  6
CONTINUOUS
 62
    7
 10
349.44215921978486
 20
279.06420753446673
 11
350.21441275380738
 21
279.09858651576991
  0
LINE
  8
_0-f_
  6
CONTINUOUS
 62
    7
 10
350.21441275380738
 20
279.09858651576991
 11
350.58757915376924
 21
279.07700059108549
  0
LINE
  8
_0-f_
  6
CONTINUOUS
 62
    7
 10
350.58757915376924
 20
279.07700059108549
 11
350.95081588438404
 21
279.03100204142618
  0
LINE
  8
_0-f_
  6
CONTINUOUS
 62
    7
 10
350.95081588438404
 20
279.03100204142618
 11
351.00752712923463
 21
278.73802846426526
  0
LINE
  8
_0-f_
  6
CONTINUOUS
 62
    7
 10
351.00752712923463
 20
278.73802846426526
 11
350.73965816958918
 21
277.73832809327632
  0
LINE
  8
_0-f_
  6
CONTINUOUS
 62
    7
 10
350.73965816958918
 20
277.73832809327632
 11
350.55651453583988
 21
277.05482688116285
  0
LINE
  8
_0-f_
  6
CONTINUOUS
 62
    7
 10
350.55651453583988
 20
277.05482688116285
 11
350.38532090955613
 21
277.21743162421637
  0
LINE
  8
_0-f_
  6
CONTINUOUS
 62
    7
 10
350.38532090955613
 20
277.21743162421637
 11
350.04228933439686
 21
277.55947265643397
  0
LINE
  8
_0-f_
  6
CONTINUOUS
 62
    7
 10
350.04228933439686
 20
277.55947265643397
 11
349.88541559839132
 21
277.7150898605629
  0
LINE
  8
_0-f_
  6
CONTINUOUS
 62
    7
 10
349.88541559839132
 20
277.7150898605629
 11
349.78808911437517
 21
277.77990718657514
  0
LINE
  8
_0-f_
  6
CONTINUOUS
 62
    7
 10
349.78808911437517
 20
277.77990718657514
 11
349.67680929494117
 21
277.81443270593809
  0
LINE
  8
_0-f_
  6
CONTINUOUS
 62
    7
 10
349.67680929494117
 20
277.81443270593809
 11
349.53423841441111
 21
277.81950290708824
  0
LINE
  8
_0-f_
  6
CONTINUOUS
 62
    7
 10
349.53423841441111
 20
277.81950290708824
 11
349.03061463547562
 21
277.81950290708824
  0
LINE
  8
_0-f_
  6
CONTINUOUS
 62
    7
 10
349.03061463547562
 20
277.81950290708824
 11
348.58390724251461
 21
277.81950290708824
  0
LINE
  8
_0-f_
  6
CONTINUOUS
 62
    7
 10
348.58390724251461
 20
277.81950290708824
 11
348.4129949018261
 21
277.79433240143123
  0
LINE
  8
_0-f_
  6
CONTINUOUS
 62
    7
 10
348.4129949018261
 20
277.79433240143123
 11
348.25380430128843
 21
277.68778821890646
  0
LINE
  8
_0-f_
  6
CONTINUOUS
 62
    7
 10
348.25380430128843
 20
277.68778821890646
 11
348.15966866908235
 21
277.51671400511862
  0
SOLID
  8
_0-f_
  6
CONTINUOUS
 62
    7
 10
350.38098331556984
 20
275.84655643080555
 11
350.79238700464663
 21
275.84624886912519
 12
351.58115319899463
 22
275.84667010095177
 13
351.58115319899463
 23
275.84667010095177
  0
LINE
  8
_0-f_
  6
CONTINUOUS
 62
    7
 10
350.73242092771613
 20
274.62590030913668
 11
349.60512155384805
 21
274.62590030913668
  0
LINE
  8
_0-f_
  6
CONTINUOUS
 62
    7
 10
351.25252044667928
 20
274.71451150913663
 11
348.93658471409566
 21
274.71451150913663
  0
LINE
  8
_0-f_
  6
CONTINUOUS
 62
    7
 10
351.51761862445454
 20
274.89173390913663
 11
348.32196620099819
 21
274.89173390913663
  0
LINE
  8
_0-f_
  6
CONTINUOUS
 62
    7
 10
351.54136211518545
 20
274.98034510913669
 11
348.08304937401823
 21
274.98034510913669
  0
LINE
  8
_0-f_
  6
CONTINUOUS
 62
    7
 10
351.49387513372369
 20
274.80312270913669
 11
348.56088302797809
 21
274.80312270913669
  0
LINE
  8
_0-f_
  6
CONTINUOUS
 62
    7
 10
349.11572808863855
 20
275.3347899091367
 11
347.40095858570146
 21
275.3347899091367
  0
LINE
  8
_0-f_
  6
CONTINUOUS
 62
    7
 10
349.09198481721717
 20
275.24617870913664
 11
347.52308420638877
 21
275.24617870913664
  0
LINE
  8
_0-f_
  6
CONTINUOUS
 62
    7
 10
349.16321463148137
 20
275.51201230913665
 11
347.15670734432683
 21
275.51201230913665
  0
LINE
  8
_0-f_
  6
CONTINUOUS
 62
    7
 10
349.18695790290275
 20
275.60062350913665
 11
347.03458172363952
 21
275.60062350913665
  0
LINE
  8
_0-f_
  6
CONTINUOUS
 62
    7
 10
349.13947136005999
 20
275.42340110913665
 11
347.2788329650142
 21
275.42340110913665
  0
LINE
  8
_0-f_
  6
CONTINUOUS
 62
    7
 10
349.06824154579573
 20
275.15756750913664
 11
347.64520982707614
 21
275.15756750913664
  0
LINE
  8
_0-f_
  6
CONTINUOUS
 62
    7
 10
349.20439598509637
 20
275.06895630913664
 11
347.84413254703833
 21
275.06895630913664
  0
LINE
  8
_0-f_
  6
CONTINUOUS
 62
    7
 10
351.58884909664715
 20
275.15756750913664
 11
351.38631850723419
 21
275.15756750913664
  0
LINE
  8
_0-f_
  6
CONTINUOUS
 62
    7
 10
351.5651056059163
 20
275.06895630913664
 11
351.01494287646335
 21
275.06895630913664
  0
LINE
  8
_0-f_
  6
CONTINUOUS
 62
    7
 10
351.9212557717338
 20
276.39812430913662
 11
349.67607631966814
 21
276.39812430913662
  0
LINE
  8
_0-f_
  6
CONTINUOUS
 62
    7
 10
351.89751246732675
 20
276.30951310913662
 11
349.76555362811627
 21
276.30951310913662
  0
LINE
  8
_0-f_
  6
CONTINUOUS
 62
    7
 10
351.87376916291981
 20
276.22090190913661
 11
349.85503093656445
 21
276.22090190913661
  0
LINE
  8
_0-f_
  6
CONTINUOUS
 62
    7
 10
351.85002585851288
 20
276.13229070913667
 11
349.94450824501257
 21
276.13229070913667
  0
LINE
  8
_0-f_
  6
CONTINUOUS
 62
    7
 10
351.78476455975084
 20
276.04367950913661
 11
350.0339855534607
 21
276.04367950913661
  0
LINE
  8
_0-f_
  6
CONTINUOUS
 62
    7
 10
351.693183923189
 20
275.95506830913666
 11
350.12346286190888
 21
275.95506830913666
  0
LINE
  8
_0-f_
  6
CONTINUOUS
 62
    7
 10
351.60160328662721
 20
275.86645710913666
 11
350.28768710544182
 21
275.86645710913666
  0
LINE
  8
_0-f_
  6
CONTINUOUS
 62
    7
 10
351.94499907614073
 20
276.48673550913668
 11
349.57831080622401
 21
276.48673550913668
  0
LINE
  8
_0-f_
  6
CONTINUOUS
 62
    7
 10
351.9867292312685
 20
279.1450715091367
 11
348.13368214197891
 21
279.1450715091367
  0
LINE
  8
_0-f_
  6
CONTINUOUS
 62
    7
 10
351.77446246889775
 20
279.2336827091367
 11
348.37410571899306
 21
279.2336827091367
  0
LINE
  8
_0-f_
  6
CONTINUOUS
 62
    7
 10
351.45359049811287
 20
279.32229390913676
 11
348.7634306739094
 21
279.32229390913665
  0
LINE
  8
_0-f_
  6
CONTINUOUS
 62
    7
 10
350.9668702210418
 20
279.41090510913671
 11
349.15275562882641
 21
279.41090510913671
  0
LINE
  8
_0-f_
  6
CONTINUOUS
 62
    7
 10
352.19899599363924
 20
279.0564603091367
 11
350.74977959087533
 21
279.0564603091367
  0
LINE
  8
_0-f_
  6
CONTINUOUS
 62
    7
 10
352.41126275600999
 20
278.96784910913664
 11
350.96304047282922
 21
278.96784910913664
  0
LINE
  8
_0-f_
  6
CONTINUOUS
 62
    7
 10
352.58606829512968
 20
278.87923790913669
 11
350.98019304852704
 21
278.87923790913669
  0
LINE
  8
_0-f_
  6
CONTINUOUS
 62
    7
 10
352.56232499072263
 20
278.79062670913675
 11
350.99734562422481
 21
278.79062670913675
  0
LINE
  8
_0-f_
  6
CONTINUOUS
 62
    7
 10
352.53858168631558
 20
278.70201550913669
 11
350.99787748509726
 21
278.70201550913669
  0
LINE
  8
_0-f_
  6
CONTINUOUS
 62
    7
 10
352.51483838190859
 20
278.61340430913674
 11
350.97413418095761
 21
278.61340430913674
  0
LINE
  8
_0-f_
  6
CONTINUOUS
 62
    7
 10
352.49109507750154
 20
278.52479310913668
 11
350.95039087681795
 21
278.52479310913668
  0
LINE
  8
_0-f_
  6
CONTINUOUS
 62
    7
 10
352.46735177309449
 20
278.43618190913668
 11
350.92664757267823
 21
278.43618190913668
  0
LINE
  8
_0-f_
  6
CONTINUOUS
 62
    7
 10
352.4436084686875
 20
278.34757070913668
 11
350.90290426853852
 21
278.34757070913668
  0
LINE
  8
_0-f_
  6
CONTINUOUS
 62
    7
 10
352.41986516428045
 20
278.25895950913662
 11
350.87916096439886
 21
278.25895950913662
  0
LINE
  8
_0-f_
  6
CONTINUOUS
 62
    7
 10
352.3961218598734
 20
278.17034830913667
 11
350.85541766025921
 21
278.17034830913667
  0
LINE
  8
_0-f_
  6
CONTINUOUS
 62
    7
 10
352.37237855546636
 20
278.08173710913667
 11
350.83167435611955
 21
278.08173710913667
  0
LINE
  8
_0-f_
  6
CONTINUOUS
 62
    7
 10
352.34863525105936
 20
277.99312590913667
 11
350.80793105197989
 21
277.99312590913667
  0
LINE
  8
_0-f_
  6
CONTINUOUS
 62
    7
 10
352.32489194665226
 20
277.90451470913672
 11
350.78418774784024
 21
277.90451470913672
  0
LINE
  8
_0-f_
  6
CONTINUOUS
 62
    7
 10
352.30114864224527
 20
277.81590350913666
 11
350.76044444370052
 21
277.81590350913666
  0
LINE
  8
_0-f_
  6
CONTINUOUS
 62
    7
 10
352.27740533783827
 20
277.72729230913666
 11
350.73670113956081
 21
277.72729230913666
  0
LINE
  8
_0-f_
  6
CONTINUOUS
 62
    7
 10
352.25366203343134
 20
277.63868110913666
 11
350.71295783542115
 21
277.63868110913666
  0
LINE
  8
_0-f_
  6
CONTINUOUS
 62
    7
 10
352.2299187290244
 20
277.55006990913671
 11
350.68921453128149
 21
277.55006990913671
  0
LINE
  8
_0-f_
  6
CONTINUOUS
 62
    7
 10
352.20617542461736
 20
277.46145870913665
 11
350.66547122714184
 21
277.46145870913665
  0
LINE
  8
_0-f_
  6
CONTINUOUS
 62
    7
 10
352.18243212021042
 20
277.37284750913665
 11
350.64172792300218
 21
277.3728475091367
  0
LINE
  8
_0-f_
  6
CONTINUOUS
 62
    7
 10
352.15868881580349
 20
277.2842363091367
 11
350.61798461886252
 21
277.2842363091367
  0
LINE
  8
_0-f_
  6
CONTINUOUS
 62
    7
 10
352.1349455113965
 20
277.1956251091367
 11
350.59424131472281
 21
277.1956251091367
  0
LINE
  8
_0-f_
  6
CONTINUOUS
 62
    7
 10
352.1112022069895
 20
277.10701390913664
 11
350.57049801058309
 21
277.10701390913664
  0
LINE
  8
_0-f_
  6
CONTINUOUS
 62
    7
 10
349.40557541281925
 20
279.0564603091367
 11
347.95657146568874
 21
279.0564603091367
  0
LINE
  8
_0-f_
  6
CONTINUOUS
 62
    7
 10
348.98713721104957
 20
278.96784910913664
 11
347.77946078939857
 21
278.96784910913664
  0
LINE
  8
_0-f_
  6
CONTINUOUS
 62
    7
 10
348.5686990092799
 20
278.87923790913669
 11
347.6023501131084
 21
278.87923790913663
  0
LINE
  8
_0-f_
  6
CONTINUOUS
 62
    7
 10
348.33966597297587
 20
278.79062670913675
 11
347.42523943681846
 21
278.79062670913675
  0
LINE
  8
_0-f_
  6
CONTINUOUS
 62
    7
 10
348.13999290185978
 20
278.70201550913669
 11
347.2731277473921
 21
278.70201550913669
  0
LINE
  8
_0-f_
  6
CONTINUOUS
 62
    7
 10
347.94031983074399
 20
278.61340430913674
 11
347.18182738702723
 21
278.61340430913674
  0
LINE
  8
_0-f_
  6
CONTINUOUS
 62
    7
 10
347.74064675962802
 20
278.52479310913668
 11
347.09437975774091
 21
278.52479310913668
  0
LINE
  8
_0-f_
  6
CONTINUOUS
 62
    7
 10
347.61351258944427
 20
278.43618190913668
 11
346.99922666629737
 21
278.43618190913668
  0
LINE
  8
_0-f_
  6
CONTINUOUS
 62
    7
 10
347.50112028246627
 20
278.34757070913668
 11
346.90792630593245
 21
278.34757070913668
  0
LINE
  8
_0-f_
  6
CONTINUOUS
 62
    7
 10
347.38872797548822
 20
278.25895950913662
 11
346.81662594556752
 21
278.25895950913662
  0
LINE
  8
_0-f_
  6
CONTINUOUS
 62
    7
 10
347.27633566851028
 20
278.17034830913667
 11
346.72532558520271
 21
278.17034830913667
  0
LINE
  8
_0-f_
  6
CONTINUOUS
 62
    7
 10
347.16394336153223
 20
278.08173710913667
 11
346.63402522483773
 21
278.08173710913667
  0
LINE
  8
_0-f_
  6
CONTINUOUS
 62
    7
 10
347.08412920023585
 20
277.99312590913667
 11
346.58409493268863
 21
277.99312590913667
  0
LINE
  8
_0-f_
  6
CONTINUOUS
 62
    7
 10
347.0267261652159
 20
277.90451470913672
 11
346.54829638853931
 21
277.90451470913672
  0
LINE
  8
_0-f_
  6
CONTINUOUS
 62
    7
 10
349.37690407427175
 20
276.30951310913662
 11
347.83620017168118
 21
276.30951310913662
  0
LINE
  8
_0-f_
  6
CONTINUOUS
 62
    7
 10
349.35316080285071
 20
276.22090190913661
 11
347.81245687277186
 21
276.22090190913661
  0
LINE
  8
_0-f_
  6
CONTINUOUS
 62
    7
 10
349.32941753142967
 20
276.13229070913667
 11
347.78871357386254
 21
276.13229070913667
  0
LINE
  8
_0-f_
  6
CONTINUOUS
 62
    7
 10
349.30567426000863
 20
276.04367950913661
 11
347.76497027495321
 21
276.04367950913661
  0
LINE
  8
_0-f_
  6
CONTINUOUS
 62
    7
 10
349.2819309885877
 20
275.95506830913666
 11
347.74122697604389
 21
275.95506830913666
  0
LINE
  8
_0-f_
  6
CONTINUOUS
 62
    7
 10
349.25818771716666
 20
275.86645710913666
 11
347.71748367713457
 21
275.86645710913666
  0
LINE
  8
_0-f_
  6
CONTINUOUS
 62
    7
 10
349.23444444574562
 20
275.77784590913666
 11
347.69374037822524
 21
275.77784590913666
  0
LINE
  8
_0-f_
  6
CONTINUOUS
 62
    7
 10
349.21070117432419
 20
275.6892347091366
 11
347.66999707931592
 21
275.6892347091366
  0
LINE
  8
_0-f_
  6
CONTINUOUS
 62
    7
 10
350.14058712782531
 20
277.46145870913665
 11
348.14486305750233
 21
277.46145870913665
  0
LINE
  8
_0-f_
  6
CONTINUOUS
 62
    7
 10
350.22945494381707
 20
277.3728475091367
 11
348.12111975859301
 21
277.3728475091367
  0
LINE
  8
_0-f_
  6
CONTINUOUS
 62
    7
 10
350.31832275980889
 20
277.2842363091367
 11
348.09737645968369
 21
277.2842363091367
  0
LINE
  8
_0-f_
  6
CONTINUOUS
 62
    7
 10
350.40719057580071
 20
277.1956251091367
 11
348.07363316077436
 21
277.1956251091367
  0
LINE
  8
_0-f_
  6
CONTINUOUS
 62
    7
 10
350.49605839179247
 20
277.10701390913664
 11
348.04988986186504
 21
277.10701390913664
  0
LINE
  8
_0-f_
  6
CONTINUOUS
 62
    7
 10
352.08745890258257
 20
277.01840270913664
 11
348.02614656295572
 21
277.01840270913664
  0
LINE
  8
_0-f_
  6
CONTINUOUS
 62
    7
 10
352.06371559817558
 20
276.92979150913663
 11
348.00240326404639
 21
276.92979150913663
  0
LINE
  8
_0-f_
  6
CONTINUOUS
 62
    7
 10
352.03997229376864
 20
276.84118030913669
 11
347.97865996513707
 21
276.84118030913669
  0
LINE
  8
_0-f_
  6
CONTINUOUS
 62
    7
 10
352.01622898936165
 20
276.75256910913663
 11
347.9549166662278
 21
276.75256910913663
  0
LINE
  8
_0-f_
  6
CONTINUOUS
 62
    7
 10
351.99248568495472
 20
276.66395790913674
 11
347.93117336731842
 21
276.66395790913657
  0
LINE
  8
_0-f_
  6
CONTINUOUS
 62
    7
 10
351.96874238054772
 20
276.57534670913668
 11
347.90743006840916
 21
276.57534670913668
  0
LINE
  8
_0-f_
  6
CONTINUOUS
 62
    7
 10
349.42439061711383
 20
276.48673550913668
 11
347.88368676949977
 21
276.48673550913668
  0
LINE
  8
_0-f_
  6
CONTINUOUS
 62
    7
 10
349.40064734569279
 20
276.39812430913662
 11
347.85994347059051
 21
276.39812430913662
  0
LINE
  8
_0-f_
  6
CONTINUOUS
 62
    7
 10
349.96285149584173
 20
277.63868110913666
 11
348.22678252681033
 21
277.63868110913671
  0
LINE
  8
_0-f_
  6
CONTINUOUS
 62
    7
 10
350.05171931183344
 20
277.55006990913671
 11
348.17802315420914
 21
277.55006990913671
  0
LINE
  8
_0-f_
  6
CONTINUOUS
 62
    7
 10
349.8670930064373
 20
277.72729230913666
 11
348.31282845163071
 21
277.72729230913666
  0
LINE
  8
_0-f_
  6
CONTINUOUS
 62
    7
 10
349.63545123026182
 20
277.81590350913666
 11
348.55946667157997
 21
277.81590350913666
  0
LINE
  8
_0-f_
  6
CONTINUOUS
 62
    7
 10
346.96932313019596
 20
277.81590350913666
 11
346.51249784439
 21
277.81590350913666
  0
LINE
  8
_0-f_
  6
CONTINUOUS
 62
    7
 10
346.91192009517607
 20
277.72729230913666
 11
346.47669930024068
 21
277.72729230913666
  0
LINE
  8
_0-f_
  6
CONTINUOUS
 62
    7
 10
346.85451706015618
 20
277.63868110913677
 11
346.44090075609137
 21
277.63868110913677
  0
LINE
  8
_0-f_
  6
CONTINUOUS
 62
    7
 10
346.79711402513624
 20
277.55006990913671
 11
346.40510221194205
 21
277.55006990913671
  0
LINE
  8
_0-f_
  6
CONTINUOUS
 62
    7
 10
346.76532649191762
 20
277.46145870913665
 11
346.36930366779274
 21
277.46145870913665
  0
LINE
  8
_0-f_
  6
CONTINUOUS
 62
    7
 10
346.75211177613784
 20
277.37284750913676
 11
346.33350512364342
 21
277.37284750913676
  0
LINE
  8
_0-f_
  6
CONTINUOUS
 62
    7
 10
346.73889706035794
 20
277.2842363091367
 11
346.2977065794941
 21
277.2842363091367
  0
LINE
  8
_0-f_
  6
CONTINUOUS
 62
    7
 10
346.72568234457816
 20
277.1956251091367
 11
346.30502430309491
 21
277.1956251091367
  0
LINE
  8
_0-f_
  6
CONTINUOUS
 62
    7
 10
346.71246762879832
 20
277.10701390913664
 11
346.31447193803461
 21
277.10701390913664
  0
LINE
  8
_0-f_
  6
CONTINUOUS
 62
    7
 10
346.69925291301848
 20
277.01840270913664
 11
346.32391957297426
 21
277.01840270913664
  0
LINE
  8
_0-f_
  6
CONTINUOUS
 62
    7
 10
346.68994961318128
 20
276.92979150913663
 11
346.33336720791397
 21
276.92979150913663
  0
LINE
  8
_0-f_
  6
CONTINUOUS
 62
    7
 10
346.71861692994844
 20
276.84118030913669
 11
346.34281484285367
 21
276.84118030913669
  0
LINE
  8
_0-f_
  6
CONTINUOUS
 62
    7
 10
346.74728424671559
 20
276.75256910913663
 11
346.35226247779332
 21
276.75256910913663
  0
LINE
  8
_0-f_
  6
CONTINUOUS
 62
    7
 10
346.77595156348281
 20
276.66395790913657
 11
346.36171011273302
 21
276.66395790913657
  0
LINE
  8
_0-f_
  6
CONTINUOUS
 62
    7
 10
346.8046188802499
 20
276.57534670913668
 11
346.37115774767267
 21
276.57534670913668
  0
LINE
  8
_0-f_
  6
CONTINUOUS
 62
    7
 10
346.83328619701706
 20
276.48673550913668
 11
346.38060538261237
 21
276.48673550913668
  0
LINE
  8
_0-f_
  6
CONTINUOUS
 62
    7
 10
346.86195351378421
 20
276.39812430913662
 11
346.42553755484965
 21
276.39812430913662
  0
LINE
  8
_0-f_
  6
CONTINUOUS
 62
    7
 10
346.92520260384873
 20
276.30951310913662
 11
346.4830702727952
 21
276.30951310913662
  0
LINE
  8
_0-f_
  6
CONTINUOUS
 62
    7
 10
347.00069752993858
 20
276.22090190913661
 11
346.54060299074069
 21
276.22090190913661
  0
LINE
  8
_0-f_
  6
CONTINUOUS
 62
    7
 10
347.07619245602837
 20
276.13229070913667
 11
346.59813570868619
 21
276.13229070913667
  0
LINE
  8
_0-f_
  6
CONTINUOUS
 62
    7
 10
347.15168738211821
 20
276.04367950913661
 11
346.65566842663173
 21
276.04367950913661
  0
LINE
  8
_0-f_
  6
CONTINUOUS
 62
    7
 10
347.227182308208
 20
275.95506830913666
 11
346.71320114457723
 21
275.95506830913666
  0
LINE
  8
_0-f_
  6
CONTINUOUS
 62
    7
 10
347.30267723429779
 20
275.86645710913666
 11
346.77073386252272
 21
275.86645710913666
  0
LINE
  8
_0-f_
  6
CONTINUOUS
 62
    7
 10
347.42297863326058
 20
275.77784590913666
 11
346.82826658046827
 21
275.77784590913666
  0
LINE
  8
_0-f_
  6
CONTINUOUS
 62
    7
 10
347.54429810966212
 20
275.6892347091366
 11
346.91245610295226
 21
275.6892347091366
  0
TEXT
  8
_0-f_
 62
    7
 10
337.87030519851288
 20
228.30440329710706
 40
3
 41
1
 50
0
  1
②扉　　ｽﾁｰﾙ　t2.0　ﾎﾟﾘｯｼｭﾎﾜｲﾄ　焼付塗装
  0
TEXT
  8
_0-f_
 62
    7
 10
383.87030519851288
 20
25.554403297107143
 40
2.5
 41
1
 50
0
  1
2020.02.15
  0
ENDSEC
  0
EOF
