  0
SECTION
  2
HEADER
  9
$ACADVER
  1
AC1009
  9
$INSBASE
 10
0
 20
0
 30
0
  9
$EXTMIN
 10
0
 20
0
  9
$EXTMAX
 10
420
 20
297
  9
$LIMMIN
 10
0
 20
0
  9
$LIMMAX
 10
420
 20
297
  9
$LTSCALE
 40
1
  0
ENDSEC
  0
SECTION
  2
TABLES
  0
TABLE
  2
LTYPE
 70
     9
  0
LTYPE
  2
CONTINUOUS
 70
    64
  3
実線
 72
    65
 73
     0
 40
0.0
  0
LTYPE
  2
DASHED1
 70
    64
  3
--  --  --  --  --  --  --  --  
 72
    65
 73
     2
 40
2.5
 49
1.25
 49
-1.25
  0
LTYPE
  2
DASHED2
 70
    64
  3
----    ----    ----    ----    
 72
    65
 73
     2
 40
5.0
 49
2.5
 49
-2.5
  0
LTYPE
  2
DASHED3
 70
    64
  3
------  ------  ------  ------  
 72
    65
 73
     2
 40
5.0
 49
3.75
 49
-1.25
  0
LTYPE
  2
CENTER1
 70
    64
  3
----- - ----- - ----- - ----- - 
 72
    65
 73
     4
 40
10.0
 49
6.25
 49
-1.25
 49
1.25
 49
-1.25
  0
LTYPE
  2
CENTER2
 70
    64
  3
----------  --  ----------  --  
 72
    65
 73
     4
 40
20.0
 49
12.5
 49
-2.5
 49
2.5
 49
-2.5
  0
LTYPE
  2
PHANTOM1
 70
    64
  3
--- - - --- - - --- - - --- - - 
 72
    65
 73
     6
 40
10.0
 49
3.25
 49
-1.25
 49
1.25
 49
-1.25
 49
1.25
 49
-1.25
  0
LTYPE
  2
PHANTOM2
 70
    64
  3
--------  -  -  --------  -  -  
 72
    65
 73
     6
 40
20.0
 49
10.0
 49
-2.5
 49
1.25
 49
-2.5
 49
1.25
 49
-2.5
  0
LTYPE
  2
DOT
 70
    64
  3
-   -   -   -   -   -   -   -   
 72
    65
 73
     2
 40
2.5
 49
0.625
 49
-1.875
  0
LTYPE
  2
DUMMY
 70
    64
  3
ダミー
 72
    65
 73
     0
 40
0.0
  0
LTYPE
  2
RAND1
 70
    64
  3
ランダム線1
 72
    65
 73
     4
 40
10.0
 49
1.0
 49
-2.0
 49
3.0
 49
-4.0
  0
LTYPE
  2
RAND2
 70
    64
  3
ランダム線2
 72
    65
 73
     4
 40
14.0
 49
2.0
 49
-3.0
 49
4.0
 49
-5.0
  0
LTYPE
  2
RAND3
 70
    64
  3
ランダム線3
 72
    65
 73
     4
 40
18.0
 49
3.0
 49
-4.0
 49
5.0
 49
-6.0
  0
LTYPE
  2
RAND4
 70
    64
  3
ランダム線4
 72
    65
 73
     4
 40
22.0
 49
4.0
 49
-5.0
 49
6.0
 49
-7.0
  0
LTYPE
  2
RAND5
 70
    64
  3
ランダム線5
 72
    65
 73
     4
 40
26.0
 49
5.0
 49
-6.0
 49
7.0
 49
-8.0
  0
LTYPE
  2
LONG1
 70
    64
  3
----------  --  ----------  --  
 72
    65
 73
     4
 40
40.0
 49
32.5
 49
-2.5
 49
2.5
 49
-2.5
  0
LTYPE
  2
LONG2
 70
    64
  3
--------  -  -  --------  -  -  
 72
    65
 73
     6
 40
40.0
 49
30.0
 49
-2.5
 49
1.25
 49
-2.5
 49
1.25
 49
-2.5
  0
LTYPE
  2
LONG3
 70
    64
  3
+++++++++++++++..+++++++++++++++
 72
    65
 73
     2
 40
40.0
 49
37.5
 49
-2.5
  0
LTYPE
  2
LONG4
 70
    64
  3
+++++++++++++++..+++++++++++++++
 72
    65
 73
     2
 40
80.0
 49
75.0
 49
-5.0
  0
LTYPE
  2
LONG5
 70
    64
  3
----------  --  ----------  --  
 72
    65
 73
     4
 40
60.0
 49
37.5
 49
-7.5
 49
7.5
 49
-7.5
  0
LTYPE
  2
dashed
 70
   64
  3
-------   -------------   ------
 72
   65
 73
    2
 40
7.5
 49
6
 49
-1.5
  0
LTYPE
  2
dashed_spaced
 70
   64
  3
----        --------        ----
 72
   65
 73
    2
 40
12
 49
6
 49
-6
  0
LTYPE
  2
long_dashed_dotted
 70
   64
  3
------------- --- --------------
 72
   65
 73
    4
 40
15.25
 49
12
 49
-1.5
 49
0.25
 49
-1.5
  0
LTYPE
  2
long_dashed_double-dotted
 70
   64
  3
----------- --- --- ------------
 72
   65
 73
    6
 40
17
 49
12
 49
-1.5
 49
0.25
 49
-1.5
 49
0.25
 49
-1.5
  0
LTYPE
  2
long_dashed_triplicate-dotted
 70
   64
  3
--------- --- --- --- ----------
 72
   65
 73
    8
 40
18.75
 49
12
 49
-1.5
 49
0.25
 49
-1.5
 49
0.25
 49
-1.5
 49
0.25
 49
-1.5
  0
LTYPE
  2
dotted
 70
   64
  3
   -       -       -       -    
 72
   65
 73
    2
 40
1.75
 49
0.25
 49
-1.5
  0
LTYPE
  2
chain
 70
   64
  3
-------------- -- --------------
 72
   65
 73
    4
 40
18.5
 49
12
 49
-1.5
 49
3.5
 49
-1.5
  0
LTYPE
  2
chain_double_dash
 70
   64
  3
------------ -- -- -------------
 72
   65
 73
    6
 40
23.5
 49
12
 49
-1.5
 49
3.5
 49
-1.5
 49
3.5
 49
-1.5
  0
LTYPE
  2
dashed_dotted
 70
   64
  3
-----------     -     ----------
 72
   65
 73
    4
 40
9.25
 49
6
 49
-1.5
 49
0.25
 49
-1.5
  0
LTYPE
  2
double-dashed_dotted
 70
   64
  3
------   -----------   -   -----
 72
   65
 73
    6
 40
16.75
 49
6
 49
-1.5
 49
6
 49
-1.5
 49
0.25
 49
-1.5
  0
LTYPE
  2
dashed_double-dotted
 70
   64
  3
---------    -    -    ---------
 72
   65
 73
    6
 40
11
 49
6
 49
-1.5
 49
0.25
 49
-1.5
 49
0.25
 49
-1.5
  0
LTYPE
  2
double-dashed_double-dotted
 70
   64
  3
-----   ---------   -   -   ----
 72
   65
 73
    8
 40
18.5
 49
6
 49
-1.5
 49
6
 49
-1.5
 49
0.25
 49
-1.5
 49
0.25
 49
-1.5
  0
LTYPE
  2
dashed_triplicate-dotted
 70
   64
  3
-------    -    -    -    ------
 72
   65
 73
    8
 40
12.75
 49
6
 49
-1.5
 49
0.25
 49
-1.5
 49
0.25
 49
-1.5
 49
0.25
 49
-1.5
  0
LTYPE
  2
double-dashed_triplicate-dotted
 70
   64
  3
-----  ---------  -  -  -  -----
 72
   65
 73
   10
 40
20.25
 49
6
 49
-1.5
 49
6
 49
-1.5
 49
0.25
 49
-1.5
 49
0.25
 49
-1.5
 49
0.25
 49
-1.5
  0
LTYPE
  2
undefined
 70
   64
  3
--------------------------------
 72
   65
 73
    0
 40
0
  0
LTYPE
  2
_
 70
   64
  3
                                
 72
   65
 73
    0
 40
0
  0
LTYPE
  2
__18
 70
   64
  3
                                
 72
   65
 73
    0
 40
0
  0
LTYPE
  2
__19
 70
   64
  3
                                
 72
   65
 73
    0
 40
0
  0
LTYPE
  2
__20
 70
   64
  3
                                
 72
   65
 73
    0
 40
0
  0
LTYPE
  2
__21
 70
   64
  3
                                
 72
   65
 73
    0
 40
0
  0
LTYPE
  2
__22
 70
   64
  3
                                
 72
   65
 73
    0
 40
0
  0
LTYPE
  2
__23
 70
   64
  3
                                
 72
   65
 73
    0
 40
0
  0
LTYPE
  2
__24
 70
   64
  3
                                
 72
   65
 73
    0
 40
0
  0
LTYPE
  2
__25
 70
   64
  3
                                
 72
   65
 73
    0
 40
0
  0
LTYPE
  2
__26
 70
   64
  3
                                
 72
   65
 73
    0
 40
0
  0
LTYPE
  2
__27
 70
   64
  3
                                
 72
   65
 73
    0
 40
0
  0
LTYPE
  2
__28
 70
   64
  3
                                
 72
   65
 73
    0
 40
0
  0
LTYPE
  2
__29
 70
   64
  3
                                
 72
   65
 73
    0
 40
0
  0
LTYPE
  2
__30
 70
   64
  3
                                
 72
   65
 73
    0
 40
0
  0
LTYPE
  2
__31
 70
   64
  3
                                
 72
   65
 73
    0
 40
0
  0
LTYPE
  2
__32
 70
   64
  3
                                
 72
   65
 73
    0
 40
0
  0
ENDTAB
  0
TABLE
  2
STYLE
  5
3
100
AcDbSymbolTable
 70
     1
  0
STYLE
  5
10
100
AcDbSymbolTableRecord
100
AcDbTextStyleTableRecord
  2
STANDARD
 70
     0
 40
0.0
 41
1.0
 50
0.0
 71
     0
 42
0.2
  3
txt
  4
bigfont.shx
  0
STYLE
  5
26
100
AcDbSymbolTableRecord
100
AcDbTextStyleTableRecord
  2
TATEGAKI
 70
    68
 40
0.0
 41
1.0
 50
0.0
 71
     0
 42
1.0
  3
txt
  4
bigfont.shx
  0
ENDTAB
  0
TABLE
  2
LAYER
 70
    5
  0
LAYER
  2
_0-0_
 70
   64
 62
    7
  6
CONTINUOUS
  0
LAYER
  2
_0-1_
 70
   64
 62
    7
  6
CONTINUOUS
  0
LAYER
  2
_0-2_
 70
   64
 62
    7
  6
CONTINUOUS
  0
LAYER
  2
_0-f_
 70
   64
 62
    7
  6
CONTINUOUS
  0
LAYER
  2
ADD_LINE
 70
   64
 62
    7
  6
CONTINUOUS
  0
ENDTAB
  0
ENDSEC
  0
SECTION
  2
BLOCKS
  0
ENDSEC
  0
SECTION
  2
ENTITIES
  0
LINE
  8
_0-f_
  6
CONTINUOUS
 62
    7
 10
364.18593500518534
 20
29.739424678131371
 11
364.18593500518534
 21
3.7394578081332668
  0
LINE
  8
_0-f_
  6
CONTINUOUS
 62
    7
 10
399.68593500518534
 20
3.7394246781313143
 11
399.68593500518534
 21
280.7394246781314
  0
LINE
  8
_0-f_
  6
CONTINUOUS
 62
    7
 10
328.68593500518534
 20
280.7394246781314
 11
328.68593500518534
 21
3.7394246781313143
  0
LINE
  8
_0-f_
  6
CONTINUOUS
 62
    7
 10
328.68593500518534
 20
265.73942467813123
 11
399.68593500518534
 21
265.73942467813123
  0
LINE
  8
_0-f_
  6
CONTINUOUS
 62
    7
 10
328.68593500518534
 20
250.73942467813123
 11
399.68593500518534
 21
250.73942467813123
  0
LINE
  8
_0-f_
  6
CONTINUOUS
 62
    7
 10
328.68593500518534
 20
235.73942467813129
 11
399.68593500518534
 21
235.73942467813129
  0
LINE
  8
_0-f_
  6
CONTINUOUS
 62
    7
 10
328.68593500518534
 20
16.739424678131371
 11
399.68593500518534
 21
16.739424678131371
  0
LINE
  8
_0-f_
  6
CONTINUOUS
 62
    7
 10
328.68593500518534
 20
29.739424678131371
 11
399.68593500518534
 21
29.739424678131371
  0
LINE
  8
_0-f_
  6
CONTINUOUS
 62
    7
 10
328.68593500518534
 20
49.739424678131371
 11
399.68593500518534
 21
49.739424678131371
  0
TEXT
  8
_0-f_
 62
    7
 10
329.68593500518534
 20
262.73942467813123
 40
2
 41
1
 50
0
  1
品　名　：
  0
TEXT
  8
_0-f_
 62
    7
 10
329.68593500518534
 20
247.73942467813123
 40
2
 41
1
 50
0
  1
形　式　：
  0
TEXT
  8
_0-f_
 62
    7
 10
329.68593500518534
 20
232.73942467813129
 40
2
 41
1
 50
0
  1
仕　様　：
  0
TEXT
  8
_0-f_
 62
    7
 10
329.68593500518534
 20
46.739424678131371
 40
2
 41
1
 50
0
  1
図面名称　：
  0
TEXT
  8
_0-f_
 62
    7
 10
329.68593500518534
 20
26.739424678131371
 40
2
 41
1
 50
0
  1
尺　度　：
  0
TEXT
  8
_0-f_
 62
    7
 10
329.68593500518534
 20
13.739424678131314
 40
2
 41
1
 50
0
  1
サイズ　：
  0
TEXT
  8
_0-f_
 62
    7
 10
365.18593500518534
 20
26.739424678131371
 40
2
 41
1
 50
0
  1
作成日
  0
TEXT
  8
_0-f_
 62
    7
 10
365.18593500518534
 20
13.739424678131314
 40
2
 41
1
 50
0
  1
File Name ：
  0
TEXT
  8
_0-f_
 62
    7
 10
345.18593500518534
 20
8.9894246781313143
 40
2.5
 41
1
 50
0
  1
A3
  0
TEXT
  8
_0-f_
 62
    7
 10
344.56093500518534
 20
21.989424678131371
 40
2.5
 41
1
 50
0
  1
1/5
  0
LINE
  8
_0-f_
  6
CONTINUOUS
 62
    7
 10
-0.3140649948146574
 20
3.7394246781313143
 11
399.68593500518534
 21
3.7394246781313143
  0
LINE
  8
_0-f_
  6
CONTINUOUS
 62
    7
 10
399.68593500518534
 20
280.7394246781314
 11
-0.3140649948146574
 21
280.7394246781314
  0
LINE
  8
_0-f_
  6
CONTINUOUS
 62
    7
 10
-0.3140649948146574
 20
280.7394246781314
 11
-0.3140649948146574
 21
3.7394246781313143
  0
TEXT
  8
_0-f_
 62
    7
 10
329.68593500518534
 20
228.73942467813129
 40
3
 41
1
 50
0
  1
①本体　ｽﾁｰﾙ　t1.2　ﾎﾟﾘｯｼｭﾎﾜｲﾄ　焼付塗装
  0
TEXT
  8
_0-f_
 62
    7
 10
341.30822205901143
 20
255.13212007133615
 40
5
 41
1
 50
0
  1
NDX-210　ﾍﾞﾙ付
  0
TEXT
  8
_0-f_
 62
    7
 10
329.64707343206192
 20
220.98389304792204
 40
3
 41
1
 50
0
  1
③新角ﾍﾞﾙ　ｾﾞﾝﾏｲ式
  0
LINE
  8
_0-0_
  6
DASHED1
 62
    7
 10
31.601527630823227
 20
144.75625162084785
 11
99.601455048475316
 21
144.75625162084785
  0
LINE
  8
_0-0_
  6
DASHED1
 62
    7
 10
99.601455048475316
 20
144.75625162084785
 11
99.601455048475316
 21
76.756249971249019
  0
LINE
  8
_0-0_
  6
DASHED1
 62
    7
 10
31.601527630823227
 20
144.75625162084785
 11
31.601527630823227
 21
76.756249971249019
  0
LINE
  8
_0-0_
  6
DASHED1
 62
    7
 10
31.601527630823227
 20
76.756249971249019
 11
99.601455048475316
 21
76.756249971249019
  0
LINE
  8
_0-0_
  6
CONTINUOUS
 62
    7
 10
29.596671211904493
 20
72.756261518440766
 11
101.60631146739428
 21
72.756261518440766
  0
LINE
  8
_0-0_
  6
CONTINUOUS
 62
    7
 10
103.60146824526595
 20
146.75625821924314
 11
103.60146824526595
 21
74.756255744844907
  0
LINE
  8
_0-0_
  6
CONTINUOUS
 62
    7
 10
27.601514434032822
 20
146.75625821924314
 11
27.601514434032822
 21
74.756255744844907
  0
ARC
  8
_0-0_
  6
CONTINUOUS
 62
    7
 10
29.601521032428025
 20
146.75625821924314
 40
2.0000000257749817
 50
90
 51
180
  0
ARC
  8
_0-0_
  6
CONTINUOUS
 62
    7
 10
29.601521032428025
 20
74.756255744844907
 40
2.0000000257749817
 50
180
 51
270
  0
ARC
  8
_0-0_
  6
CONTINUOUS
 62
    7
 10
101.60146164687052
 20
146.75625821924314
 40
2.0000000257749817
 50
0
 51
90
  0
ARC
  8
_0-0_
  6
CONTINUOUS
 62
    7
 10
101.60146164687052
 20
74.756255744844907
 40
2.0000000257749817
 50
270
 51
0
  0
LINE
  8
_0-0_
  6
CONTINUOUS
 62
    7
 10
31.361511002867303
 20
231.0742376327712
 11
99.841508792404909
 21
231.0742376327712
  0
LINE
  8
_0-0_
  6
CONTINUOUS
 62
    7
 10
31.361511002867303
 20
200.07428382153807
 11
31.361511002867303
 21
231.0742376327712
  0
LINE
  8
_0-0_
  6
CONTINUOUS
 62
    7
 10
99.841508792404909
 20
200.07428382153807
 11
99.841508792404909
 21
231.0742376327712
  0
LINE
  8
_0-0_
  6
CONTINUOUS
 62
    7
 10
27.601514434032822
 20
199.23427511165642
 11
27.601514434032822
 21
199.63433581689287
  0
LINE
  8
_0-0_
  6
CONTINUOUS
 62
    7
 10
27.601514434032822
 20
199.23427511165642
 11
103.60151773323042
 21
199.23427511165642
  0
LINE
  8
_0-0_
  6
CONTINUOUS
 62
    7
 10
27.601514434032822
 20
199.63433581689287
 11
103.60151773323042
 21
199.63433581689287
  0
LINE
  8
_0-0_
  6
CONTINUOUS
 62
    7
 10
103.60151773323042
 20
199.23427511165642
 11
103.60151773323042
 21
199.63433581689287
  0
LINE
  8
_0-1_
  6
CENTER1
 62
    7
 10
65.601422056499018
 20
230.44137834578612
 11
65.601422056499018
 21
231.90820140226788
  0
LINE
  8
_0-1_
  6
CONTINUOUS
 62
    7
 10
31.361511002867303
 20
240.8740423202712
 11
101.60149876284407
 21
240.8740423202712
  0
POINT
  8
_0-1_
 62
    7
 10
27.601514434032822
 20
240.8740423202712
  0
POINT
  8
_0-1_
 62
    7
 10
31.361511002867303
 20
240.8740423202712
  0
POINT
  8
_0-1_
 62
    7
 10
99.841496420413762
 20
240.8740423202712
  0
POINT
  8
_0-1_
 62
    7
 10
103.60149298924824
 20
240.8740423202712
  0
TEXT
  8
_0-1_
 62
    7
 10
59.35633349451598
 20
241.04914746590737
 40
5
 41
1
 50
0
  1
342.4
  0
LINE
  8
_0-1_
  6
CONTINUOUS
 62
    7
 10
31.361511002867303
 20
236.41763589981815
 11
31.361511002867303
 21
233.1370641460544
  0
LINE
  8
_0-1_
  6
CONTINUOUS
 62
    7
 10
65.601422056499018
 20
236.41763589981815
 11
65.601422056499018
 21
233.1370641460544
  0
LINE
  8
_0-1_
  6
CONTINUOUS
 62
    7
 10
99.841508792404909
 20
236.41763589981815
 11
99.841508792404909
 21
233.1370641460544
  0
TEXT
  8
_0-1_
 62
    7
 10
43.792830332620781
 20
236.17463058472458
 40
4
 41
1
 50
0
  1
171.2
  0
TEXT
  8
_0-1_
 62
    7
 10
77.570569130632578
 20
236.17463058472458
 40
4
 41
1
 50
0
  1
171.2
  0
LINE
  8
_0-1_
  6
CONTINUOUS
 62
    7
 10
9.2990835852153282
 20
148.7562648176384
 11
24.59264619078948
 21
148.7562648176384
  0
LINE
  8
_0-1_
  6
CONTINUOUS
 62
    7
 10
9.2990835852153282
 20
148.7562648176384
 11
9.2990835852153282
 21
72.756261518440766
  0
LINE
  8
_0-1_
  6
CONTINUOUS
 62
    7
 10
9.2990835852153282
 20
72.756261518440766
 11
24.59264619078948
 21
72.756261518440766
  0
TEXT
  8
_0-1_
 62
    7
 10
8.7287842820057335
 20
105.11592272383561
 40
5
 41
1
 50
90
  1
380
  0
POINT
  8
_0-1_
 62
    7
 10
9.2990835852153282
 20
148.7562648176384
  0
POINT
  8
_0-1_
 62
    7
 10
9.2990835852153282
 20
72.756261518440766
  0
LINE
  8
_0-1_
  6
CONTINUOUS
 62
    7
 10
16.869232774932414
 20
200.07428382153807
 11
16.869232774932414
 21
231.0742376327712
  0
LINE
  8
_0-1_
  6
CONTINUOUS
 62
    7
 10
9.2990835852153282
 20
199.43430546427453
 11
9.2990835852153282
 21
231.0742376327712
  0
LINE
  8
_0-1_
  6
CONTINUOUS
 62
    7
 10
9.2990835852153282
 20
199.23427511165642
 11
21.91601539739861
 21
199.23427511165642
  0
LINE
  8
_0-1_
  6
CONTINUOUS
 62
    7
 10
16.869232774932414
 20
199.23427511165642
 11
16.869232774932414
 21
199.63433581689287
  0
LINE
  8
_0-1_
  6
CONTINUOUS
 62
    7
 10
16.869232774932414
 20
199.63433581689287
 11
16.869232774932414
 21
200.07428382153807
  0
TEXT
  8
_0-1_
 62
    7
 10
15.86925421971705
 20
212.82432671110746
 40
5
 41
1
 50
90
  1
155
  0
TEXT
  8
_0-1_
 62
    7
 10
21.568387190578505
 20
196.34572860616663
 40
5
 41
1
 50
90
  1
2
  0
TEXT
  8
_0-1_
 62
    7
 10
22.034712280316683
 20
200.50251637538099
 40
5
 41
1
 50
90
  1
1.2
  0
TEXT
  8
_0-1_
 62
    7
 10
16.539321259412986
 20
199.46450961862411
 40
5
 41
1
 50
90
  1
1
  0
TEXT
  8
_0-1_
 62
    7
 10
8.2990802860177268
 20
208.00434413087078
 40
5
 41
1
 50
90
  1
159.2
  0
POINT
  8
_0-1_
 62
    7
 10
16.869232774932414
 20
200.07428382153807
  0
POINT
  8
_0-1_
 62
    7
 10
16.869232774932414
 20
199.23427511165642
  0
POINT
  8
_0-1_
 62
    7
 10
9.2990835852153282
 20
199.23427511165642
  0
POINT
  8
_0-1_
 62
    7
 10
16.869232774932414
 20
199.63433581689287
  0
POINT
  8
_0-1_
 62
    7
 10
16.869232774932414
 20
199.83426719358204
  0
LINE
  8
_0-1_
  6
CONTINUOUS
 62
    7
 10
16.869232774932414
 20
200.07428382153807
 11
24.59264619078948
 21
200.07428382153807
  0
LINE
  8
_0-1_
  6
CONTINUOUS
 62
    7
 10
16.869232774932414
 20
199.63433581689287
 11
24.59264619078948
 21
199.63433581689287
  0
LINE
  8
_0-1_
  6
CONTINUOUS
 62
    7
 10
16.869232774932414
 20
199.23427511165642
 11
24.59264619078948
 21
199.23427511165642
  0
LINE
  8
_0-1_
  6
CONTINUOUS
 62
    7
 10
9.2990835852153282
 20
231.0742376327712
 11
21.91601539739861
 21
231.0742376327712
  0
POINT
  8
_0-1_
 62
    7
 10
16.869232774932414
 20
231.0742376327712
  0
POINT
  8
_0-1_
 62
    7
 10
9.2990835852153282
 20
231.0742376327712
  0
LINE
  8
_0-1_
  6
CONTINUOUS
 62
    7
 10
16.869232774932414
 20
231.0742376327712
 11
24.59264619078948
 21
231.0742376327712
  0
LINE
  8
_0-1_
  6
CONTINUOUS
 62
    7
 10
27.601514434032822
 20
163.21654907650668
 11
27.601514434032822
 21
150.59961726432337
  0
LINE
  8
_0-1_
  6
CONTINUOUS
 62
    7
 10
27.601514434032822
 20
163.21654907650668
 11
103.60146824526595
 21
163.21654907650668
  0
LINE
  8
_0-1_
  6
CONTINUOUS
 62
    7
 10
103.60146824526595
 20
163.21654907650668
 11
103.60146824526595
 21
150.59961726432337
  0
TEXT
  8
_0-1_
 62
    7
 10
62.851507835637392
 20
164.21655237570428
 40
5
 41
1
 50
0
  1
380
  0
POINT
  8
_0-1_
 62
    7
 10
27.601514434032822
 20
163.21654907650668
  0
POINT
  8
_0-1_
 62
    7
 10
103.60146824526595
 20
163.21654907650668
  0
LINE
  8
_0-1_
  6
CONTINUOUS
 62
    7
 10
27.601514434032822
 20
184.69025721680825
 11
27.601514434032822
 21
195.38094424172391
  0
LINE
  8
_0-1_
  6
CONTINUOUS
 62
    7
 10
27.601514434032822
 20
184.69025721680825
 11
103.60151773323042
 21
184.69025721680825
  0
LINE
  8
_0-1_
  6
CONTINUOUS
 62
    7
 10
103.60151773323042
 20
184.69025721680825
 11
103.60151773323042
 21
195.38094424172391
  0
POINT
  8
_0-1_
 62
    7
 10
27.601514434032822
 20
184.69025721680825
  0
POINT
  8
_0-1_
 62
    7
 10
103.60151773323042
 20
184.69025721680825
  0
TEXT
  8
_0-1_
 62
    7
 10
59.900882050309008
 20
184.41609766343041
 40
5
 41
1
 50
0
  1
380
  0
LINE
  8
_0-2_
  6
CONTINUOUS
 62
    7
 10
34.201526311144335
 20
134.75626811683608
 11
45.001458017753293
 21
134.75626811683608
  0
LINE
  8
_0-2_
  6
CONTINUOUS
 62
    7
 10
34.201526311144335
 20
129.75630110881232
 11
45.001458017753293
 21
129.75630110881232
  0
LINE
  8
_0-2_
  6
CONTINUOUS
 62
    7
 10
45.601474843661208
 20
134.15632552287494
 11
45.601474843661208
 21
130.35629319073806
  0
LINE
  8
_0-2_
  6
CONTINUOUS
 62
    7
 10
33.601509485236363
 20
134.15632552287494
 11
33.601509485236363
 21
130.35629319073806
  0
ARC
  8
_0-2_
  6
CONTINUOUS
 62
    7
 10
34.201526311144335
 20
134.15632552287494
 40
0.6000000077324945
 50
90
 51
180
  0
ARC
  8
_0-2_
  6
CONTINUOUS
 62
    7
 10
34.201526311144335
 20
130.35629319073806
 40
0.6000000077324945
 50
180
 51
270
  0
ARC
  8
_0-2_
  6
CONTINUOUS
 62
    7
 10
45.001458017753293
 20
130.35629319073806
 40
0.6000000077324945
 50
270
 51
0
  0
ARC
  8
_0-2_
  6
CONTINUOUS
 62
    7
 10
45.001458017753293
 20
134.15632552287494
 40
0.6000000077324945
 50
0
 51
90
  0
TEXT
  8
_0-2_
 62
    7
 10
49.066190248989244
 20
136.054630758576
 40
10
 41
1
 50
0
  1
Ｅ
  0
TEXT
  8
_0-2_
 62
    7
 10
41.652507325720592
 20
136.00648996037296
 40
10
 41
1
 50
0
  1
Ａ
  0
LINE
  8
_0-2_
  6
CONTINUOUS
 62
    7
 10
36.561268504178543
 20
136.82907222561482
 11
32.483762801258308
 21
141.05145298564261
  0
LINE
  8
_0-2_
  6
CONTINUOUS
 62
    7
 10
36.658798539390943
 20
136.82907222561482
 11
40.736304242311178
 21
141.05145298564261
  0
ARC
  8
_0-2_
  6
CONTINUOUS
 62
    7
 10
36.610033521784715
 20
136.9163638043693
 40
0.0999892327382626
 50
240.81030254096703
 51
299.18969745903297
  0
ARC
  8
_0-2_
  6
CONTINUOUS
 62
    7
 10
34.54689816152154
 20
142.56001377863683
 40
2.5558331676632902
 50
36.174202920704083
 51
216.17420292070403
  0
LINE
  8
_0-2_
  6
CONTINUOUS
 62
    7
 10
36.612102312628792
 20
141.47713691648377
 11
36.612102312628792
 21
142.93513691648377
  0
LINE
  8
_0-2_
  6
CONTINUOUS
 62
    7
 10
36.612102312628792
 20
141.47713691648377
 11
37.982174153734661
 21
141.9758022854526
  0
LINE
  8
_0-2_
  6
CONTINUOUS
 62
    7
 10
37.317363816838736
 20
142.35963071241949
 11
38.433027550735801
 21
143.68922697541836
  0
LINE
  8
_0-2_
  6
CONTINUOUS
 62
    7
 10
37.982174153734661
 20
141.9758022854526
 11
37.317363816838736
 21
142.35963071241949
  0
LINE
  8
_0-2_
  6
CONTINUOUS
 62
    7
 10
38.433027550735801
 20
143.68922697541836
 11
39.100238432943456
 21
143.22995620706524
  0
LINE
  8
_0-2_
  6
CONTINUOUS
 62
    7
 10
39.100238432943456
 20
143.22995620706524
 11
41.291945242115901
 21
145.23428184493631
  0
LINE
  8
_0-2_
  6
CONTINUOUS
 62
    7
 10
37.171612517195911
 20
142.45731859688354
 11
38.587653834570801
 21
145.28940123163324
  0
LINE
  8
_0-2_
  6
CONTINUOUS
 62
    7
 10
38.587653834570801
 20
145.28940123163324
 11
39.566954147809668
 21
144.52558546669053
  0
LINE
  8
_0-2_
  6
CONTINUOUS
 62
    7
 10
39.566954147809668
 20
144.52558546669053
 11
40.163384593986564
 21
146.00704173622674
  0
LINE
  8
_0-2_
  6
CONTINUOUS
 62
    7
 10
40.163384593986564
 20
146.00704173622674
 11
41.291945242115901
 21
145.23428184493631
  0
LINE
  8
_0-2_
  6
CONTINUOUS
 62
    7
 10
37.171824982726093
 20
142.45774352794379
 11
36.612102312628792
 21
142.93513691648377
  0
ARC
  8
_0-2_
  6
CONTINUOUS
 62
    7
 10
38.673168882047946
 20
142.56001377863683
 40
2.5558331676632893
 50
93.932939704953412
 51
143.82579707929585
  0
ARC
  8
_0-2_
  6
CONTINUOUS
 62
    7
 10
38.673168882047946
 20
142.56001377863683
 40
2.5558331676632893
 50
323.82579707929591
 51
47.069975771820232
  0
ARC
  8
_0-2_
  6
CONTINUOUS
 62
    7
 10
38.673168882047946
 20
142.56001377863683
 40
2.5558331676632893
 50
65.93938761805704
 51
86.813527032339678
  0
TEXT
  8
_0-2_
 62
    7
 10
56.479873172257953
 20
135.9583491621699
 40
10
 41
1
 50
0
  1
Ｄ
  0
TEXT
  8
_0-2_
 62
    7
 10
107.81190756642303
 20
148.26853618324228
 40
3
 41
1
 50
0
  1
１０Ｒ－４
  0
LINE
  8
_0-2_
  6
CONTINUOUS
 62
    7
 10
103.33522299611053
 20
148.15073008368569
 11
108.63657170810365
 21
149.32879107925157
  0
POINT
  8
_0-1_
 62
    7
 10
103.20146167264551
 20
240.8740423202712
  0
LINE
  8
_0-1_
  6
CONTINUOUS
 62
    7
 10
103.20146167264551
 20
240.8740423202712
 11
103.60149298924824
 21
240.8740423202712
  0
LINE
  8
_0-1_
  6
CONTINUOUS
 62
    7
 10
99.841496420413762
 20
240.8740423202712
 11
103.20146167264551
 21
240.8740423202712
  0
LINE
  8
_0-0_
  6
CONTINUOUS
 62
    7
 10
103.20146167264551
 20
200.07428382153807
 11
103.20146167264551
 21
199.83426719358204
  0
LINE
  8
_0-0_
  6
DASHED1
 62
    7
 10
103.20146167264551
 20
147.75626151844077
 11
103.20146167264551
 21
73.756252445647249
  0
LINE
  8
_0-0_
  6
CONTINUOUS
 62
    7
 10
29.201514434032845
 20
200.07428382153807
 11
29.201514434032845
 21
199.83426719358204
  0
POINT
  8
_0-1_
 62
    7
 10
29.201514434032845
 20
240.8740423202712
  0
LINE
  8
_0-0_
  6
CONTINUOUS
 62
    7
 10
29.201514434032845
 20
148.7562648176384
 11
101.60146164687052
 21
148.7562648176384
  0
LINE
  8
_0-0_
  6
DASHED1
 62
    7
 10
29.201514434032845
 20
147.75626151844077
 11
103.20146167264551
 21
147.75626151844077
  0
LINE
  8
_0-0_
  6
DASHED1
 62
    7
 10
29.201514434032845
 20
147.75626151844077
 11
29.201514434032845
 21
73.756252445647249
  0
LINE
  8
_0-0_
  6
DASHED1
 62
    7
 10
29.201514434032845
 20
73.756252445647249
 11
103.20146167264551
 21
73.756252445647249
  0
LINE
  8
_0-1_
  6
CONTINUOUS
 62
    7
 10
29.201514434032845
 20
240.8740423202712
 11
31.361511002867303
 21
240.8740423202712
  0
LINE
  8
_0-1_
  6
CONTINUOUS
 62
    7
 10
27.601514434032822
 20
240.8740423202712
 11
29.201514434032845
 21
240.8740423202712
  0
LINE
  8
_0-0_
  6
CONTINUOUS
 62
    7
 10
29.201514434032845
 20
200.07428382153807
 11
103.20146167264551
 21
200.07428382153807
  0
LINE
  8
_0-0_
  6
CONTINUOUS
 62
    7
 10
103.20146167264551
 20
199.83426719358204
 11
29.201514434032845
 21
199.83426719358204
  0
LINE
  8
_0-0_
  6
CONTINUOUS
 62
    7
 10
65.101445150882455
 20
135.05626539499798
 11
65.101445150882455
 21
134.4562733130723
  0
LINE
  8
_0-0_
  6
CONTINUOUS
 62
    7
 10
66.101398962115582
 20
134.4562733130723
 11
66.101398962115582
 21
135.05626539499798
  0
LINE
  8
_0-0_
  6
CENTER2
 62
    7
 10
64.101392363720379
 20
134.75626935403514
 11
67.101451749277885
 21
134.75626935403514
  0
ARC
  8
_0-0_
  6
CONTINUOUS
 62
    7
 10
65.60147154446372
 20
135.05626539499798
 40
0.4999954152751612
 50
0.0013885498046875
 51
179.99855041503906
  0
ARC
  8
_0-0_
  6
CONTINUOUS
 62
    7
 10
65.60147154446372
 20
134.4562733130723
 40
0.4999890842953244
 50
179.99855041503909
 51
0.0013885498047443
  0
LINE
  8
_0-0_
  6
CONTINUOUS
 62
    7
 10
65.101445150882455
 20
87.056265394997979
 11
65.101445150882455
 21
86.456273313072302
  0
LINE
  8
_0-0_
  6
CONTINUOUS
 62
    7
 10
66.101398962115582
 20
86.456273313072302
 11
66.101398962115582
 21
87.056265394997979
  0
LINE
  8
_0-0_
  6
CENTER2
 62
    7
 10
64.101392363720379
 20
86.75626935403514
 11
67.101451749277885
 21
86.75626935403514
  0
ARC
  8
_0-0_
  6
CONTINUOUS
 62
    7
 10
65.60147154446372
 20
87.056265394997979
 40
0.4999954152751612
 50
0.0013885498046875
 51
179.99855041503906
  0
ARC
  8
_0-0_
  6
CONTINUOUS
 62
    7
 10
65.60147154446372
 20
86.456273313072302
 40
0.4999890842953244
 50
179.99855041503909
 51
0.0013885498047443
  0
LINE
  8
_0-0_
  6
CENTER2
 62
    7
 10
198.41856267068016
 20
157.69134155697537
 11
198.41856267068016
 21
64.762124192638396
  0
LINE
  8
_0-0_
  6
CONTINUOUS
 62
    7
 10
197.91853627709889
 20
136.05626745699649
 11
197.91853627709889
 21
135.45627537507082
  0
LINE
  8
_0-0_
  6
CONTINUOUS
 62
    7
 10
198.91849008833202
 20
135.45627537507082
 11
198.91849008833202
 21
136.05626745699649
  0
LINE
  8
_0-0_
  6
CENTER2
 62
    7
 10
196.91848348993682
 20
135.75627141603366
 11
199.91854287549432
 21
135.75627141603366
  0
LINE
  8
_0-0_
  6
CONTINUOUS
 62
    7
 10
197.91853627709889
 20
88.056269931394723
 11
197.91853627709889
 21
87.456277849469046
  0
LINE
  8
_0-0_
  6
CONTINUOUS
 62
    7
 10
198.91849008833202
 20
87.456277849469046
 11
198.91849008833202
 21
88.056269931394723
  0
LINE
  8
_0-0_
  6
CENTER2
 62
    7
 10
196.91848348993682
 20
87.756273890431885
 11
199.91854287549432
 21
87.756273890431885
  0
LINE
  8
_0-0_
  6
CONTINUOUS
 62
    7
 10
164.4186484498187
 20
145.75625492004548
 11
232.41857586747057
 21
145.75625492004548
  0
LINE
  8
_0-0_
  6
CONTINUOUS
 62
    7
 10
161.4185890642612
 20
148.7562648176384
 11
235.41853627709924
 21
148.7562648176384
  0
LINE
  8
_0-0_
  6
CONTINUOUS
 62
    7
 10
235.41853627709924
 20
148.7562648176384
 11
235.41853627709924
 21
74.756268116836026
  0
LINE
  8
_0-0_
  6
CONTINUOUS
 62
    7
 10
232.41857586747057
 20
145.75625492004548
 11
232.41857586747057
 21
77.756265642437796
  0
LINE
  8
_0-0_
  6
CONTINUOUS
 62
    7
 10
164.4186484498187
 20
145.75625492004548
 11
164.4186484498187
 21
77.756265642437796
  0
LINE
  8
_0-0_
  6
CONTINUOUS
 62
    7
 10
164.4186484498187
 20
77.756265642437796
 11
232.41857586747057
 21
77.756265642437796
  0
LINE
  8
_0-0_
  6
CONTINUOUS
 62
    7
 10
161.4185890642612
 20
148.7562648176384
 11
161.4185890642612
 21
74.756268116836026
  0
LINE
  8
_0-0_
  6
CONTINUOUS
 62
    7
 10
161.4185890642612
 20
74.756268116836026
 11
235.41853627709924
 21
74.756268116836026
  0
ARC
  8
_0-0_
  6
CONTINUOUS
 62
    7
 10
198.41856267068016
 20
136.05626745699649
 40
0.4999954152751612
 50
0.0013885498046875
 51
179.99855041503906
  0
ARC
  8
_0-0_
  6
CONTINUOUS
 62
    7
 10
198.41856267068016
 20
135.45627537507082
 40
0.4999890842953244
 50
179.99855041503909
 51
0.0013885498047443
  0
ARC
  8
_0-0_
  6
CONTINUOUS
 62
    7
 10
198.41856267068016
 20
88.056269931394723
 40
0.4999954152751612
 50
0.0013885498046875
 51
179.99855041503906
  0
ARC
  8
_0-0_
  6
CONTINUOUS
 62
    7
 10
198.41856267068016
 20
87.456277849469046
 40
0.4999890842953244
 50
179.99855041503909
 51
0.0013885498047443
  0
LINE
  8
_0-0_
  6
CONTINUOUS
 62
    7
 10
167.37512718674219
 20
142.35625854916287
 11
190.37512883634105
 21
142.35625854916287
  0
LINE
  8
_0-0_
  6
CONTINUOUS
 62
    7
 10
167.37512718674219
 20
145.75625492004548
 11
167.37512718674219
 21
142.35625854916287
  0
LINE
  8
_0-0_
  6
CONTINUOUS
 62
    7
 10
171.57512743418204
 20
136.75624997124902
 11
181.17512446490417
 21
136.75624997124902
  0
LINE
  8
_0-0_
  6
CONTINUOUS
 62
    7
 10
184.37512759914193
 20
141.35625524996524
 11
184.37512759914193
 21
139.95625310548678
  0
LINE
  8
_0-0_
  6
CONTINUOUS
 62
    7
 10
168.37512429994428
 20
141.35625524996524
 11
184.37512759914193
 21
141.35625524996524
  0
LINE
  8
_0-0_
  6
CONTINUOUS
 62
    7
 10
168.37512429994428
 20
141.35625524996524
 11
168.37512429994428
 21
139.95625310548678
  0
LINE
  8
_0-0_
  6
CONTINUOUS
 62
    7
 10
171.57512743418204
 20
142.35625854916287
 11
171.57512743418204
 21
141.35625524996524
  0
LINE
  8
_0-0_
  6
CONTINUOUS
 62
    7
 10
175.57512825898147
 20
142.35625854916287
 11
175.57512825898147
 21
141.35625524996524
  0
LINE
  8
_0-0_
  6
CONTINUOUS
 62
    7
 10
177.17512364010474
 20
142.35625854916287
 11
177.17512364010474
 21
141.35625524996524
  0
LINE
  8
_0-0_
  6
CONTINUOUS
 62
    7
 10
180.77512561962334
 20
142.35625854916287
 11
180.77512561962334
 21
141.35625524996524
  0
LINE
  8
_0-0_
  6
CONTINUOUS
 62
    7
 10
181.57512949618052
 20
142.35625854916287
 11
181.57512949618052
 21
141.35625524996524
  0
LINE
  8
_0-0_
  6
CONTINUOUS
 62
    7
 10
170.57512413498438
 20
142.35625854916287
 11
170.57512413498438
 21
141.35625524996524
  0
ARC
  8
_0-0_
  6
CONTINUOUS
 62
    7
 10
171.57512743418204
 20
139.95625310548678
 40
3.2000000412399707
 50
180
 51
270
  0
ARC
  8
_0-0_
  6
CONTINUOUS
 62
    7
 10
181.17512446490417
 20
139.95625310548678
 40
3.2000000412399707
 50
270
 51
0
  0
LINE
  8
_0-0_
  6
CONTINUOUS
 62
    7
 10
190.37512883634105
 20
142.35625854916287
 11
190.37512883634105
 21
145.53732890035786
  0
LINE
  8
_0-1_
  6
CONTINUOUS
 62
    7
 10
161.4185890642612
 20
156.6464031859872
 11
164.4186484498187
 21
156.6464031859872
  0
LINE
  8
_0-1_
  6
CONTINUOUS
 62
    7
 10
161.4185890642612
 20
156.6464031859872
 11
161.4185890642612
 21
151.599620563521
  0
LINE
  8
_0-1_
  6
CONTINUOUS
 62
    7
 10
164.4186484498187
 20
156.6464031859872
 11
164.4186484498187
 21
151.599620563521
  0
LINE
  8
_0-1_
  6
CONTINUOUS
 62
    7
 10
161.4185890642612
 20
164.21655237570431
 11
161.4185890642612
 21
151.599620563521
  0
LINE
  8
_0-1_
  6
CONTINUOUS
 62
    7
 10
232.41857586747057
 20
156.6464031859872
 11
232.41857586747057
 21
151.599620563521
  0
LINE
  8
_0-1_
  6
CONTINUOUS
 62
    7
 10
232.41857586747057
 20
156.6464031859872
 11
235.41853627709924
 21
156.6464031859872
  0
LINE
  8
_0-1_
  6
CONTINUOUS
 62
    7
 10
235.41853627709924
 20
156.6464031859872
 11
235.41853627709924
 21
151.599620563521
  0
LINE
  8
_0-1_
  6
CONTINUOUS
 62
    7
 10
235.41853627709924
 20
164.21655237570431
 11
235.41853627709924
 21
151.599620563521
  0
LINE
  8
_0-1_
  6
CONTINUOUS
 62
    7
 10
164.4186484498187
 20
156.6464031859872
 11
232.41857586747057
 21
156.6464031859872
  0
LINE
  8
_0-1_
  6
CONTINUOUS
 62
    7
 10
161.4185890642612
 20
164.21655237570431
 11
235.41853627709924
 21
164.21655237570431
  0
POINT
  8
_0-1_
 62
    7
 10
161.4185890642612
 20
156.6464031859872
  0
POINT
  8
_0-1_
 62
    7
 10
164.4186484498187
 20
156.6464031859872
  0
POINT
  8
_0-1_
 62
    7
 10
161.4185890642612
 20
164.21655237570431
  0
POINT
  8
_0-1_
 62
    7
 10
232.41857586747057
 20
156.6464031859872
  0
POINT
  8
_0-1_
 62
    7
 10
235.41853627709924
 20
156.6464031859872
  0
POINT
  8
_0-1_
 62
    7
 10
235.41853627709924
 20
164.21655237570431
  0
LINE
  8
_0-1_
  6
CONTINUOUS
 62
    7
 10
148.53617906637265
 20
145.75625492004548
 11
148.53617906637265
 21
148.7562648176384
  0
LINE
  8
_0-1_
  6
CONTINUOUS
 62
    4
 10
148.53617906637265
 20
148.7562648176384
 11
156.96585996797745
 21
148.7562648176384
  0
LINE
  8
_0-1_
  6
CONTINUOUS
 62
    7
 10
148.53617906637265
 20
74.756268116836026
 11
148.53617906637265
 21
77.756265642437796
  0
LINE
  8
_0-1_
  6
CONTINUOUS
 62
    4
 10
148.53617906637265
 20
74.756268116836026
 11
156.96585996797745
 21
74.756268116836026
  0
LINE
  8
_0-1_
  6
CONTINUOUS
 62
    7
 10
148.53617906637265
 20
74.756268116836026
 11
148.53617906637265
 21
77.756265642437796
  0
LINE
  8
_0-1_
  6
CONTINUOUS
 62
    7
 10
148.53617906637265
 20
77.756265642437796
 11
148.53617906637265
 21
145.75625492004548
  0
LINE
  8
_0-1_
  6
CONTINUOUS
 62
    7
 10
139.69733167405849
 20
148.7562648176384
 11
139.69733167405849
 21
74.756268116836026
  0
TEXT
  8
_0-1_
 62
    7
 10
137.16433969770702
 20
106.01351686644014
 40
5
 41
1
 50
90
  1
370
  0
TEXT
  8
_0-1_
 62
    7
 10
147.53612627921058
 20
109.00624584725202
 40
5
 41
1
 50
90
  1
340
  0
POINT
  8
_0-1_
 62
    7
 10
139.69733167405849
 20
148.7562648176384
  0
POINT
  8
_0-1_
 62
    7
 10
148.53617906637265
 20
145.75625492004548
  0
POINT
  8
_0-1_
 62
    7
 10
148.53617906637265
 20
148.7562648176384
  0
POINT
  8
_0-1_
 62
    7
 10
139.69733167405849
 20
74.756268116836026
  0
POINT
  8
_0-1_
 62
    7
 10
148.53617906637265
 20
74.756268116836026
  0
POINT
  8
_0-1_
 62
    7
 10
148.53617906637265
 20
77.756265642437796
  0
LINE
  8
_0-1_
  6
CONTINUOUS
 62
    7
 10
65.601422056499018
 20
236.41763589981815
 11
99.841508792404909
 21
236.41763589981815
  0
POINT
  8
_0-1_
 62
    7
 10
65.601422056499018
 20
236.41763589981815
  0
LINE
  8
_0-1_
  6
CONTINUOUS
 62
    7
 10
31.361511002867303
 20
236.41763589981815
 11
65.601422056499018
 21
236.41763589981815
  0
POINT
  8
_0-1_
 62
    7
 10
31.361511002867303
 20
236.41763589981815
  0
LINE
  8
_0-1_
  6
CONTINUOUS
 62
    7
 10
31.361511002867303
 20
240.8740423202712
 11
31.361511002867303
 21
235.08117914459558
  0
LINE
  8
_0-1_
  6
CONTINUOUS
 62
    7
 10
29.201514434032845
 20
240.8740423202712
 11
29.201514434032845
 21
233.1370641460544
  0
LINE
  8
_0-1_
  6
CONTINUOUS
 62
    7
 10
27.601514434032822
 20
240.8740423202712
 11
27.601514434032822
 21
233.1370641460544
  0
LINE
  8
_0-1_
  6
CONTINUOUS
 62
    7
 10
99.841496420413762
 20
240.8740423202712
 11
99.841496420413762
 21
235.08117914459558
  0
LINE
  8
_0-1_
  6
CONTINUOUS
 62
    7
 10
103.20146167264551
 20
240.8740423202712
 11
103.20146167264551
 21
233.1370641460544
  0
LINE
  8
_0-1_
  6
CONTINUOUS
 62
    7
 10
103.60149298924824
 20
240.8740423202712
 11
103.60149298924824
 21
233.1370641460544
  0
POINT
  8
_0-1_
 62
    7
 10
99.841508792404909
 20
236.41763589981815
  0
LINE
  8
_0-1_
  6
CONTINUOUS
 62
    7
 10
139.69733167405849
 20
148.7562648176384
 11
156.96585996797745
 21
148.7562648176384
  0
LINE
  8
_0-1_
  6
CONTINUOUS
 62
    7
 10
148.53617906637265
 20
145.75625492004548
 11
156.96585996797745
 21
145.75625492004548
  0
LINE
  8
_0-1_
  6
CONTINUOUS
 62
    7
 10
148.53617906637265
 20
77.756265642437796
 11
156.96585996797745
 21
77.756265642437796
  0
LINE
  8
_0-1_
  6
CONTINUOUS
 62
    7
 10
139.69733167405849
 20
74.756268116836026
 11
156.96585996797745
 21
74.756268116836026
  0
LINE
  8
_0-1_
  6
CONTINUOUS
 62
    7
 10
27.601514434032822
 20
240.8740423202712
 11
22.143504154822892
 21
240.8740423202712
  0
TEXT
  8
_0-1_
 62
    7
 10
22.143504154822892
 20
240.8740423202712
 40
5
 41
1
 50
0
  1
8
  0
LINE
  8
_0-1_
  6
CONTINUOUS
 62
    7
 10
109.05950326845817
 20
240.8740423202712
 11
103.60149298924824
 21
240.8740423202712
  0
TEXT
  8
_0-1_
 62
    7
 10
106.61798422039232
 20
240.71840414500201
 40
5
 41
1
 50
0
  1
2
  0
TEXT
  8
_0-1_
 62
    7
 10
93.755518027380049
 20
240.49230610645293
 40
5
 41
1
 50
0
  1
13.8
  0
TEXT
  8
_0-1_
 62
    7
 10
29.041234993786873
 20
241.22084423066656
 40
5
 41
1
 50
0
  1
13.8
  0
TEXT
  8
_0-1_
 62
    7
 10
148.06317979905407
 20
143.31576935945517
 40
5
 41
1
 50
90
  1
15
  0
TEXT
  8
_0-1_
 62
    7
 10
148.07254115799003
 20
74.762288234876365
 40
5
 41
1
 50
90
  1
15
  0
TEXT
  8
_0-1_
 62
    7
 10
162.1003172721438
 20
157.05087014553578
 40
5
 41
1
 50
0
  1
15
  0
TEXT
  8
_0-1_
 62
    7
 10
229.63691259506533
 20
156.92649335856908
 40
5
 41
1
 50
0
  1
15
  0
TEXT
  8
_0-1_
 62
    7
 10
194.18952830955402
 20
164.63785415050486
 40
5
 41
1
 50
0
  1
370
  0
TEXT
  8
_0-1_
 62
    7
 10
194.81141224438755
 20
157.54837729340261
 40
5
 41
1
 50
0
  1
340
  0
CIRCLE
  8
_0-2_
  6
CONTINUOUS
 62
    7
 10
143.12410777793008
 20
157.34059553575364
 40
3.4095973463431131
  0
LINE
  8
_0-2_
  6
CONTINUOUS
 62
    7
 10
146.25747667898719
 20
155.99621709421362
 11
170.69904833059871
 21
144.54563389135302
  0
TEXT
  8
_0-2_
 62
    7
 10
141.14453090744695
 20
155.58270480477782
 40
4
 41
1
 50
0
  1
３
  0
CIRCLE
  8
_0-2_
  6
CONTINUOUS
 62
    7
 10
117.67978041741651
 20
226.38024880208849
 40
3.4095973463431131
  0
LINE
  8
_0-2_
  6
CONTINUOUS
 62
    7
 10
114.73575946159826
 20
224.6603375613866
 11
98.552403401038816
 21
208.47698150082721
  0
TEXT
  8
_0-2_
 62
    7
 10
115.70020354693338
 20
224.62235807111267
 40
4
 41
1
 50
0
  1
１
  0
CIRCLE
  8
_0-2_
  6
CONTINUOUS
 62
    7
 10
115.50228074331937
 20
117.91892580227901
 40
3.4095973463431131
  0
LINE
  8
_0-2_
  6
CONTINUOUS
 62
    7
 10
112.55825978750107
 20
116.19901456157712
 11
96.374903726941625
 21
100.01565850101773
  0
TEXT
  8
_0-2_
 62
    7
 10
113.52270387283625
 20
116.16103507130319
 40
4
 41
1
 50
0
  1
２
  0
LINE
  8
_0-0_
  6
CONTINUOUS
 62
    7
 10
270.84882257481718
 20
147.75626151844077
 11
270.84882257481718
 21
73.756252445647249
  0
LINE
  8
_0-0_
  6
CONTINUOUS
 62
    7
 10
301.8487763860503
 20
144.99626824880394
 11
301.8487763860503
 21
76.516270459266337
  0
LINE
  8
_0-0_
  6
CONTINUOUS
 62
    7
 10
270.84882257481718
 20
144.99626824880394
 11
301.8487763860503
 21
144.99626824880394
  0
LINE
  8
_0-0_
  6
CONTINUOUS
 62
    7
 10
270.84882257481718
 20
76.516270459266337
 11
301.8487763860503
 21
76.516270459266337
  0
LINE
  8
_0-0_
  6
CONTINUOUS
 62
    7
 10
270.00881386493552
 20
148.7562648176384
 11
270.40887457017197
 21
148.7562648176384
  0
LINE
  8
_0-0_
  6
CONTINUOUS
 62
    7
 10
270.00881386493552
 20
148.7562648176384
 11
270.00881386493552
 21
72.756261518440766
  0
LINE
  8
_0-0_
  6
CONTINUOUS
 62
    7
 10
270.40887457017197
 20
148.7562648176384
 11
270.40887457017197
 21
72.756261518440766
  0
LINE
  8
_0-0_
  6
CONTINUOUS
 62
    7
 10
270.00881386493552
 20
72.756261518440766
 11
270.40887457017197
 21
72.756261518440766
  0
LINE
  8
_0-0_
  6
CONTINUOUS
 62
    7
 10
270.60880594686114
 20
73.756252445647249
 11
270.84882257481718
 21
73.756252445647249
  0
LINE
  8
_0-0_
  6
CONTINUOUS
 62
    7
 10
270.60880594686114
 20
73.756252445647249
 11
270.60880594686114
 21
147.75626151844077
  0
LINE
  8
_0-0_
  6
CONTINUOUS
 62
    7
 10
270.84882257481718
 20
147.75626151844077
 11
270.60880594686114
 21
147.75626151844077
  0
LINE
  8
_0-1_
  6
CONTINUOUS
 62
    7
 10
270.84882257481718
 20
155.64639988678957
 11
270.84882257481718
 21
150.59961726432337
  0
LINE
  8
_0-1_
  6
CONTINUOUS
 62
    7
 10
270.84882257481718
 20
155.64639988678957
 11
301.8487763860503
 21
155.64639988678957
  0
LINE
  8
_0-1_
  6
CONTINUOUS
 62
    7
 10
301.8487763860503
 20
155.64639988678957
 11
301.8487763860503
 21
150.59961726432337
  0
LINE
  8
_0-1_
  6
CONTINUOUS
 62
    7
 10
270.20884421755363
 20
163.21654907650668
 11
301.8487763860503
 21
163.21654907650668
  0
LINE
  8
_0-1_
  6
CONTINUOUS
 62
    7
 10
301.8487763860503
 20
163.21654907650668
 11
301.8487763860503
 21
150.59961726432337
  0
LINE
  8
_0-1_
  6
CONTINUOUS
 62
    7
 10
270.00881386493552
 20
155.64639988678957
 11
270.00881386493552
 21
150.59961726432337
  0
LINE
  8
_0-1_
  6
CONTINUOUS
 62
    7
 10
270.00881386493552
 20
163.21654907650668
 11
270.00881386493552
 21
150.59961726432337
  0
LINE
  8
_0-1_
  6
CONTINUOUS
 62
    7
 10
270.40887457017197
 20
155.64639988678957
 11
270.40887457017197
 21
150.59961726432337
  0
LINE
  8
_0-1_
  6
CONTINUOUS
 62
    7
 10
270.00881386493552
 20
155.64639988678957
 11
270.40887457017197
 21
155.64639988678957
  0
LINE
  8
_0-1_
  6
CONTINUOUS
 62
    7
 10
270.40887457017197
 20
155.64639988678957
 11
270.84882257481718
 21
155.64639988678957
  0
TEXT
  8
_0-1_
 62
    7
 10
283.59886546438656
 20
156.64637844200493
 40
5
 41
1
 50
0
  1
155
  0
TEXT
  8
_0-1_
 62
    7
 10
271.27705512866009
 20
150.4809203814053
 40
5
 41
1
 50
0
  1
1.2
  0
TEXT
  8
_0-1_
 62
    7
 10
270.23904837190321
 20
155.97631140230899
 40
5
 41
1
 50
0
  1
1
  0
TEXT
  8
_0-1_
 62
    7
 10
278.77888288414988
 20
164.21655237570428
 40
5
 41
1
 50
0
  1
159.2
  0
POINT
  8
_0-1_
 62
    7
 10
270.84882257481718
 20
155.64639988678957
  0
POINT
  8
_0-1_
 62
    7
 10
301.8487763860503
 20
155.64639988678957
  0
POINT
  8
_0-1_
 62
    7
 10
301.8487763860503
 20
163.21654907650668
  0
POINT
  8
_0-1_
 62
    7
 10
270.00881386493552
 20
155.64639988678957
  0
POINT
  8
_0-1_
 62
    7
 10
270.00881386493552
 20
163.21654907650668
  0
POINT
  8
_0-1_
 62
    7
 10
270.40887457017197
 20
155.64639988678957
  0
POINT
  8
_0-1_
 62
    7
 10
270.60880594686114
 20
155.64639988678957
  0
LINE
  8
_0-1_
  6
CONTINUOUS
 62
    7
 10
255.46479597008738
 20
148.7562648176384
 11
266.15548299500301
 21
148.7562648176384
  0
LINE
  8
_0-1_
  6
CONTINUOUS
 62
    7
 10
255.46479597008738
 20
148.7562648176384
 11
255.46479597008738
 21
72.756261518440766
  0
LINE
  8
_0-1_
  6
CONTINUOUS
 62
    7
 10
255.46479597008738
 20
72.756261518440766
 11
266.15548299500301
 21
72.756261518440766
  0
TEXT
  8
_0-1_
 62
    7
 10
254.50205710817863
 20
104.40481160356003
 40
5
 41
1
 50
90
  1
380
  0
POINT
  8
_0-1_
 62
    7
 10
255.46479597008738
 20
148.7562648176384
  0
POINT
  8
_0-1_
 62
    7
 10
255.46479597008738
 20
72.756261518440766
  0
LINE
  8
_0-1_
  6
CONTINUOUS
 62
    7
 10
322.1746145369641
 20
147.75636956716332
 11
322.1746145369641
 21
144.99629876638207
  0
LINE
  8
_0-1_
  6
CONTINUOUS
 62
    7
 10
315.17464505454222
 20
144.99626824880394
 11
322.1746145369641
 21
144.99626824880394
  0
LINE
  8
_0-1_
  6
CONTINUOUS
 62
    7
 10
315.17464505454222
 20
76.516379332788318
 11
322.1746145369641
 21
76.516379332788318
  0
LINE
  8
_0-1_
  6
CONTINUOUS
 62
    7
 10
322.1746145369641
 20
76.516379332788318
 11
322.1746145369641
 21
73.756392455346912
  0
POINT
  8
_0-1_
 62
    7
 10
322.1746145369641
 20
144.99629876638207
  0
POINT
  8
_0-1_
 62
    7
 10
322.1746145369641
 20
76.516379332788318
  0
POINT
  8
_0-1_
 62
    7
 10
322.1746145369641
 20
76.516379332788318
  0
TEXT
  8
_0-1_
 62
    7
 10
322.1016677323596
 20
102.91081945909002
 40
5
 41
1
 50
90
  1
342.4
  0
POINT
  8
_0-1_
 62
    7
 10
315.17464505454222
 20
76.516379332788318
  0
LINE
  8
_0-1_
  6
CONTINUOUS
 62
    7
 10
315.17464505454222
 20
76.516379332788318
 11
308.70803550911228
 21
76.516379332788318
  0
POINT
  8
_0-1_
 62
    7
 10
315.17464505454222
 20
144.99626824880394
  0
LINE
  8
_0-1_
  6
CONTINUOUS
 62
    7
 10
315.17464505454222
 20
144.99626824880394
 11
308.70803550911228
 21
144.99626824880394
  0
LINE
  8
_0-1_
  6
CONTINUOUS
 62
    7
 10
308.70803550911228
 20
147.75636956716332
 11
322.1746145369641
 21
147.75636956716332
  0
POINT
  8
_0-1_
 62
    4
 10
322.1746145369641
 20
73.756252445647249
  0
LINE
  8
_0-1_
  6
CONTINUOUS
 62
    7
 10
322.1746145369641
 20
73.756252445647249
 11
308.70803550911228
 21
73.756252445647249
  0
LINE
  8
_0-1_
  6
CONTINUOUS
 62
    7
 10
322.1746145369641
 20
72.756261518440766
 11
308.70803550911228
 21
72.756261518440766
  0
POINT
  8
_0-1_
 62
    4
 10
322.1746145369641
 20
147.75626151844077
  0
LINE
  8
_0-1_
  6
CONTINUOUS
 62
    7
 10
322.1746145369641
 20
147.75626151844077
 11
315.17464505454222
 21
147.75626151844077
  0
TEXT
  8
_0-1_
 62
    7
 10
327.77680297811366
 20
138.13018189768999
 40
5
 41
1
 50
90
  1
13.8
  0
TEXT
  8
_0-1_
 62
    7
 10
327.39850605070365
 20
73.68620161799933
 40
5
 41
1
 50
90
  1
13.8
  0
LINE
  8
_0-1_
  6
CONTINUOUS
 62
    7
 10
322.1746145369641
 20
148.7562648176384
 11
308.70803550911228
 21
148.7562648176384
  0
LINE
  8
_0-0_
  6
CENTER1
 62
    7
 10
300.91541388605037
 20
134.75626935403514
 11
302.78213888605046
 21
134.75626935403514
  0
POINT
  8
_0-1_
 62
    7
 10
315.17464505454222
 20
134.75626935403514
  0
LINE
  8
_0-1_
  6
CONTINUOUS
 62
    7
 10
315.17464505454222
 20
134.75626935403514
 11
308.70803550911228
 21
134.75626935403514
  0
LINE
  8
_0-2_
  6
CONTINUOUS
 62
    7
 10
296.38218608239185
 20
137.24202981989927
 11
276.19232537958123
 21
137.24202981989927
  0
TEXT
  8
_0-2_
 62
    7
 10
275.59494992320424
 20
137.46394765332968
 40
3
 41
1
 50
0
  1
５ｘ８取付穴
  0
LINE
  8
_0-2_
  6
CONTINUOUS
 62
    7
 10
301.8487763860503
 20
134.60550481600094
 11
296.38218608239185
 21
137.24202981989927
  0
LINE
  8
_0-0_
  6
CENTER1
 62
    7
 10
300.91541388605037
 20
86.75626935403514
 11
302.78213888605046
 21
86.75626935403514
  0
POINT
  8
_0-1_
 62
    7
 10
315.17464505454222
 20
86.75626935403514
  0
LINE
  8
_0-1_
  6
CONTINUOUS
 62
    7
 10
315.17464505454222
 20
86.75626935403514
 11
308.70803550911228
 21
86.75626935403514
  0
TEXT
  8
_0-2_
 62
    7
 10
275.59494992320424
 20
89.614712191363878
 40
3
 41
1
 50
0
  1
５ｘ８取付穴
  0
LINE
  8
_0-2_
  6
CONTINUOUS
 62
    7
 10
296.38218608239185
 20
89.392794357933468
 11
276.19232537958123
 21
89.392794357933468
  0
LINE
  8
_0-2_
  6
CONTINUOUS
 62
    7
 10
301.8487763860503
 20
86.75626935403514
 11
296.38218608239185
 21
89.392794357933468
  0
LINE
  8
_0-1_
  6
CONTINUOUS
 62
    7
 10
315.17464505454222
 20
134.75626935403514
 11
315.17464505454222
 21
144.99626824880394
  0
LINE
  8
_0-1_
  6
CONTINUOUS
 62
    7
 10
315.17464505454222
 20
86.75626935403514
 11
315.17464505454222
 21
134.75626935403514
  0
LINE
  8
_0-1_
  6
CONTINUOUS
 62
    7
 10
315.17464505454222
 20
76.516379332788318
 11
315.17464505454222
 21
86.75626935403514
  0
TEXT
  8
_0-1_
 62
    7
 10
314.56125872476446
 20
134.54155638303027
 40
5
 41
1
 50
90
  1
51.2
  0
TEXT
  8
_0-1_
 62
    7
 10
314.38047284543177
 20
76.597317654035749
 40
5
 41
1
 50
90
  1
51.2
  0
TEXT
  8
_0-1_
 62
    7
 10
314.82061552952155
 20
106.70307724577751
 40
5
 41
1
 50
90
  1
240
  0
TEXT
  8
_0-1_
 62
    7
 10
267.14380107757052
 20
150.6173005240239
 40
5
 41
1
 50
0
  1
2
  0
POINT
  8
_0-1_
 62
    7
 10
322.1746145369641
 20
148.7562648176384
  0
LINE
  8
_0-1_
  6
CONTINUOUS
 62
    7
 10
322.1746145369641
 20
147.75626151844077
 11
322.1746145369641
 21
148.7562648176384
  0
POINT
  8
_0-1_
 62
    7
 10
322.1746145369641
 20
147.75636956716332
  0
POINT
  8
_0-1_
 62
    7
 10
322.1746145369641
 20
73.756392455346912
  0
LINE
  8
_0-1_
  6
CONTINUOUS
 62
    7
 10
322.1746145369641
 20
72.756261518440766
 11
322.1746145369641
 21
73.756252445647249
  0
POINT
  8
_0-1_
 62
    7
 10
322.1746145369641
 20
72.756261518440766
  0
LINE
  8
_0-1_
  6
CONTINUOUS
 62
    7
 10
322.1746145369641
 20
144.99626824880394
 11
322.1746145369641
 21
73.756392455346912
  0
LINE
  8
_0-1_
  6
CONTINUOUS
 62
    7
 10
322.1746145369641
 20
148.7562648176384
 11
322.1746145369641
 21
151.95722741916401
  0
TEXT
  8
_0-1_
 62
    7
 10
322.30538707995129
 20
150.11168759517602
 40
4
 41
1
 50
90
  1
5
  0
LINE
  8
_0-1_
  6
CONTINUOUS
 62
    7
 10
322.1746145369641
 20
69.55529891691512
 11
322.1746145369641
 21
72.756261518440766
  0
TEXT
  8
_0-1_
 62
    7
 10
322.47503581290107
 20
69.391990765267337
 40
4
 41
1
 50
90
  1
5
  0
TEXT
  8
_0-2_
 62
    7
 10
183.87931034482756
 20
20.224137931034477
 40
5
 41
1
 50
0
  1
※ご発注前にご収納されますＡＥＤ機器寸法をご確認下さい
  0
LINE
  8
_0-f_
  6
CONTINUOUS
 62
    7
 10
364.61156924118592
 20
273.20820580195056
 11
364.61156924118592
 21
273.58418180195054
  0
LINE
  8
_0-f_
  6
CONTINUOUS
 62
    7
 10
364.61156924118592
 20
273.58418180195054
 11
366.29156924118598
 21
273.58418180195054
  0
LINE
  8
_0-f_
  6
CONTINUOUS
 62
    7
 10
366.29156924118598
 20
273.58418180195054
 11
366.29156924118598
 21
273.89629380195049
  0
LINE
  8
_0-f_
  6
CONTINUOUS
 62
    7
 10
366.29156924118598
 20
273.89629380195049
 11
365.48440094288731
 21
273.89629380195049
  0
LINE
  8
_0-f_
  6
CONTINUOUS
 62
    7
 10
365.48440094288731
 20
273.89629380195049
 11
365.57553431801904
 21
274.26425739704951
  0
LINE
  8
_0-f_
  6
CONTINUOUS
 62
    7
 10
365.57553431801904
 20
274.26425739704951
 11
366.61156924118592
 21
274.26426180195051
  0
LINE
  8
_0-f_
  6
CONTINUOUS
 62
    7
 10
366.61156924118592
 20
274.26426180195051
 11
366.61156924118592
 21
274.66426180195049
  0
LINE
  8
_0-f_
  6
CONTINUOUS
 62
    7
 10
366.61156924118592
 20
274.66426180195049
 11
365.97471630866295
 21
274.66426180195049
  0
LINE
  8
_0-f_
  6
CONTINUOUS
 62
    7
 10
365.97471630866295
 20
274.66426180195049
 11
366.13956924118605
 21
274.94993380195058
  0
LINE
  8
_0-f_
  6
CONTINUOUS
 62
    7
 10
366.13956924118605
 20
274.94993380195058
 11
365.60915324118588
 21
275.25627780195055
  0
LINE
  8
_0-f_
  6
CONTINUOUS
 62
    7
 10
365.60915324118588
 20
275.25627780195055
 11
365.26676461443776
 21
274.66426180195049
  0
LINE
  8
_0-f_
  6
CONTINUOUS
 62
    7
 10
365.26676461443776
 20
274.66426180195049
 11
365.17157724118607
 21
274.66426180195049
  0
LINE
  8
_0-f_
  6
CONTINUOUS
 62
    7
 10
365.17157724118607
 20
274.66426180195049
 11
365.17157724118607
 21
275.25625380195055
  0
LINE
  8
_0-f_
  6
CONTINUOUS
 62
    7
 10
365.17157724118607
 20
275.25625380195055
 11
364.45156124118586
 21
275.25625380195055
  0
LINE
  8
_0-f_
  6
CONTINUOUS
 62
    7
 10
364.45156124118586
 20
275.25625380195055
 11
364.45156124118586
 21
274.66426180195049
  0
LINE
  8
_0-f_
  6
CONTINUOUS
 62
    7
 10
364.45156124118586
 20
274.66426180195049
 11
363.97155324118586
 21
274.66426180195049
  0
LINE
  8
_0-f_
  6
CONTINUOUS
 62
    7
 10
363.97155324118586
 20
274.66426180195049
 11
363.97155324118586
 21
275.25625380195055
  0
LINE
  8
_0-f_
  6
CONTINUOUS
 62
    7
 10
363.97155324118586
 20
275.25625380195055
 11
363.25156124118587
 21
275.25625380195055
  0
LINE
  8
_0-f_
  6
CONTINUOUS
 62
    7
 10
363.25156124118587
 20
275.25625380195055
 11
363.25156124118587
 21
274.66426180195049
  0
LINE
  8
_0-f_
  6
CONTINUOUS
 62
    7
 10
363.25156124118587
 20
274.66426180195049
 11
363.15634154231708
 21
274.66426180195049
  0
LINE
  8
_0-f_
  6
CONTINUOUS
 62
    7
 10
363.15634154231708
 20
274.66426180195049
 11
362.81474524118585
 21
275.25622180195057
  0
LINE
  8
_0-f_
  6
CONTINUOUS
 62
    7
 10
362.81474524118585
 20
275.25622180195057
 11
362.28436924118591
 21
274.94986980195051
  0
LINE
  8
_0-f_
  6
CONTINUOUS
 62
    7
 10
362.28436924118591
 20
274.94986980195051
 11
362.44922465321764
 21
274.66426180195049
  0
LINE
  8
_0-f_
  6
CONTINUOUS
 62
    7
 10
362.44922465321764
 20
274.66426180195049
 11
361.81156924118591
 21
274.66426180195049
  0
LINE
  8
_0-f_
  6
CONTINUOUS
 62
    7
 10
361.81156924118591
 20
274.66426180195049
 11
361.81156924118591
 21
274.26426180195051
  0
LINE
  8
_0-f_
  6
CONTINUOUS
 62
    7
 10
361.81156924118591
 20
274.26426180195051
 11
362.84835731153834
 21
274.26426180195051
  0
LINE
  8
_0-f_
  6
CONTINUOUS
 62
    7
 10
362.84835731153834
 20
274.26426180195051
 11
362.93873134671463
 21
273.89629380195049
  0
LINE
  8
_0-f_
  6
CONTINUOUS
 62
    7
 10
362.93873134671463
 20
273.89629380195049
 11
362.13156124118592
 21
273.89629380195049
  0
LINE
  8
_0-f_
  6
CONTINUOUS
 62
    7
 10
362.13156124118592
 20
273.89629380195049
 11
362.13156124118592
 21
273.58418180195054
  0
LINE
  8
_0-f_
  6
CONTINUOUS
 62
    7
 10
362.13156124118592
 20
273.58418180195054
 11
363.81154524118591
 21
273.58418180195054
  0
LINE
  8
_0-f_
  6
CONTINUOUS
 62
    7
 10
363.81154524118591
 20
273.58418180195054
 11
363.81154524118585
 21
273.20820580195056
  0
LINE
  8
_0-f_
  6
CONTINUOUS
 62
    7
 10
363.81154524118585
 20
273.20820580195056
 11
362.13156124118592
 21
273.20820580195056
  0
LINE
  8
_0-f_
  6
CONTINUOUS
 62
    7
 10
362.13156124118592
 20
273.20820580195056
 11
362.13156124118586
 21
272.88828580195047
  0
LINE
  8
_0-f_
  6
CONTINUOUS
 62
    7
 10
362.13156124118586
 20
272.88828580195047
 11
363.81154524118585
 21
272.88828580195047
  0
LINE
  8
_0-f_
  6
CONTINUOUS
 62
    7
 10
363.81154524118585
 20
272.88828580195047
 11
363.81154524118591
 21
272.51230980195055
  0
LINE
  8
_0-f_
  6
CONTINUOUS
 62
    7
 10
363.81154524118591
 20
272.51230980195055
 11
361.81156924118591
 21
272.51230980195055
  0
LINE
  8
_0-f_
  6
CONTINUOUS
 62
    7
 10
361.81156924118591
 20
272.51230980195055
 11
361.81156924118591
 21
272.1122938019505
  0
LINE
  8
_0-f_
  6
CONTINUOUS
 62
    7
 10
361.81156924118591
 20
272.1122938019505
 11
362.94124124118593
 21
272.1122938019505
  0
LINE
  8
_0-f_
  6
CONTINUOUS
 62
    7
 10
362.94124124118593
 20
272.1122938019505
 11
362.44516124118582
 21
271.61621380195055
  0
LINE
  8
_0-f_
  6
CONTINUOUS
 62
    7
 10
362.44516124118582
 20
271.61621380195055
 11
361.81156924118591
 21
271.61621380195055
  0
LINE
  8
_0-f_
  6
CONTINUOUS
 62
    7
 10
361.81156924118591
 20
271.61621380195055
 11
361.81156924118591
 21
271.25621380195054
  0
LINE
  8
_0-f_
  6
CONTINUOUS
 62
    7
 10
361.81156924118591
 20
271.25621380195054
 11
362.6430837749387
 21
271.25621380195054
  0
ARC
  8
_0-f_
  6
CONTINUOUS
 62
    7
 10
362.6430837749387
 20
271.65621380195051
 40
0.3999999999999995
 50
270
 51
314.98511379092588
  0
LINE
  8
_0-f_
  6
CONTINUOUS
 62
    7
 10
362.92585299155195
 20
271.37329761270723
 11
363.66523328276685
 21
272.1122938019505
  0
LINE
  8
_0-f_
  6
CONTINUOUS
 62
    7
 10
363.66523328276685
 20
272.1122938019505
 11
363.81154524118591
 21
272.1122938019505
  0
LINE
  8
_0-f_
  6
CONTINUOUS
 62
    7
 10
363.81154524118591
 20
272.1122938019505
 11
363.81154524118585
 21
271.25621380195054
  0
LINE
  8
_0-f_
  6
CONTINUOUS
 62
    7
 10
363.81154524118585
 20
271.25621380195054
 11
364.61156924118592
 21
271.25621380195054
  0
LINE
  8
_0-f_
  6
CONTINUOUS
 62
    7
 10
364.61156924118592
 20
271.25621380195054
 11
364.61156924118592
 21
272.1122938019505
  0
LINE
  8
_0-f_
  6
CONTINUOUS
 62
    7
 10
364.61156924118592
 20
272.1122938019505
 11
364.7586812784395
 21
272.1122938019505
  0
LINE
  8
_0-f_
  6
CONTINUOUS
 62
    7
 10
364.7586812784395
 20
272.1122938019505
 11
365.49719404845695
 21
271.37343696821381
  0
ARC
  8
_0-f_
  6
CONTINUOUS
 62
    7
 10
365.78010262432883
 20
271.65621380195051
 40
0.3999999999999968
 50
224.98665642058054
 51
270
  0
LINE
  8
_0-f_
  6
CONTINUOUS
 62
    7
 10
365.78010262432883
 20
271.25621380195054
 11
366.61156924118586
 21
271.25621380195054
  0
LINE
  8
_0-f_
  6
CONTINUOUS
 62
    7
 10
366.61156924118586
 20
271.25621380195054
 11
366.61156924118592
 21
271.61621380195055
  0
LINE
  8
_0-f_
  6
CONTINUOUS
 62
    7
 10
366.61156924118592
 20
271.61621380195055
 11
365.97883325280065
 21
271.61621380195055
  0
LINE
  8
_0-f_
  6
CONTINUOUS
 62
    7
 10
365.97883325280065
 20
271.61621380195055
 11
365.48268122957126
 21
272.1122938019505
  0
LINE
  8
_0-f_
  6
CONTINUOUS
 62
    7
 10
365.48268122957126
 20
272.1122938019505
 11
366.61156924118592
 21
272.1122938019505
  0
LINE
  8
_0-f_
  6
CONTINUOUS
 62
    7
 10
366.61156924118592
 20
272.1122938019505
 11
366.61156924118592
 21
272.51230980195055
  0
LINE
  8
_0-f_
  6
CONTINUOUS
 62
    7
 10
366.61156924118592
 20
272.51230980195055
 11
364.61156924118592
 21
272.51230980195055
  0
LINE
  8
_0-f_
  6
CONTINUOUS
 62
    7
 10
364.61156924118592
 20
272.51230980195055
 11
364.61156924118592
 21
272.88828580195047
  0
LINE
  8
_0-f_
  6
CONTINUOUS
 62
    7
 10
364.61156924118592
 20
272.88828580195047
 11
366.29156924118598
 21
272.88828580195047
  0
LINE
  8
_0-f_
  6
CONTINUOUS
 62
    7
 10
366.29156924118598
 20
272.88828580195047
 11
366.29156924118598
 21
273.20820580195056
  0
LINE
  8
_0-f_
  6
CONTINUOUS
 62
    7
 10
366.29156924118598
 20
273.20820580195056
 11
364.61156924118592
 21
273.20820580195056
  0
LINE
  8
_0-f_
  6
CONTINUOUS
 62
    7
 10
363.65555565788537
 20
273.89629380195049
 11
363.56995549975323
 21
274.26424886994675
  0
LINE
  8
_0-f_
  6
CONTINUOUS
 62
    7
 10
363.56995549975323
 20
274.26424886994675
 11
364.8539699203622
 21
274.26425432918018
  0
LINE
  8
_0-f_
  6
CONTINUOUS
 62
    7
 10
364.8539699203622
 20
274.26425432918018
 11
364.76837929330173
 21
273.89629380195049
  0
LINE
  8
_0-f_
  6
CONTINUOUS
 62
    7
 10
364.76837929330173
 20
273.89629380195049
 11
363.65555565788537
 21
273.89629380195049
  0
LINE
  8
_0-f_
  6
CONTINUOUS
 62
    7
 10
364.61156924118575
 20
273.21621380195052
 11
363.81154524118568
 21
273.21621380195052
  0
LINE
  8
_0-f_
  6
CONTINUOUS
 62
    7
 10
364.61156924118575
 20
273.29621380195056
 11
363.81154524118568
 21
273.29621380195056
  0
LINE
  8
_0-f_
  6
CONTINUOUS
 62
    7
 10
364.61156924118575
 20
273.37621380195048
 11
363.81154524118568
 21
273.37621380195048
  0
LINE
  8
_0-f_
  6
CONTINUOUS
 62
    7
 10
364.61156924118575
 20
273.45621380195053
 11
363.81154524118568
 21
273.45621380195053
  0
LINE
  8
_0-f_
  6
CONTINUOUS
 62
    7
 10
364.61156924118575
 20
273.53621380195051
 11
363.81154524118568
 21
273.53621380195051
  0
LINE
  8
_0-f_
  6
CONTINUOUS
 62
    7
 10
366.29156924118615
 20
273.61621380195049
 11
362.13156124118586
 21
273.61621380195049
  0
LINE
  8
_0-f_
  6
CONTINUOUS
 62
    7
 10
366.29156924118615
 20
273.69621380195053
 11
362.13156124118586
 21
273.69621380195053
  0
LINE
  8
_0-f_
  6
CONTINUOUS
 62
    7
 10
366.29156924118615
 20
273.77621380195058
 11
362.13156124118586
 21
273.77621380195058
  0
LINE
  8
_0-f_
  6
CONTINUOUS
 62
    7
 10
366.29156924118615
 20
273.85621380195056
 11
362.13156124118586
 21
273.85621380195056
  0
LINE
  8
_0-f_
  6
CONTINUOUS
 62
    7
 10
365.49428791101042
 20
273.93621380195054
 11
364.77766501168566
 21
273.93621380195054
  0
LINE
  8
_0-f_
  6
CONTINUOUS
 62
    7
 10
363.64626876769211
 20
273.93621380195054
 11
362.928926875988
 21
273.93621380195054
  0
LINE
  8
_0-f_
  6
CONTINUOUS
 62
    7
 10
365.51410147438366
 20
274.01621380195058
 11
364.79627366576159
 21
274.01621380195058
  0
LINE
  8
_0-f_
  6
CONTINUOUS
 62
    7
 10
363.62765776530028
 20
274.01621380195058
 11
362.90927863805945
 21
274.01621380195058
  0
LINE
  8
_0-f_
  6
CONTINUOUS
 62
    7
 10
365.53391503775691
 20
274.09621380195051
 11
364.81488231983758
 21
274.09621380195051
  0
LINE
  8
_0-f_
  6
CONTINUOUS
 62
    7
 10
363.60904676290846
 20
274.09621380195051
 11
362.8896304001309
 21
274.09621380195051
  0
LINE
  8
_0-f_
  6
CONTINUOUS
 62
    7
 10
365.5537286011301
 20
274.17621380195055
 11
364.83349097391357
 21
274.17621380195055
  0
LINE
  8
_0-f_
  6
CONTINUOUS
 62
    7
 10
363.59043576051664
 20
274.17621380195055
 11
362.86998216220229
 21
274.17621380195055
  0
LINE
  8
_0-f_
  6
CONTINUOUS
 62
    7
 10
365.57354216450341
 20
274.25621380195054
 11
364.85209962798962
 21
274.25621380195054
  0
LINE
  8
_0-f_
  6
CONTINUOUS
 62
    7
 10
363.57182475812471
 20
274.25621380195054
 11
362.85033392427368
 21
274.25621380195054
  0
LINE
  8
_0-f_
  6
CONTINUOUS
 62
    7
 10
366.61156924118603
 20
274.33621380195052
 11
361.81156924118579
 21
274.33621380195052
  0
LINE
  8
_0-f_
  6
CONTINUOUS
 62
    7
 10
366.61156924118603
 20
274.41621380195056
 11
361.81156924118579
 21
274.41621380195056
  0
LINE
  8
_0-f_
  6
CONTINUOUS
 62
    7
 10
366.61156924118603
 20
274.49621380195049
 11
361.81156924118579
 21
274.49621380195049
  0
LINE
  8
_0-f_
  6
CONTINUOUS
 62
    7
 10
366.61156924118603
 20
274.57621380195053
 11
361.81156924118579
 21
274.57621380195053
  0
LINE
  8
_0-f_
  6
CONTINUOUS
 62
    7
 10
366.61156924118603
 20
274.65621380195057
 11
361.81156924118579
 21
274.65621380195057
  0
LINE
  8
_0-f_
  6
CONTINUOUS
 62
    7
 10
366.01623769753161
 20
274.7362138019505
 11
365.30837758853266
 21
274.7362138019505
  0
LINE
  8
_0-f_
  6
CONTINUOUS
 62
    7
 10
365.17157724118596
 20
274.7362138019505
 11
364.45156124118563
 21
274.7362138019505
  0
LINE
  8
_0-f_
  6
CONTINUOUS
 62
    7
 10
363.97155324118575
 20
274.7362138019505
 11
363.25156124118598
 21
274.7362138019505
  0
LINE
  8
_0-f_
  6
CONTINUOUS
 62
    7
 10
363.11482093778483
 20
274.7362138019505
 11
362.40769333544489
 21
274.7362138019505
  0
LINE
  8
_0-f_
  6
CONTINUOUS
 62
    7
 10
366.06240335115479
 20
274.81621380195054
 11
365.35464507140455
 21
274.81621380195054
  0
LINE
  8
_0-f_
  6
CONTINUOUS
 62
    7
 10
365.17157724118596
 20
274.81621380195054
 11
364.45156124118563
 21
274.81621380195054
  0
LINE
  8
_0-f_
  6
CONTINUOUS
 62
    7
 10
363.97155324118575
 20
274.81621380195054
 11
363.25156124118598
 21
274.81621380195054
  0
LINE
  8
_0-f_
  6
CONTINUOUS
 62
    7
 10
363.06865615622775
 20
274.81621380195054
 11
362.3615166423462
 21
274.81621380195054
  0
LINE
  8
_0-f_
  6
CONTINUOUS
 62
    7
 10
366.10856900477796
 20
274.89621380195058
 11
365.40091255427637
 21
274.89621380195058
  0
LINE
  8
_0-f_
  6
CONTINUOUS
 62
    7
 10
365.17157724118596
 20
274.89621380195058
 11
364.45156124118563
 21
274.89621380195058
  0
LINE
  8
_0-f_
  6
CONTINUOUS
 62
    7
 10
363.97155324118575
 20
274.89621380195058
 11
363.25156124118598
 21
274.89621380195058
  0
LINE
  8
_0-f_
  6
CONTINUOUS
 62
    7
 10
363.02249137467072
 20
274.89621380195058
 11
362.31533994924746
 21
274.89621380195058
  0
LINE
  8
_0-f_
  6
CONTINUOUS
 62
    7
 10
366.0940670198919
 20
274.97621380195056
 11
365.44718003714826
 21
274.97621380195056
  0
LINE
  8
_0-f_
  6
CONTINUOUS
 62
    7
 10
365.17157724118596
 20
274.97621380195056
 11
364.45156124118563
 21
274.97621380195056
  0
LINE
  8
_0-f_
  6
CONTINUOUS
 62
    7
 10
363.97155324118575
 20
274.97621380195056
 11
363.25156124118598
 21
274.97621380195056
  0
LINE
  8
_0-f_
  6
CONTINUOUS
 62
    7
 10
362.9763265931137
 20
274.97621380195056
 11
362.32997764375551
 21
274.97621380195056
  0
LINE
  8
_0-f_
  6
CONTINUOUS
 62
    7
 10
365.95555188657767
 20
275.05621380195055
 11
365.49344752002008
 21
275.05621380195055
  0
LINE
  8
_0-f_
  6
CONTINUOUS
 62
    7
 10
365.17157724118596
 20
275.05621380195055
 11
364.45156124118563
 21
275.05621380195055
  0
LINE
  8
_0-f_
  6
CONTINUOUS
 62
    7
 10
363.97155324118575
 20
275.05621380195055
 11
363.25156124118598
 21
275.05621380195055
  0
LINE
  8
_0-f_
  6
CONTINUOUS
 62
    7
 10
362.93016181155662
 20
275.05621380195055
 11
362.46847871441923
 21
275.05621380195055
  0
LINE
  8
_0-f_
  6
CONTINUOUS
 62
    7
 10
365.81703675326349
 20
275.13621380195059
 11
365.53971500289191
 21
275.13621380195059
  0
LINE
  8
_0-f_
  6
CONTINUOUS
 62
    7
 10
365.17157724118596
 20
275.13621380195059
 11
364.45156124118563
 21
275.13621380195059
  0
LINE
  8
_0-f_
  6
CONTINUOUS
 62
    7
 10
363.97155324118575
 20
275.13621380195059
 11
363.25156124118598
 21
275.13621380195059
  0
LINE
  8
_0-f_
  6
CONTINUOUS
 62
    7
 10
362.88399702999965
 20
275.13621380195059
 11
362.60697978508307
 21
275.13621380195059
  0
LINE
  8
_0-f_
  6
CONTINUOUS
 62
    7
 10
365.67852161994927
 20
275.21621380195052
 11
365.58598248576374
 21
275.21621380195052
  0
LINE
  8
_0-f_
  6
CONTINUOUS
 62
    7
 10
365.17157724118596
 20
275.21621380195052
 11
364.45156124118563
 21
275.21621380195052
  0
LINE
  8
_0-f_
  6
CONTINUOUS
 62
    7
 10
363.97155324118575
 20
275.21621380195052
 11
363.25156124118598
 21
275.21621380195052
  0
LINE
  8
_0-f_
  6
CONTINUOUS
 62
    7
 10
362.83783224844262
 20
275.21621380195052
 11
362.74548085574685
 21
275.21621380195052
  0
LINE
  8
_0-f_
  6
CONTINUOUS
 62
    7
 10
366.29156924118598
 20
273.13621380195053
 11
362.13156124118558
 21
273.13621380195053
  0
LINE
  8
_0-f_
  6
CONTINUOUS
 62
    7
 10
366.29156924118598
 20
273.05621380195055
 11
362.13156124118558
 21
273.05621380195055
  0
LINE
  8
_0-f_
  6
CONTINUOUS
 62
    7
 10
366.29156924118598
 20
272.97621380195051
 11
362.13156124118558
 21
272.97621380195051
  0
LINE
  8
_0-f_
  6
CONTINUOUS
 62
    7
 10
366.29156924118598
 20
272.89621380195047
 11
362.13156124118558
 21
272.89621380195047
  0
LINE
  8
_0-f_
  6
CONTINUOUS
 62
    7
 10
364.61156924118575
 20
272.81621380195054
 11
363.8115452411858
 21
272.81621380195054
  0
LINE
  8
_0-f_
  6
CONTINUOUS
 62
    7
 10
364.61156924118575
 20
272.7362138019505
 11
363.8115452411858
 21
272.7362138019505
  0
LINE
  8
_0-f_
  6
CONTINUOUS
 62
    7
 10
364.61156924118575
 20
272.65621380195046
 11
363.8115452411858
 21
272.65621380195046
  0
LINE
  8
_0-f_
  6
CONTINUOUS
 62
    7
 10
364.61156924118575
 20
272.57621380195053
 11
363.81154524118585
 21
272.57621380195053
  0
LINE
  8
_0-f_
  6
CONTINUOUS
 62
    7
 10
366.6115692411858
 20
272.49621380195049
 11
361.81156924118608
 21
272.49621380195049
  0
LINE
  8
_0-f_
  6
CONTINUOUS
 62
    7
 10
366.6115692411858
 20
272.41621380195051
 11
361.81156924118608
 21
272.41621380195051
  0
LINE
  8
_0-f_
  6
CONTINUOUS
 62
    7
 10
366.6115692411858
 20
272.33621380195052
 11
361.81156924118608
 21
272.33621380195052
  0
LINE
  8
_0-f_
  6
CONTINUOUS
 62
    7
 10
366.6115692411858
 20
272.25621380195048
 11
361.81156924118608
 21
272.25621380195048
  0
LINE
  8
_0-f_
  6
CONTINUOUS
 62
    7
 10
366.6115692411858
 20
272.17621380195055
 11
361.81156924118608
 21
272.17621380195055
  0
LINE
  8
_0-f_
  6
CONTINUOUS
 62
    7
 10
365.49876356414137
 20
272.09621380195051
 11
364.77475379046024
 21
272.09621380195051
  0
LINE
  8
_0-f_
  6
CONTINUOUS
 62
    7
 10
364.6115692411858
 20
272.09621380195051
 11
363.81154524118585
 21
272.09621380195051
  0
LINE
  8
_0-f_
  6
CONTINUOUS
 62
    7
 10
363.64914492499764
 20
272.09621380195051
 11
362.92516124118589
 21
272.09621380195051
  0
LINE
  8
_0-f_
  6
CONTINUOUS
 62
    7
 10
365.57877517891791
 20
272.01621380195053
 11
364.85471653683237
 21
272.01621380195053
  0
LINE
  8
_0-f_
  6
CONTINUOUS
 62
    7
 10
364.6115692411858
 20
272.01621380195053
 11
363.81154524118585
 21
272.01621380195053
  0
LINE
  8
_0-f_
  6
CONTINUOUS
 62
    7
 10
363.56910334405558
 20
272.01621380195053
 11
362.84516124118585
 21
272.01621380195053
  0
LINE
  8
_0-f_
  6
CONTINUOUS
 62
    7
 10
365.65878679369445
 20
271.93621380195054
 11
364.9346792832045
 21
271.93621380195054
  0
LINE
  8
_0-f_
  6
CONTINUOUS
 62
    7
 10
364.6115692411858
 20
271.93621380195054
 11
363.81154524118585
 21
271.93621380195054
  0
LINE
  8
_0-f_
  6
CONTINUOUS
 62
    7
 10
363.48906176311351
 20
271.93621380195054
 11
362.76516124118581
 21
271.93621380195054
  0
LINE
  8
_0-f_
  6
CONTINUOUS
 62
    7
 10
365.73879840847104
 20
271.8562138019505
 11
365.01464202957658
 21
271.8562138019505
  0
LINE
  8
_0-f_
  6
CONTINUOUS
 62
    7
 10
364.6115692411858
 20
271.8562138019505
 11
363.81154524118585
 21
271.8562138019505
  0
LINE
  8
_0-f_
  6
CONTINUOUS
 62
    7
 10
363.40902018217145
 20
271.8562138019505
 11
362.68516124118582
 21
271.8562138019505
  0
LINE
  8
_0-f_
  6
CONTINUOUS
 62
    7
 10
365.81881002324752
 20
271.77621380195046
 11
365.09460477594877
 21
271.77621380195046
  0
LINE
  8
_0-f_
  6
CONTINUOUS
 62
    7
 10
364.6115692411858
 20
271.77621380195046
 11
363.81154524118585
 21
271.77621380195046
  0
LINE
  8
_0-f_
  6
CONTINUOUS
 62
    7
 10
363.32897860122938
 20
271.77621380195046
 11
362.60516124118584
 21
271.77621380195046
  0
LINE
  8
_0-f_
  6
CONTINUOUS
 62
    7
 10
365.89882163802412
 20
271.69621380195048
 11
365.17456752232084
 21
271.69621380195048
  0
LINE
  8
_0-f_
  6
CONTINUOUS
 62
    7
 10
364.6115692411858
 20
271.69621380195048
 11
363.81154524118585
 21
271.69621380195048
  0
LINE
  8
_0-f_
  6
CONTINUOUS
 62
    7
 10
363.24893702028731
 20
271.69621380195048
 11
362.5251612411858
 21
271.69621380195048
  0
LINE
  8
_0-f_
  6
CONTINUOUS
 62
    7
 10
366.61156924118592
 20
271.61621380195049
 11
365.97883325280065
 21
271.61621380195049
  0
LINE
  8
_0-f_
  6
CONTINUOUS
 62
    7
 10
362.44516124118576
 20
271.61621380195049
 11
361.81156924118591
 21
271.61621380195049
  0
LINE
  8
_0-f_
  6
CONTINUOUS
 62
    7
 10
366.61156924118592
 20
271.53621380195045
 11
365.33449301506511
 21
271.53621380195045
  0
LINE
  8
_0-f_
  6
CONTINUOUS
 62
    7
 10
364.6115692411858
 20
271.53621380195045
 11
363.81154524118585
 21
271.53621380195045
  0
LINE
  8
_0-f_
  6
CONTINUOUS
 62
    7
 10
363.08885385840324
 20
271.53621380195045
 11
361.81156924118591
 21
271.53621380195045
  0
LINE
  8
_0-f_
  6
CONTINUOUS
 62
    7
 10
366.61156924118592
 20
271.45621380195053
 11
365.41445576143724
 21
271.45621380195053
  0
LINE
  8
_0-f_
  6
CONTINUOUS
 62
    7
 10
364.6115692411858
 20
271.45621380195053
 11
363.81154524118585
 21
271.45621380195053
  0
LINE
  8
_0-f_
  6
CONTINUOUS
 62
    7
 10
363.00881227746117
 20
271.45621380195053
 11
361.81156924118591
 21
271.45621380195053
  0
LINE
  8
_0-f_
  6
CONTINUOUS
 62
    7
 10
366.61156924118592
 20
271.37621380195048
 11
365.49441850780937
 21
271.37621380195048
  0
LINE
  8
_0-f_
  6
CONTINUOUS
 62
    7
 10
364.6115692411858
 20
271.37621380195048
 11
363.81154524118585
 21
271.37621380195048
  0
LINE
  8
_0-f_
  6
CONTINUOUS
 62
    7
 10
362.92877069651905
 20
271.37621380195048
 11
361.81156924118591
 21
271.37621380195048
  0
LINE
  8
_0-f_
  6
CONTINUOUS
 62
    7
 10
366.61156924118592
 20
271.2962138019505
 11
365.60720576959972
 21
271.2962138019505
  0
LINE
  8
_0-f_
  6
CONTINUOUS
 62
    7
 10
364.6115692411858
 20
271.2962138019505
 11
363.8115452411858
 21
271.2962138019505
  0
LINE
  8
_0-f_
  6
CONTINUOUS
 62
    7
 10
362.81599443164606
 20
271.2962138019505
 11
361.81156924118591
 21
271.2962138019505
  0
LINE
  8
_0-f_
  6
CONTINUOUS
 62
    7
 10
363.15636924118604
 20
274.6642138019505
 11
362.81474524118585
 21
275.25622180195057
  0
LINE
  8
_0-f_
  6
CONTINUOUS
 62
    7
 10
362.13156124118592
 20
273.58418180195054
 11
363.81154524118591
 21
273.58418180195054
  0
LINE
  8
_0-f_
  6
CONTINUOUS
 62
    7
 10
362.13156124118592
 20
273.20820580195056
 11
363.81154524118591
 21
273.20820580195056
  0
LINE
  8
_0-f_
  6
CONTINUOUS
 62
    7
 10
362.13156124118592
 20
272.88828580195047
 11
363.81154524118591
 21
272.88828580195047
  0
LINE
  8
_0-f_
  6
CONTINUOUS
 62
    7
 10
361.81156924118591
 20
272.51230980195055
 11
363.81154524118591
 21
272.51230980195055
  0
LINE
  8
_0-f_
  6
CONTINUOUS
 62
    7
 10
362.92585299155195
 20
271.37329761270723
 11
363.66523328276685
 21
272.1122938019505
  0
LINE
  8
_0-f_
  6
CONTINUOUS
 62
    7
 10
361.81156924118591
 20
272.1122938019505
 11
362.94124124118588
 21
272.1122938019505
  0
LINE
  8
_0-f_
  6
CONTINUOUS
 62
    7
 10
361.81156924118591
 20
271.61621380195055
 11
362.44516124118582
 21
271.61621380195055
  0
LINE
  8
_0-f_
  6
CONTINUOUS
 62
    7
 10
361.81156924118591
 20
271.25621380195054
 11
362.6430837749387
 21
271.25621380195054
  0
LINE
  8
_0-f_
  6
CONTINUOUS
 62
    7
 10
361.81156924118591
 20
272.51230980195055
 11
361.81156924118591
 21
272.1122938019505
  0
LINE
  8
_0-f_
  6
CONTINUOUS
 62
    7
 10
361.81156924118591
 20
271.61621380195055
 11
361.81156924118591
 21
271.25621380195054
  0
LINE
  8
_0-f_
  6
CONTINUOUS
 62
    7
 10
362.44516124118582
 20
271.61621380195055
 11
362.94124124118588
 21
272.1122938019505
  0
ARC
  8
_0-f_
  6
CONTINUOUS
 62
    7
 10
362.6430837749387
 20
271.65621380195051
 40
0.4
 50
270.0000000000004
 51
314.98511379092611
  0
LINE
  8
_0-f_
  6
CONTINUOUS
 62
    7
 10
362.94116124118591
 20
272.1122938019505
 11
362.94124124118588
 21
272.1122938019505
  0
LINE
  8
_0-f_
  6
CONTINUOUS
 62
    7
 10
362.13156124118592
 20
273.20820580195056
 11
362.13156124118586
 21
272.88828580195047
  0
LINE
  8
_0-f_
  6
CONTINUOUS
 62
    7
 10
361.81156924118591
 20
274.66426180195049
 11
362.44922465321764
 21
274.66426180195049
  0
LINE
  8
_0-f_
  6
CONTINUOUS
 62
    7
 10
361.81156924118591
 20
274.26426180195051
 11
362.84836124118596
 21
274.26426180195051
  0
LINE
  8
_0-f_
  6
CONTINUOUS
 62
    7
 10
361.81156924118591
 20
274.66426180195049
 11
361.81156924118591
 21
274.26426180195051
  0
LINE
  8
_0-f_
  6
CONTINUOUS
 62
    7
 10
362.44922465321764
 20
274.66426180195049
 11
362.28436924118591
 21
274.94986980195051
  0
LINE
  8
_0-f_
  6
CONTINUOUS
 62
    7
 10
362.13156124118592
 20
273.89629380195049
 11
362.93873724118595
 21
273.89629380195049
  0
LINE
  8
_0-f_
  6
CONTINUOUS
 62
    7
 10
362.13156124118592
 20
273.89629380195049
 11
362.13156124118592
 21
273.58418180195054
  0
LINE
  8
_0-f_
  6
CONTINUOUS
 62
    7
 10
362.84836124118596
 20
274.26424580195055
 11
362.93873724118595
 21
273.89626980195055
  0
LINE
  8
_0-f_
  6
CONTINUOUS
 62
    7
 10
362.28436924118591
 20
274.94986980195051
 11
362.81474524118585
 21
275.25622180195057
  0
LINE
  8
_0-f_
  6
CONTINUOUS
 62
    7
 10
364.61156924118592
 20
273.58418180195054
 11
364.61156924118592
 21
273.20820580195056
  0
LINE
  8
_0-f_
  6
CONTINUOUS
 62
    7
 10
363.81154524118591
 20
273.58418180195054
 11
363.81154524118585
 21
273.20820580195056
  0
LINE
  8
_0-f_
  6
CONTINUOUS
 62
    7
 10
364.61156924118592
 20
273.20820580195056
 11
366.29156924118598
 21
273.20820580195056
  0
LINE
  8
_0-f_
  6
CONTINUOUS
 62
    7
 10
365.49719404845695
 20
271.37343696821381
 11
364.7586812784395
 21
272.1122938019505
  0
LINE
  8
_0-f_
  6
CONTINUOUS
 62
    7
 10
364.61156924118592
 20
272.51230980195055
 11
366.61156924118592
 21
272.51230980195055
  0
LINE
  8
_0-f_
  6
CONTINUOUS
 62
    7
 10
364.61156924118592
 20
272.88828580195047
 11
366.29156924118598
 21
272.88828580195047
  0
LINE
  8
_0-f_
  6
CONTINUOUS
 62
    7
 10
363.81154524118591
 20
271.25621380195054
 11
364.61156924118592
 21
271.25621380195054
  0
LINE
  8
_0-f_
  6
CONTINUOUS
 62
    7
 10
363.66523328276685
 20
272.1122938019505
 11
363.81154524118591
 21
272.1122938019505
  0
LINE
  8
_0-f_
  6
CONTINUOUS
 62
    7
 10
363.81154524118591
 20
272.1122938019505
 11
363.81154524118591
 21
271.25621380195054
  0
LINE
  8
_0-f_
  6
CONTINUOUS
 62
    7
 10
363.81154524118585
 20
272.88828580195047
 11
363.81154524118591
 21
272.51230980195055
  0
LINE
  8
_0-f_
  6
CONTINUOUS
 62
    7
 10
364.61156924118592
 20
272.1122938019505
 11
364.7586812784395
 21
272.1122938019505
  0
LINE
  8
_0-f_
  6
CONTINUOUS
 62
    7
 10
364.61156924118592
 20
272.1122938019505
 11
364.61156924118592
 21
271.25621380195054
  0
LINE
  8
_0-f_
  6
CONTINUOUS
 62
    7
 10
364.61156924118592
 20
272.88828580195047
 11
364.61156924118592
 21
272.51230980195055
  0
LINE
  8
_0-f_
  6
CONTINUOUS
 62
    7
 10
365.78010262432883
 20
271.25621380195054
 11
366.61156924118592
 21
271.25621380195054
  0
LINE
  8
_0-f_
  6
CONTINUOUS
 62
    7
 10
365.97883325280065
 20
271.61621380195055
 11
366.61156924118592
 21
271.61621380195055
  0
LINE
  8
_0-f_
  6
CONTINUOUS
 62
    7
 10
365.48268122957126
 20
272.1122938019505
 11
366.61156924118592
 21
272.1122938019505
  0
LINE
  8
_0-f_
  6
CONTINUOUS
 62
    7
 10
365.97883325280065
 20
271.61621380195055
 11
365.48268122957126
 21
272.1122938019505
  0
ARC
  8
_0-f_
  6
CONTINUOUS
 62
    7
 10
365.78010262432883
 20
271.65621380195051
 40
0.4
 50
224.98665642058006
 51
269.9999999999996
  0
LINE
  8
_0-f_
  6
CONTINUOUS
 62
    7
 10
366.29156924118598
 20
273.2082058019505
 11
366.29156924118598
 21
272.88828580195047
  0
LINE
  8
_0-f_
  6
CONTINUOUS
 62
    7
 10
366.61156924118592
 20
272.51230980195055
 11
366.61156924118592
 21
272.1122938019505
  0
LINE
  8
_0-f_
  6
CONTINUOUS
 62
    7
 10
366.61156924118592
 20
271.61621380195055
 11
366.61156924118586
 21
271.25621380195054
  0
LINE
  8
_0-f_
  6
CONTINUOUS
 62
    7
 10
364.61156924118592
 20
273.58418180195054
 11
366.29156924118598
 21
273.58418180195054
  0
LINE
  8
_0-f_
  6
CONTINUOUS
 62
    7
 10
365.17157724118607
 20
274.66426180195049
 11
365.26676461443776
 21
274.66426180195049
  0
LINE
  8
_0-f_
  6
CONTINUOUS
 62
    7
 10
363.97155324118586
 20
274.66426180195049
 11
364.45156124118586
 21
274.66426180195049
  0
LINE
  8
_0-f_
  6
CONTINUOUS
 62
    7
 10
363.56995549975323
 20
274.26424886994675
 11
364.8539699203622
 21
274.26425432918018
  0
LINE
  8
_0-f_
  6
CONTINUOUS
 62
    7
 10
363.65555565788537
 20
273.89629380195049
 11
364.76837929330173
 21
273.89629380195049
  0
LINE
  8
_0-f_
  6
CONTINUOUS
 62
    7
 10
363.97155324118586
 20
275.25625380195055
 11
363.97155324118586
 21
274.66426180195049
  0
LINE
  8
_0-f_
  6
CONTINUOUS
 62
    7
 10
363.25156124118587
 20
275.25625380195055
 11
363.25156124118587
 21
274.66426180195049
  0
LINE
  8
_0-f_
  6
CONTINUOUS
 62
    7
 10
363.56995549975323
 20
274.26424886994675
 11
363.65556124118604
 21
273.89626980195055
  0
LINE
  8
_0-f_
  6
CONTINUOUS
 62
    7
 10
363.15634154231708
 20
274.66426180195049
 11
363.25156124118587
 21
274.66426180195049
  0
LINE
  8
_0-f_
  6
CONTINUOUS
 62
    7
 10
363.25156124118587
 20
275.25625380195055
 11
363.97155324118586
 21
275.25625380195055
  0
LINE
  8
_0-f_
  6
CONTINUOUS
 62
    7
 10
365.17157724118607
 20
275.25625380195055
 11
365.17157724118607
 21
274.66426180195049
  0
LINE
  8
_0-f_
  6
CONTINUOUS
 62
    7
 10
364.45156124118586
 20
275.25625380195055
 11
364.45156124118586
 21
274.66426180195049
  0
LINE
  8
_0-f_
  6
CONTINUOUS
 62
    7
 10
364.85397724118593
 20
274.26428580195056
 11
364.76835324118605
 21
273.89618180195055
  0
LINE
  8
_0-f_
  6
CONTINUOUS
 62
    7
 10
364.45156124118586
 20
275.25625380195055
 11
365.17157724118607
 21
275.25625380195055
  0
LINE
  8
_0-f_
  6
CONTINUOUS
 62
    7
 10
365.57553431801904
 20
274.26425739704951
 11
366.61156924118586
 21
274.26426180195051
  0
LINE
  8
_0-f_
  6
CONTINUOUS
 62
    7
 10
365.97471630866295
 20
274.66426180195049
 11
366.61156924118592
 21
274.66426180195049
  0
LINE
  8
_0-f_
  6
CONTINUOUS
 62
    7
 10
365.97471630866295
 20
274.66426180195049
 11
366.13956924118605
 21
274.94993380195058
  0
LINE
  8
_0-f_
  6
CONTINUOUS
 62
    7
 10
365.26676461443776
 20
274.66426180195049
 11
365.60915324118599
 21
275.25627780195055
  0
LINE
  8
_0-f_
  6
CONTINUOUS
 62
    7
 10
365.48440094288731
 20
273.89629380195049
 11
366.29156924118598
 21
273.89629380195049
  0
LINE
  8
_0-f_
  6
CONTINUOUS
 62
    7
 10
365.5755532411859
 20
274.26433380195056
 11
365.4843692411859
 21
273.89616580195047
  0
LINE
  8
_0-f_
  6
CONTINUOUS
 62
    7
 10
366.29156924118598
 20
273.89629380195049
 11
366.29156924118598
 21
273.58418180195054
  0
LINE
  8
_0-f_
  6
CONTINUOUS
 62
    7
 10
366.13956924118605
 20
274.94993380195058
 11
365.60915324118599
 21
275.25627780195055
  0
LINE
  8
_0-f_
  6
CONTINUOUS
 62
    7
 10
366.61156924118592
 20
274.66426180195049
 11
366.61156924118592
 21
274.26426180195051
  0
LINE
  8
_0-f_
  6
CONTINUOUS
 62
    7
 10
365.97883325280071
 20
271.61621380195049
 11
365.25453026869303
 21
271.61621380195049
  0
LINE
  8
_0-f_
  6
CONTINUOUS
 62
    7
 10
364.61156924118592
 20
271.61621380195049
 11
363.81154524118585
 21
271.61621380195049
  0
LINE
  8
_0-f_
  6
CONTINUOUS
 62
    7
 10
363.16889543934514
 20
271.61621380195049
 11
362.44516124118576
 21
271.61621380195049
  0
LINE
  8
_0-f_
  6
CONTINUOUS
 62
    7
 10
368.963498296507
 20
274.13633380195051
 11
368.963498296507
 21
274.57637380195052
  0
LINE
  8
_0-f_
  6
CONTINUOUS
 62
    7
 10
368.963498296507
 20
274.57637380195052
 11
368.29550629650709
 21
274.57637380195052
  0
LINE
  8
_0-f_
  6
CONTINUOUS
 62
    7
 10
368.29550629650709
 20
274.57637380195052
 11
368.29550629650709
 21
275.25625380195055
  0
LINE
  8
_0-f_
  6
CONTINUOUS
 62
    7
 10
368.29550629650709
 20
275.25625380195055
 11
367.77549029650703
 21
275.25625380195055
  0
LINE
  8
_0-f_
  6
CONTINUOUS
 62
    7
 10
367.77549029650703
 20
275.25625380195055
 11
367.77549029650703
 21
274.57637380195052
  0
LINE
  8
_0-f_
  6
CONTINUOUS
 62
    7
 10
367.77549029650703
 20
274.57637380195052
 11
367.09951429650704
 21
274.57637380195052
  0
LINE
  8
_0-f_
  6
CONTINUOUS
 62
    7
 10
367.09951429650704
 20
274.57637380195052
 11
367.09951429650704
 21
274.13633380195051
  0
LINE
  8
_0-f_
  6
CONTINUOUS
 62
    7
 10
367.09951429650704
 20
274.13633380195051
 11
367.77884787211002
 21
274.13633380195051
  0
LINE
  8
_0-f_
  6
CONTINUOUS
 62
    7
 10
367.77884787211002
 20
274.13633380195051
 11
367.07778276187986
 21
272.44922180195056
  0
LINE
  8
_0-f_
  6
CONTINUOUS
 62
    7
 10
367.07778276187986
 20
272.44922180195056
 11
367.01950629650702
 21
272.44922180195056
  0
LINE
  8
_0-f_
  6
CONTINUOUS
 62
    7
 10
367.01950629650702
 20
272.44922180195056
 11
367.01950629650702
 21
271.96933380195054
  0
LINE
  8
_0-f_
  6
CONTINUOUS
 62
    7
 10
367.01950629650702
 20
271.96933380195054
 11
367.21770037874143
 21
271.96933380195054
  0
ARC
  8
_0-f_
  6
CONTINUOUS
 62
    7
 10
367.21770037874143
 20
272.16933380195053
 40
0.2
 50
270
 51
338.12209204226002
  0
LINE
  8
_0-f_
  6
CONTINUOUS
 62
    7
 10
367.40329637896826
 20
272.09480780179081
 11
367.77549029650703
 21
273.02170180195048
  0
LINE
  8
_0-f_
  6
CONTINUOUS
 62
    7
 10
367.77549029650703
 20
273.02170180195048
 11
367.77549029650703
 21
271.25621380195054
  0
LINE
  8
_0-f_
  6
CONTINUOUS
 62
    7
 10
367.77549029650703
 20
271.25621380195054
 11
368.29550629650709
 21
271.25621380195054
  0
LINE
  8
_0-f_
  6
CONTINUOUS
 62
    7
 10
368.29550629650709
 20
271.25621380195054
 11
368.29550629650709
 21
273.02701380195049
  0
LINE
  8
_0-f_
  6
CONTINUOUS
 62
    7
 10
368.29550629650709
 20
273.02701380195049
 11
368.57350226393243
 21
272.29806713285564
  0
ARC
  8
_0-f_
  6
CONTINUOUS
 62
    7
 10
368.76037404317191
 20
272.36933380195052
 40
0.200000000000003
 50
200.87518418962418
 51
270
  0
LINE
  8
_0-f_
  6
CONTINUOUS
 62
    7
 10
368.76037404317191
 20
272.16933380195053
 11
369.04350629650702
 21
272.16933380195053
  0
LINE
  8
_0-f_
  6
CONTINUOUS
 62
    7
 10
369.04350629650702
 20
272.16933380195053
 11
369.04350629650702
 21
272.64922180195055
  0
LINE
  8
_0-f_
  6
CONTINUOUS
 62
    7
 10
369.04350629650702
 20
272.64922180195055
 11
368.89925444613795
 21
272.64922180195055
  0
LINE
  8
_0-f_
  6
CONTINUOUS
 62
    7
 10
368.89925444613795
 20
272.64922180195055
 11
368.2922277009356
 21
274.13633380195051
  0
LINE
  8
_0-f_
  6
CONTINUOUS
 62
    7
 10
368.2922277009356
 20
274.13633380195051
 11
368.963498296507
 21
274.13633380195051
  0
LINE
  8
_0-f_
  6
CONTINUOUS
 62
    7
 10
370.79951429650708
 20
273.46445380195053
 11
370.79951429650708
 21
274.13633380195051
  0
LINE
  8
_0-f_
  6
CONTINUOUS
 62
    7
 10
370.79951429650708
 20
274.13633380195051
 11
371.81950629650709
 21
274.13633380195051
  0
LINE
  8
_0-f_
  6
CONTINUOUS
 62
    7
 10
371.81950629650709
 20
274.13633380195051
 11
371.81950629650709
 21
274.57637380195052
  0
LINE
  8
_0-f_
  6
CONTINUOUS
 62
    7
 10
371.81950629650709
 20
274.57637380195052
 11
370.79951429650708
 21
274.57637380195052
  0
LINE
  8
_0-f_
  6
CONTINUOUS
 62
    7
 10
370.79951429650708
 20
274.57637380195052
 11
370.79951429650708
 21
275.25625380195055
  0
LINE
  8
_0-f_
  6
CONTINUOUS
 62
    7
 10
370.79951429650708
 20
275.25625380195055
 11
370.2795142965071
 21
275.25625380195055
  0
LINE
  8
_0-f_
  6
CONTINUOUS
 62
    7
 10
370.2795142965071
 20
275.25625380195055
 11
370.2795142965071
 21
274.57637380195052
  0
LINE
  8
_0-f_
  6
CONTINUOUS
 62
    7
 10
370.2795142965071
 20
274.57637380195052
 11
369.81549829650697
 21
274.57637380195052
  0
LINE
  8
_0-f_
  6
CONTINUOUS
 62
    7
 10
369.81549829650697
 20
274.57637380195052
 11
369.81549829650697
 21
275.25625380195055
  0
LINE
  8
_0-f_
  6
CONTINUOUS
 62
    7
 10
369.81549829650697
 20
275.25625380195055
 11
369.31549829650697
 21
275.25625380195055
  0
LINE
  8
_0-f_
  6
CONTINUOUS
 62
    7
 10
369.31549829650697
 20
275.25625380195055
 11
369.31549829650697
 21
274.13633380195051
  0
LINE
  8
_0-f_
  6
CONTINUOUS
 62
    7
 10
369.31549829650697
 20
274.13633380195051
 11
370.2795142965071
 21
274.13633380195051
  0
LINE
  8
_0-f_
  6
CONTINUOUS
 62
    7
 10
370.2795142965071
 20
274.13633380195051
 11
370.2795142965071
 21
273.46445380195053
  0
LINE
  8
_0-f_
  6
CONTINUOUS
 62
    7
 10
370.2795142965071
 20
273.46445380195053
 11
369.31549829650697
 21
273.46445380195053
  0
LINE
  8
_0-f_
  6
CONTINUOUS
 62
    7
 10
369.31549829650697
 20
273.46445380195053
 11
369.31549829650697
 21
273.02441380195057
  0
LINE
  8
_0-f_
  6
CONTINUOUS
 62
    7
 10
369.31549829650697
 20
273.02441380195057
 11
369.98827991998866
 21
273.02441380195057
  0
LINE
  8
_0-f_
  6
CONTINUOUS
 62
    7
 10
369.98827991998866
 20
273.02441380195057
 11
369.45501063216022
 21
271.73048888071685
  0
ARC
  8
_0-f_
  6
CONTINUOUS
 62
    7
 10
369.34406365573375
 20
271.77621380195058
 40
0.1199999999999984
 50
270
 51
337.60181985621841
  0
LINE
  8
_0-f_
  6
CONTINUOUS
 62
    7
 10
369.34406365573375
 20
271.65621380195051
 11
369.2835222965071
 21
271.65621380195051
  0
LINE
  8
_0-f_
  6
CONTINUOUS
 62
    7
 10
369.2835222965071
 20
271.65621380195051
 11
369.2835222965071
 21
271.25621380195054
  0
LINE
  8
_0-f_
  6
CONTINUOUS
 62
    7
 10
369.2835222965071
 20
271.25621380195054
 11
369.59119207995394
 21
271.25621380195054
  0
ARC
  8
_0-f_
  6
CONTINUOUS
 62
    7
 10
369.59119207995394
 20
271.49621380195049
 40
0.2399999999999966
 50
270
 51
337.13773188217931
  0
LINE
  8
_0-f_
  6
CONTINUOUS
 62
    7
 10
369.8123380307506
 20
271.40296966837491
 11
370.2795142965071
 21
272.51096580195053
  0
LINE
  8
_0-f_
  6
CONTINUOUS
 62
    7
 10
370.2795142965071
 20
272.51096580195053
 11
370.2795142965071
 21
271.25621380195054
  0
LINE
  8
_0-f_
  6
CONTINUOUS
 62
    7
 10
370.2795142965071
 20
271.25621380195054
 11
370.79951429650708
 21
271.25621380195054
  0
LINE
  8
_0-f_
  6
CONTINUOUS
 62
    7
 10
370.79951429650708
 20
271.25621380195054
 11
370.79951429650708
 21
272.51102980195054
  0
LINE
  8
_0-f_
  6
CONTINUOUS
 62
    7
 10
370.79951429650708
 20
272.51102980195054
 11
371.27541719641204
 21
271.40160042156208
  0
ARC
  8
_0-f_
  6
CONTINUOUS
 62
    7
 10
371.49598081138851
 20
271.49621380195049
 40
0.2399999999999991
 50
203.21748710460054
 51
270
  0
LINE
  8
_0-f_
  6
CONTINUOUS
 62
    7
 10
371.49598081138851
 20
271.25621380195054
 11
371.81950629650709
 21
271.25621380195054
  0
LINE
  8
_0-f_
  6
CONTINUOUS
 62
    7
 10
371.81950629650709
 20
271.25621380195054
 11
371.81950629650709
 21
271.65621380195051
  0
LINE
  8
_0-f_
  6
CONTINUOUS
 62
    7
 10
371.81950629650709
 20
271.65621380195051
 11
371.74284808305219
 21
271.65621380195051
  0
ARC
  8
_0-f_
  6
CONTINUOUS
 62
    7
 10
371.74284808305219
 20
271.77621380195058
 40
0.1200000000000003
 50
202.69813627100072
 51
270
  0
LINE
  8
_0-f_
  6
CONTINUOUS
 62
    7
 10
371.63214200603619
 20
271.72990867791736
 11
371.09068825800682
 21
273.02441380195057
  0
LINE
  8
_0-f_
  6
CONTINUOUS
 62
    7
 10
371.09068825800682
 20
273.02441380195057
 11
371.81950629650709
 21
273.02441380195057
  0
LINE
  8
_0-f_
  6
CONTINUOUS
 62
    7
 10
371.81950629650709
 20
273.02441380195057
 11
371.81950629650709
 21
273.46445380195053
  0
LINE
  8
_0-f_
  6
CONTINUOUS
 62
    7
 10
371.81950629650709
 20
273.46445380195053
 11
370.79951429650708
 21
273.46445380195053
  0
LINE
  8
_0-f_
  6
CONTINUOUS
 62
    7
 10
371.81950629650703
 20
273.21621380195052
 11
369.31549829650663
 21
273.21621380195052
  0
LINE
  8
_0-f_
  6
CONTINUOUS
 62
    7
 10
368.66781302927365
 20
273.21621380195052
 11
367.3964997949077
 21
273.21621380195052
  0
LINE
  8
_0-f_
  6
CONTINUOUS
 62
    7
 10
371.81950629650703
 20
273.29621380195056
 11
369.31549829650663
 21
273.29621380195056
  0
LINE
  8
_0-f_
  6
CONTINUOUS
 62
    7
 10
368.63515769489652
 20
273.29621380195056
 11
367.42974311770928
 21
273.29621380195056
  0
LINE
  8
_0-f_
  6
CONTINUOUS
 62
    7
 10
371.81950629650703
 20
273.37621380195048
 11
369.31549829650663
 21
273.37621380195048
  0
LINE
  8
_0-f_
  6
CONTINUOUS
 62
    7
 10
368.60250236051945
 20
273.37621380195048
 11
367.46298644051086
 21
273.37621380195048
  0
LINE
  8
_0-f_
  6
CONTINUOUS
 62
    7
 10
371.81950629650703
 20
273.45621380195053
 11
369.31549829650663
 21
273.45621380195053
  0
LINE
  8
_0-f_
  6
CONTINUOUS
 62
    7
 10
368.56984702614233
 20
273.45621380195053
 11
367.49622976331244
 21
273.45621380195053
  0
LINE
  8
_0-f_
  6
CONTINUOUS
 62
    7
 10
370.79951429650714
 20
273.53621380195051
 11
370.27951429650687
 21
273.53621380195051
  0
LINE
  8
_0-f_
  6
CONTINUOUS
 62
    7
 10
368.53719169176526
 20
273.53621380195051
 11
367.52947308611402
 21
273.53621380195051
  0
LINE
  8
_0-f_
  6
CONTINUOUS
 62
    7
 10
370.79951429650714
 20
273.61621380195049
 11
370.27951429650687
 21
273.61621380195049
  0
LINE
  8
_0-f_
  6
CONTINUOUS
 62
    7
 10
368.50453635738813
 20
273.61621380195049
 11
367.56271640891561
 21
273.61621380195049
  0
LINE
  8
_0-f_
  6
CONTINUOUS
 62
    7
 10
370.79951429650714
 20
273.69621380195053
 11
370.27951429650687
 21
273.69621380195053
  0
LINE
  8
_0-f_
  6
CONTINUOUS
 62
    7
 10
368.47188102301112
 20
273.69621380195053
 11
367.59595973171719
 21
273.69621380195053
  0
LINE
  8
_0-f_
  6
CONTINUOUS
 62
    7
 10
370.79951429650714
 20
273.77621380195058
 11
370.27951429650687
 21
273.77621380195058
  0
LINE
  8
_0-f_
  6
CONTINUOUS
 62
    7
 10
368.43922568863394
 20
273.77621380195058
 11
367.62920305451877
 21
273.77621380195058
  0
LINE
  8
_0-f_
  6
CONTINUOUS
 62
    7
 10
370.79951429650714
 20
273.85621380195056
 11
370.27951429650687
 21
273.85621380195056
  0
LINE
  8
_0-f_
  6
CONTINUOUS
 62
    7
 10
368.40657035425687
 20
273.85621380195056
 11
367.66244637732035
 21
273.85621380195056
  0
LINE
  8
_0-f_
  6
CONTINUOUS
 62
    7
 10
370.79951429650714
 20
273.93621380195054
 11
370.27951429650687
 21
273.93621380195054
  0
LINE
  8
_0-f_
  6
CONTINUOUS
 62
    7
 10
368.3739150198798
 20
273.93621380195054
 11
367.69568970012193
 21
273.93621380195054
  0
LINE
  8
_0-f_
  6
CONTINUOUS
 62
    7
 10
370.79951429650714
 20
274.01621380195058
 11
370.27951429650687
 21
274.01621380195058
  0
LINE
  8
_0-f_
  6
CONTINUOUS
 62
    7
 10
368.34125968550273
 20
274.01621380195058
 11
367.72893302292351
 21
274.01621380195058
  0
LINE
  8
_0-f_
  6
CONTINUOUS
 62
    7
 10
370.79951429650714
 20
274.09621380195051
 11
370.27951429650687
 21
274.09621380195051
  0
LINE
  8
_0-f_
  6
CONTINUOUS
 62
    7
 10
368.30860435112567
 20
274.09621380195051
 11
367.76217634572504
 21
274.09621380195051
  0
LINE
  8
_0-f_
  6
CONTINUOUS
 62
    7
 10
371.8195062965072
 20
274.17621380195055
 11
369.31549829650697
 21
274.17621380195055
  0
LINE
  8
_0-f_
  6
CONTINUOUS
 62
    7
 10
368.96349829650666
 20
274.17621380195055
 11
367.09951429650721
 21
274.17621380195055
  0
LINE
  8
_0-f_
  6
CONTINUOUS
 62
    7
 10
371.8195062965072
 20
274.25621380195054
 11
369.31549829650697
 21
274.25621380195054
  0
LINE
  8
_0-f_
  6
CONTINUOUS
 62
    7
 10
368.96349829650666
 20
274.25621380195054
 11
367.09951429650721
 21
274.25621380195054
  0
LINE
  8
_0-f_
  6
CONTINUOUS
 62
    7
 10
371.8195062965072
 20
274.33621380195052
 11
369.31549829650697
 21
274.33621380195052
  0
LINE
  8
_0-f_
  6
CONTINUOUS
 62
    7
 10
368.96349829650666
 20
274.33621380195052
 11
367.09951429650721
 21
274.33621380195052
  0
LINE
  8
_0-f_
  6
CONTINUOUS
 62
    7
 10
371.8195062965072
 20
274.41621380195056
 11
369.31549829650697
 21
274.41621380195056
  0
LINE
  8
_0-f_
  6
CONTINUOUS
 62
    7
 10
368.96349829650666
 20
274.41621380195056
 11
367.09951429650721
 21
274.41621380195056
  0
LINE
  8
_0-f_
  6
CONTINUOUS
 62
    7
 10
371.8195062965072
 20
274.49621380195049
 11
369.31549829650697
 21
274.49621380195049
  0
LINE
  8
_0-f_
  6
CONTINUOUS
 62
    7
 10
368.96349829650666
 20
274.49621380195049
 11
367.09951429650721
 21
274.49621380195049
  0
LINE
  8
_0-f_
  6
CONTINUOUS
 62
    7
 10
371.8195062965072
 20
274.57621380195053
 11
369.31549829650697
 21
274.57621380195053
  0
LINE
  8
_0-f_
  6
CONTINUOUS
 62
    7
 10
368.96349829650666
 20
274.57621380195053
 11
367.09951429650721
 21
274.57621380195053
  0
LINE
  8
_0-f_
  6
CONTINUOUS
 62
    7
 10
370.79951429650674
 20
274.65621380195051
 11
370.27951429650687
 21
274.65621380195057
  0
LINE
  8
_0-f_
  6
CONTINUOUS
 62
    7
 10
369.81549829650686
 20
274.65621380195057
 11
369.31549829650697
 21
274.65621380195057
  0
LINE
  8
_0-f_
  6
CONTINUOUS
 62
    7
 10
368.2955062965072
 20
274.65621380195057
 11
367.77549029650709
 21
274.65621380195057
  0
LINE
  8
_0-f_
  6
CONTINUOUS
 62
    7
 10
370.79951429650674
 20
274.7362138019505
 11
370.27951429650687
 21
274.7362138019505
  0
LINE
  8
_0-f_
  6
CONTINUOUS
 62
    7
 10
369.81549829650686
 20
274.7362138019505
 11
369.31549829650697
 21
274.7362138019505
  0
LINE
  8
_0-f_
  6
CONTINUOUS
 62
    7
 10
368.2955062965072
 20
274.7362138019505
 11
367.77549029650709
 21
274.7362138019505
  0
LINE
  8
_0-f_
  6
CONTINUOUS
 62
    7
 10
370.79951429650674
 20
274.81621380195054
 11
370.27951429650687
 21
274.81621380195054
  0
LINE
  8
_0-f_
  6
CONTINUOUS
 62
    7
 10
369.81549829650686
 20
274.81621380195054
 11
369.31549829650697
 21
274.81621380195054
  0
LINE
  8
_0-f_
  6
CONTINUOUS
 62
    7
 10
368.2955062965072
 20
274.81621380195054
 11
367.77549029650709
 21
274.81621380195054
  0
LINE
  8
_0-f_
  6
CONTINUOUS
 62
    7
 10
370.79951429650674
 20
274.89621380195058
 11
370.27951429650687
 21
274.89621380195058
  0
LINE
  8
_0-f_
  6
CONTINUOUS
 62
    7
 10
369.81549829650686
 20
274.89621380195058
 11
369.31549829650697
 21
274.89621380195058
  0
LINE
  8
_0-f_
  6
CONTINUOUS
 62
    7
 10
368.2955062965072
 20
274.89621380195058
 11
367.77549029650709
 21
274.89621380195058
  0
LINE
  8
_0-f_
  6
CONTINUOUS
 62
    7
 10
370.79951429650674
 20
274.97621380195056
 11
370.27951429650687
 21
274.97621380195056
  0
LINE
  8
_0-f_
  6
CONTINUOUS
 62
    7
 10
369.81549829650686
 20
274.97621380195056
 11
369.31549829650697
 21
274.97621380195056
  0
LINE
  8
_0-f_
  6
CONTINUOUS
 62
    7
 10
368.2955062965072
 20
274.97621380195056
 11
367.77549029650709
 21
274.97621380195056
  0
LINE
  8
_0-f_
  6
CONTINUOUS
 62
    7
 10
370.79951429650674
 20
275.05621380195055
 11
370.27951429650687
 21
275.05621380195055
  0
LINE
  8
_0-f_
  6
CONTINUOUS
 62
    7
 10
369.81549829650686
 20
275.05621380195055
 11
369.31549829650697
 21
275.05621380195055
  0
LINE
  8
_0-f_
  6
CONTINUOUS
 62
    7
 10
368.2955062965072
 20
275.05621380195055
 11
367.77549029650709
 21
275.05621380195055
  0
LINE
  8
_0-f_
  6
CONTINUOUS
 62
    7
 10
370.79951429650674
 20
275.13621380195059
 11
370.27951429650687
 21
275.13621380195059
  0
LINE
  8
_0-f_
  6
CONTINUOUS
 62
    7
 10
369.81549829650686
 20
275.13621380195059
 11
369.31549829650697
 21
275.13621380195059
  0
LINE
  8
_0-f_
  6
CONTINUOUS
 62
    7
 10
368.2955062965072
 20
275.13621380195059
 11
367.77549029650709
 21
275.13621380195059
  0
LINE
  8
_0-f_
  6
CONTINUOUS
 62
    7
 10
370.79951429650674
 20
275.21621380195052
 11
370.27951429650687
 21
275.21621380195052
  0
LINE
  8
_0-f_
  6
CONTINUOUS
 62
    7
 10
369.81549829650686
 20
275.21621380195052
 11
369.31549829650697
 21
275.21621380195052
  0
LINE
  8
_0-f_
  6
CONTINUOUS
 62
    7
 10
368.2955062965072
 20
275.21621380195052
 11
367.77549029650709
 21
275.21621380195052
  0
LINE
  8
_0-f_
  6
CONTINUOUS
 62
    7
 10
371.81950629650703
 20
273.13621380195053
 11
369.31549829650663
 21
273.13621380195053
  0
LINE
  8
_0-f_
  6
CONTINUOUS
 62
    7
 10
368.70046836365071
 20
273.13621380195053
 11
367.36325647210612
 21
273.13621380195053
  0
LINE
  8
_0-f_
  6
CONTINUOUS
 62
    7
 10
371.81950629650703
 20
273.05621380195055
 11
369.31549829650663
 21
273.05621380195055
  0
LINE
  8
_0-f_
  6
CONTINUOUS
 62
    7
 10
368.73312369802778
 20
273.05621380195055
 11
367.33001314930453
 21
273.05621380195055
  0
LINE
  8
_0-f_
  6
CONTINUOUS
 62
    7
 10
371.1108489125848
 20
272.97621380195051
 11
369.9684151046107
 21
272.97621380195051
  0
LINE
  8
_0-f_
  6
CONTINUOUS
 62
    7
 10
368.76577903240485
 20
272.97621380195051
 11
368.3148797235956
 21
272.97621380195051
  0
LINE
  8
_0-f_
  6
CONTINUOUS
 62
    7
 10
368.29550629650714
 20
272.97621380195051
 11
367.77549029650703
 21
272.97621380195051
  0
LINE
  8
_0-f_
  6
CONTINUOUS
 62
    7
 10
367.75722460817798
 20
272.97621380195051
 11
367.29676982650295
 21
272.97621380195051
  0
LINE
  8
_0-f_
  6
CONTINUOUS
 62
    7
 10
371.14431057993403
 20
272.89621380195047
 11
369.93544445668039
 21
272.89621380195047
  0
LINE
  8
_0-f_
  6
CONTINUOUS
 62
    7
 10
368.79843436678203
 20
272.89621380195047
 11
368.34538905759342
 21
272.89621380195047
  0
LINE
  8
_0-f_
  6
CONTINUOUS
 62
    7
 10
368.29550629650714
 20
272.89621380195047
 11
367.77549029650703
 21
272.89621380195047
  0
LINE
  8
_0-f_
  6
CONTINUOUS
 62
    7
 10
367.72510063995941
 20
272.89621380195047
 11
367.26352650370137
 21
272.89621380195047
  0
LINE
  8
_0-f_
  6
CONTINUOUS
 62
    7
 10
371.17777224728337
 20
272.81621380195054
 11
369.90247380875002
 21
272.81621380195054
  0
LINE
  8
_0-f_
  6
CONTINUOUS
 62
    7
 10
368.8310897011591
 20
272.81621380195054
 11
368.37589839159131
 21
272.81621380195054
  0
LINE
  8
_0-f_
  6
CONTINUOUS
 62
    7
 10
368.29550629650714
 20
272.81621380195054
 11
367.77549029650703
 21
272.81621380195054
  0
LINE
  8
_0-f_
  6
CONTINUOUS
 62
    7
 10
367.69297667174084
 20
272.81621380195054
 11
367.23028318089979
 21
272.81621380195054
  0
LINE
  8
_0-f_
  6
CONTINUOUS
 62
    7
 10
371.2112339146326
 20
272.7362138019505
 11
369.86950316081965
 21
272.7362138019505
  0
LINE
  8
_0-f_
  6
CONTINUOUS
 62
    7
 10
368.86374503553617
 20
272.7362138019505
 11
368.40640772558913
 21
272.7362138019505
  0
LINE
  8
_0-f_
  6
CONTINUOUS
 62
    7
 10
368.29550629650714
 20
272.7362138019505
 11
367.77549029650703
 21
272.7362138019505
  0
LINE
  8
_0-f_
  6
CONTINUOUS
 62
    7
 10
367.66085270352227
 20
272.7362138019505
 11
367.19703985809826
 21
272.7362138019505
  0
LINE
  8
_0-f_
  6
CONTINUOUS
 62
    7
 10
371.24469558198194
 20
272.65621380195057
 11
369.83653251288939
 21
272.65621380195046
  0
LINE
  8
_0-f_
  6
CONTINUOUS
 62
    7
 10
368.89640036991324
 20
272.65621380195046
 11
368.43691705958696
 21
272.65621380195046
  0
LINE
  8
_0-f_
  6
CONTINUOUS
 62
    7
 10
368.29550629650714
 20
272.65621380195046
 11
367.77549029650703
 21
272.65621380195046
  0
LINE
  8
_0-f_
  6
CONTINUOUS
 62
    7
 10
367.6287287353037
 20
272.65621380195057
 11
367.16379653529668
 21
272.65621380195046
  0
LINE
  8
_0-f_
  6
CONTINUOUS
 62
    7
 10
371.27815724933117
 20
272.57621380195053
 11
369.80356186495902
 21
272.57621380195053
  0
LINE
  8
_0-f_
  6
CONTINUOUS
 62
    7
 10
369.04350629650702
 20
272.57621380195053
 11
368.46742639358479
 21
272.57621380195053
  0
LINE
  8
_0-f_
  6
CONTINUOUS
 62
    7
 10
368.29550629650714
 20
272.57621380195053
 11
367.77549029650703
 21
272.57621380195053
  0
LINE
  8
_0-f_
  6
CONTINUOUS
 62
    7
 10
367.59660476708513
 20
272.57621380195053
 11
367.13055321249504
 21
272.57621380195053
  0
LINE
  8
_0-f_
  6
CONTINUOUS
 62
    7
 10
371.31161891668052
 20
272.49621380195049
 11
370.80586979554971
 21
272.49621380195049
  0
LINE
  8
_0-f_
  6
CONTINUOUS
 62
    7
 10
370.79951429650697
 20
272.49621380195049
 11
370.27951429650722
 21
272.49621380195049
  0
LINE
  8
_0-f_
  6
CONTINUOUS
 62
    7
 10
370.27329425289548
 20
272.49621380195049
 11
369.77059121702865
 21
272.49621380195049
  0
LINE
  8
_0-f_
  6
CONTINUOUS
 62
    7
 10
369.04350629650702
 20
272.49621380195049
 11
368.49793572758261
 21
272.49621380195049
  0
LINE
  8
_0-f_
  6
CONTINUOUS
 62
    7
 10
368.29550629650714
 20
272.49621380195049
 11
367.77549029650703
 21
272.49621380195049
  0
LINE
  8
_0-f_
  6
CONTINUOUS
 62
    7
 10
367.56448079886661
 20
272.49621380195049
 11
367.09730988969352
 21
272.49621380195049
  0
LINE
  8
_0-f_
  6
CONTINUOUS
 62
    7
 10
371.34508058402974
 20
272.41621380195051
 11
370.84018674502425
 21
272.41621380195051
  0
LINE
  8
_0-f_
  6
CONTINUOUS
 62
    7
 10
370.79951429650697
 20
272.41621380195051
 11
370.27951429650722
 21
272.41621380195051
  0
LINE
  8
_0-f_
  6
CONTINUOUS
 62
    7
 10
370.23956299686671
 20
272.41621380195051
 11
369.73762056909828
 21
272.41621380195051
  0
LINE
  8
_0-f_
  6
CONTINUOUS
 62
    7
 10
369.04350629650702
 20
272.41621380195051
 11
368.5284450615805
 21
272.41621380195051
  0
LINE
  8
_0-f_
  6
CONTINUOUS
 62
    7
 10
368.29550629650714
 20
272.41621380195051
 11
367.77549029650703
 21
272.41621380195051
  0
LINE
  8
_0-f_
  6
CONTINUOUS
 62
    7
 10
367.53235683064798
 20
272.41621380195051
 11
367.01950629650713
 21
272.41621380195051
  0
LINE
  8
_0-f_
  6
CONTINUOUS
 62
    7
 10
371.37854225137909
 20
272.33621380195052
 11
370.87450369449886
 21
272.33621380195052
  0
LINE
  8
_0-f_
  6
CONTINUOUS
 62
    7
 10
370.79951429650697
 20
272.33621380195052
 11
370.27951429650722
 21
272.33621380195052
  0
LINE
  8
_0-f_
  6
CONTINUOUS
 62
    7
 10
370.20583174083794
 20
272.33621380195052
 11
369.70464992116797
 21
272.33621380195052
  0
LINE
  8
_0-f_
  6
CONTINUOUS
 62
    7
 10
369.04350629650702
 20
272.33621380195052
 11
368.55895439557838
 21
272.33621380195052
  0
LINE
  8
_0-f_
  6
CONTINUOUS
 62
    7
 10
368.29550629650714
 20
272.33621380195052
 11
367.77549029650703
 21
272.33621380195052
  0
LINE
  8
_0-f_
  6
CONTINUOUS
 62
    7
 10
367.50023286242953
 20
272.33621380195052
 11
367.01950629650713
 21
272.33621380195052
  0
LINE
  8
_0-f_
  6
CONTINUOUS
 62
    7
 10
371.41200391872837
 20
272.25621380195048
 11
370.90882064397346
 21
272.25621380195048
  0
LINE
  8
_0-f_
  6
CONTINUOUS
 62
    7
 10
370.79951429650697
 20
272.25621380195048
 11
370.27951429650722
 21
272.25621380195048
  0
LINE
  8
_0-f_
  6
CONTINUOUS
 62
    7
 10
370.17210048480922
 20
272.25621380195048
 11
369.67167927323766
 21
272.25621380195048
  0
LINE
  8
_0-f_
  6
CONTINUOUS
 62
    7
 10
369.04350629650702
 20
272.25621380195048
 11
368.5961855531263
 21
272.25621380195048
  0
LINE
  8
_0-f_
  6
CONTINUOUS
 62
    7
 10
368.29550629650714
 20
272.25621380195048
 11
367.77549029650703
 21
272.25621380195048
  0
LINE
  8
_0-f_
  6
CONTINUOUS
 62
    7
 10
367.46810889421096
 20
272.25621380195048
 11
367.01950629650713
 21
272.25621380195048
  0
LINE
  8
_0-f_
  6
CONTINUOUS
 62
    7
 10
371.44546558607766
 20
272.17621380195055
 11
370.943137593448
 21
272.17621380195055
  0
LINE
  8
_0-f_
  6
CONTINUOUS
 62
    7
 10
370.79951429650697
 20
272.17621380195055
 11
370.27951429650722
 21
272.17621380195055
  0
LINE
  8
_0-f_
  6
CONTINUOUS
 62
    7
 10
370.13836922878045
 20
272.17621380195055
 11
369.63870862530734
 21
272.17621380195055
  0
LINE
  8
_0-f_
  6
CONTINUOUS
 62
    7
 10
369.04350629650702
 20
272.17621380195055
 11
368.70844804937451
 21
272.17621380195055
  0
LINE
  8
_0-f_
  6
CONTINUOUS
 62
    7
 10
368.29550629650714
 20
272.17621380195055
 11
367.77549029650703
 21
272.17621380195055
  0
LINE
  8
_0-f_
  6
CONTINUOUS
 62
    7
 10
367.43598492599239
 20
272.17621380195055
 11
367.01950629650713
 21
272.17621380195055
  0
LINE
  8
_0-f_
  6
CONTINUOUS
 62
    7
 10
371.47892725342695
 20
272.09621380195051
 11
370.97745454292254
 21
272.09621380195051
  0
LINE
  8
_0-f_
  6
CONTINUOUS
 62
    7
 10
370.79951429650697
 20
272.09621380195051
 11
370.27951429650722
 21
272.09621380195051
  0
LINE
  8
_0-f_
  6
CONTINUOUS
 62
    7
 10
370.10463797275168
 20
272.09621380195051
 11
369.60573797737703
 21
272.09621380195051
  0
LINE
  8
_0-f_
  6
CONTINUOUS
 62
    7
 10
368.29550629650714
 20
272.09621380195051
 11
367.77549029650703
 21
272.09621380195051
  0
LINE
  8
_0-f_
  6
CONTINUOUS
 62
    7
 10
367.40386095777382
 20
272.09621380195051
 11
367.01950629650713
 21
272.09621380195051
  0
LINE
  8
_0-f_
  6
CONTINUOUS
 62
    7
 10
371.51238892077623
 20
272.01621380195053
 11
371.01177149239714
 21
272.01621380195053
  0
LINE
  8
_0-f_
  6
CONTINUOUS
 62
    7
 10
370.79951429650697
 20
272.01621380195053
 11
370.27951429650722
 21
272.01621380195053
  0
LINE
  8
_0-f_
  6
CONTINUOUS
 62
    7
 10
370.0709067167229
 20
272.01621380195053
 11
369.57276732944666
 21
272.01621380195053
  0
LINE
  8
_0-f_
  6
CONTINUOUS
 62
    7
 10
368.29550629650714
 20
272.01621380195053
 11
367.77549029650703
 21
272.01621380195053
  0
LINE
  8
_0-f_
  6
CONTINUOUS
 62
    7
 10
367.34542372235916
 20
272.01621380195053
 11
367.01950629650713
 21
272.01621380195053
  0
LINE
  8
_0-f_
  6
CONTINUOUS
 62
    7
 10
371.54585058812552
 20
271.93621380195054
 11
371.04608844187175
 21
271.93621380195054
  0
LINE
  8
_0-f_
  6
CONTINUOUS
 62
    7
 10
370.79951429650697
 20
271.93621380195054
 11
370.27951429650722
 21
271.93621380195054
  0
LINE
  8
_0-f_
  6
CONTINUOUS
 62
    7
 10
370.03717546069413
 20
271.93621380195054
 11
369.53979668151635
 21
271.93621380195054
  0
LINE
  8
_0-f_
  6
CONTINUOUS
 62
    7
 10
368.29550629650714
 20
271.93621380195054
 11
367.77549029650703
 21
271.93621380195054
  0
LINE
  8
_0-f_
  6
CONTINUOUS
 62
    7
 10
371.57931225547486
 20
271.8562138019505
 11
371.08040539134635
 21
271.8562138019505
  0
LINE
  8
_0-f_
  6
CONTINUOUS
 62
    7
 10
370.79951429650697
 20
271.8562138019505
 11
370.27951429650722
 21
271.8562138019505
  0
LINE
  8
_0-f_
  6
CONTINUOUS
 62
    7
 10
370.00344420466541
 20
271.8562138019505
 11
369.50682603358604
 21
271.8562138019505
  0
LINE
  8
_0-f_
  6
CONTINUOUS
 62
    7
 10
368.29550629650714
 20
271.8562138019505
 11
367.77549029650703
 21
271.8562138019505
  0
LINE
  8
_0-f_
  6
CONTINUOUS
 62
    7
 10
371.61277392282415
 20
271.77621380195046
 11
371.11472234082089
 21
271.77621380195046
  0
LINE
  8
_0-f_
  6
CONTINUOUS
 62
    7
 10
370.79951429650697
 20
271.77621380195046
 11
370.27951429650722
 21
271.77621380195046
  0
LINE
  8
_0-f_
  6
CONTINUOUS
 62
    7
 10
369.96971294863664
 20
271.77621380195046
 11
369.47385538565567
 21
271.77621380195046
  0
LINE
  8
_0-f_
  6
CONTINUOUS
 62
    7
 10
368.29550629650714
 20
271.77621380195046
 11
367.77549029650703
 21
271.77621380195046
  0
LINE
  8
_0-f_
  6
CONTINUOUS
 62
    7
 10
371.65363348066757
 20
271.69621380195053
 11
371.14903929029543
 21
271.69621380195048
  0
LINE
  8
_0-f_
  6
CONTINUOUS
 62
    7
 10
370.79951429650697
 20
271.69621380195048
 11
370.27951429650722
 21
271.69621380195048
  0
LINE
  8
_0-f_
  6
CONTINUOUS
 62
    7
 10
369.93598169260787
 20
271.69621380195048
 11
369.43306084128653
 21
271.69621380195048
  0
LINE
  8
_0-f_
  6
CONTINUOUS
 62
    7
 10
368.29550629650714
 20
271.69621380195048
 11
367.77549029650703
 21
271.69621380195048
  0
LINE
  8
_0-f_
  6
CONTINUOUS
 62
    7
 10
371.81950629650652
 20
271.61621380195049
 11
371.18335623977003
 21
271.61621380195049
  0
LINE
  8
_0-f_
  6
CONTINUOUS
 62
    7
 10
370.79951429650697
 20
271.61621380195049
 11
370.27951429650722
 21
271.61621380195049
  0
LINE
  8
_0-f_
  6
CONTINUOUS
 62
    7
 10
369.9022504365791
 20
271.61621380195049
 11
369.28352229650744
 21
271.61621380195049
  0
LINE
  8
_0-f_
  6
CONTINUOUS
 62
    7
 10
368.29550629650714
 20
271.61621380195049
 11
367.77549029650703
 21
271.61621380195049
  0
LINE
  8
_0-f_
  6
CONTINUOUS
 62
    7
 10
371.81950629650652
 20
271.53621380195045
 11
371.21767318924464
 21
271.53621380195045
  0
LINE
  8
_0-f_
  6
CONTINUOUS
 62
    7
 10
370.79951429650697
 20
271.53621380195045
 11
370.27951429650722
 21
271.53621380195045
  0
LINE
  8
_0-f_
  6
CONTINUOUS
 62
    7
 10
369.86851918055032
 20
271.53621380195045
 11
369.28352229650744
 21
271.53621380195045
  0
LINE
  8
_0-f_
  6
CONTINUOUS
 62
    7
 10
368.29550629650714
 20
271.53621380195045
 11
367.77549029650703
 21
271.53621380195045
  0
LINE
  8
_0-f_
  6
CONTINUOUS
 62
    7
 10
371.81950629650652
 20
271.45621380195053
 11
371.25199013871924
 21
271.45621380195053
  0
LINE
  8
_0-f_
  6
CONTINUOUS
 62
    7
 10
370.79951429650697
 20
271.45621380195053
 11
370.27951429650722
 21
271.45621380195053
  0
LINE
  8
_0-f_
  6
CONTINUOUS
 62
    7
 10
369.83478792452155
 20
271.45621380195053
 11
369.28352229650744
 21
271.45621380195053
  0
LINE
  8
_0-f_
  6
CONTINUOUS
 62
    7
 10
368.29550629650714
 20
271.45621380195053
 11
367.77549029650703
 21
271.45621380195053
  0
LINE
  8
_0-f_
  6
CONTINUOUS
 62
    7
 10
371.81950629650652
 20
271.37621380195048
 11
371.28875603433215
 21
271.37621380195048
  0
LINE
  8
_0-f_
  6
CONTINUOUS
 62
    7
 10
370.79951429650697
 20
271.37621380195048
 11
370.27951429650722
 21
271.37621380195048
  0
LINE
  8
_0-f_
  6
CONTINUOUS
 62
    7
 10
369.79826661711553
 20
271.37621380195048
 11
369.28352229650744
 21
271.37621380195048
  0
LINE
  8
_0-f_
  6
CONTINUOUS
 62
    7
 10
368.29550629650714
 20
271.37621380195048
 11
367.77549029650703
 21
271.37621380195048
  0
LINE
  8
_0-f_
  6
CONTINUOUS
 62
    7
 10
371.81950629650652
 20
271.2962138019505
 11
371.36440936005869
 21
271.2962138019505
  0
LINE
  8
_0-f_
  6
CONTINUOUS
 62
    7
 10
370.79951429650697
 20
271.2962138019505
 11
370.27951429650722
 21
271.2962138019505
  0
LINE
  8
_0-f_
  6
CONTINUOUS
 62
    7
 10
369.72273637776465
 20
271.2962138019505
 11
369.28352229650744
 21
271.2962138019505
  0
LINE
  8
_0-f_
  6
CONTINUOUS
 62
    7
 10
368.29550629650714
 20
271.2962138019505
 11
367.77549029650703
 21
271.2962138019505
  0
LINE
  8
_0-f_
  6
CONTINUOUS
 62
    7
 10
369.31549829650697
 20
275.25625380195055
 11
369.81549829650697
 21
275.25625380195055
  0
LINE
  8
_0-f_
  6
CONTINUOUS
 62
    7
 10
370.2795142965071
 20
274.13633380195051
 11
369.31549829650697
 21
274.13633380195051
  0
LINE
  8
_0-f_
  6
CONTINUOUS
 62
    7
 10
370.2795142965071
 20
273.46445380195053
 11
369.31549829650697
 21
273.46445380195053
  0
LINE
  8
_0-f_
  6
CONTINUOUS
 62
    7
 10
369.31549829650697
 20
273.02441380195057
 11
369.98827991998871
 21
273.02441380195057
  0
LINE
  8
_0-f_
  6
CONTINUOUS
 62
    7
 10
369.98827991998871
 20
273.02441380195057
 11
369.45501063216022
 21
271.73048888071685
  0
ARC
  8
_0-f_
  6
CONTINUOUS
 62
    7
 10
369.59119207995394
 20
271.49621380195049
 40
0.2399999999999999
 50
270
 51
337.13773188217988
  0
LINE
  8
_0-f_
  6
CONTINUOUS
 62
    7
 10
367.77884787211002
 20
274.13633380195051
 11
367.09826962748167
 21
272.49852340931182
  0
LINE
  8
_0-f_
  6
CONTINUOUS
 62
    7
 10
368.2922277009356
 20
274.13633380195051
 11
368.87894020095672
 21
272.69898823813912
  0
LINE
  8
_0-f_
  6
CONTINUOUS
 62
    7
 10
367.77549029650703
 20
273.02170180195048
 11
367.40329637896826
 21
272.09480780179081
  0
LINE
  8
_0-f_
  6
CONTINUOUS
 62
    7
 10
367.01950629650702
 20
272.44922180195056
 11
367.01950629650702
 21
271.96933380195054
  0
LINE
  8
_0-f_
  6
CONTINUOUS
 62
    7
 10
367.01950629650702
 20
271.96933380195054
 11
367.21770037874143
 21
271.96933380195054
  0
ARC
  8
_0-f_
  6
CONTINUOUS
 62
    7
 10
367.21770037874143
 20
272.16933380195053
 40
0.2
 50
270
 51
338.12209204226036
  0
LINE
  8
_0-f_
  6
CONTINUOUS
 62
    7
 10
367.02439399760681
 20
272.44922180195056
 11
367.01950629650702
 21
272.44922180195056
  0
ARC
  8
_0-f_
  6
CONTINUOUS
 62
    7
 10
367.02439399760681
 20
272.52922180195048
 40
0.08
 50
270
 51
337.43508599410586
  0
ARC
  8
_0-f_
  6
CONTINUOUS
 62
    7
 10
368.76037404317191
 20
272.36933380195052
 40
0.2
 50
200.8751841896235
 51
270
  0
LINE
  8
_0-f_
  6
CONTINUOUS
 62
    7
 10
367.77549029650703
 20
271.25621380195054
 11
367.77549029650703
 21
273.02170180195048
  0
LINE
  8
_0-f_
  6
CONTINUOUS
 62
    7
 10
368.29550629650709
 20
271.25621380195054
 11
368.29550629650709
 21
273.02701380195049
  0
LINE
  8
_0-f_
  6
CONTINUOUS
 62
    7
 10
367.77549029650703
 20
271.25621380195054
 11
368.29550629650709
 21
271.25621380195054
  0
LINE
  8
_0-f_
  6
CONTINUOUS
 62
    7
 10
368.29550629650709
 20
273.02701380195049
 11
368.57350226393243
 21
272.29806713285564
  0
LINE
  8
_0-f_
  6
CONTINUOUS
 62
    7
 10
369.04350629650702
 20
272.16933380195053
 11
369.04350629650702
 21
272.64922180195055
  0
LINE
  8
_0-f_
  6
CONTINUOUS
 62
    7
 10
369.04350629650702
 20
272.16933380195053
 11
368.76037404317191
 21
272.16933380195053
  0
ARC
  8
_0-f_
  6
CONTINUOUS
 62
    7
 10
369.34406365573375
 20
271.77621380195058
 40
0.12
 50
270
 51
337.60181985621841
  0
LINE
  8
_0-f_
  6
CONTINUOUS
 62
    7
 10
369.2835222965071
 20
271.65621380195051
 11
369.34406365573375
 21
271.65621380195051
  0
LINE
  8
_0-f_
  6
CONTINUOUS
 62
    7
 10
369.2835222965071
 20
271.65621380195051
 11
369.2835222965071
 21
271.25621380195054
  0
LINE
  8
_0-f_
  6
CONTINUOUS
 62
    7
 10
369.2835222965071
 20
271.25621380195054
 11
369.59119207995394
 21
271.25621380195054
  0
LINE
  8
_0-f_
  6
CONTINUOUS
 62
    7
 10
369.04350629650702
 20
272.64922180195055
 11
368.95300727609316
 21
272.64922180195055
  0
ARC
  8
_0-f_
  6
CONTINUOUS
 62
    7
 10
368.95300727609316
 20
272.72922180195053
 40
0.08
 50
202.2048740517549
 51
270
  0
LINE
  8
_0-f_
  6
CONTINUOUS
 62
    7
 10
369.31549829650697
 20
273.02441380195057
 11
369.31549829650697
 21
273.46445380195053
  0
LINE
  8
_0-f_
  6
CONTINUOUS
 62
    7
 10
367.09951429650704
 20
274.57637380195052
 11
367.77549029650703
 21
274.57637380195052
  0
LINE
  8
_0-f_
  6
CONTINUOUS
 62
    7
 10
367.09951429650704
 20
274.13633380195051
 11
367.77884787211002
 21
274.13633380195051
  0
LINE
  8
_0-f_
  6
CONTINUOUS
 62
    7
 10
367.09951429650704
 20
274.57637380195052
 11
367.09951429650704
 21
274.13633380195051
  0
LINE
  8
_0-f_
  6
CONTINUOUS
 62
    7
 10
368.2922277009356
 20
274.13633380195051
 11
368.963498296507
 21
274.13633380195051
  0
LINE
  8
_0-f_
  6
CONTINUOUS
 62
    7
 10
368.29550629650709
 20
274.57637380195052
 11
368.963498296507
 21
274.57637380195052
  0
LINE
  8
_0-f_
  6
CONTINUOUS
 62
    7
 10
368.29550629650709
 20
274.57637380195052
 11
368.29550629650709
 21
275.25625380195055
  0
LINE
  8
_0-f_
  6
CONTINUOUS
 62
    7
 10
367.77549029650703
 20
274.57637380195052
 11
367.77549029650703
 21
275.25625380195055
  0
LINE
  8
_0-f_
  6
CONTINUOUS
 62
    7
 10
367.77549029650703
 20
274.1283258019505
 11
367.77549029650703
 21
274.13633380195051
  0
LINE
  8
_0-f_
  6
CONTINUOUS
 62
    7
 10
368.29550629650709
 20
274.1283258019505
 11
368.29550629650709
 21
274.13633380195051
  0
LINE
  8
_0-f_
  6
CONTINUOUS
 62
    7
 10
367.77549029650703
 20
275.25625380195055
 11
368.29550629650709
 21
275.25625380195055
  0
LINE
  8
_0-f_
  6
CONTINUOUS
 62
    7
 10
369.31549829650697
 20
274.13633380195051
 11
369.31549829650697
 21
275.25625380195055
  0
LINE
  8
_0-f_
  6
CONTINUOUS
 62
    7
 10
368.963498296507
 20
274.13633380195051
 11
368.963498296507
 21
274.57637380195052
  0
LINE
  8
_0-f_
  6
CONTINUOUS
 62
    7
 10
370.79951429650708
 20
274.13633380195051
 11
370.79951429650708
 21
273.46445380195053
  0
LINE
  8
_0-f_
  6
CONTINUOUS
 62
    7
 10
370.2795142965071
 20
274.13633380195051
 11
370.2795142965071
 21
273.46445380195053
  0
LINE
  8
_0-f_
  6
CONTINUOUS
 62
    7
 10
371.81950629650709
 20
273.46445380195053
 11
370.79951429650708
 21
273.46445380195053
  0
LINE
  8
_0-f_
  6
CONTINUOUS
 62
    7
 10
370.79951429650708
 20
272.51102980195054
 11
371.27541719641204
 21
271.40160042156208
  0
LINE
  8
_0-f_
  6
CONTINUOUS
 62
    7
 10
370.2795142965071
 20
272.51096580195053
 11
369.8123380307506
 21
271.40296966837491
  0
LINE
  8
_0-f_
  6
CONTINUOUS
 62
    7
 10
370.2795142965071
 20
272.51096580195053
 11
370.2795142965071
 21
271.25621380195054
  0
LINE
  8
_0-f_
  6
CONTINUOUS
 62
    7
 10
370.79951429650708
 20
272.51102980195054
 11
370.79951429650708
 21
271.25621380195054
  0
LINE
  8
_0-f_
  6
CONTINUOUS
 62
    7
 10
370.2795142965071
 20
271.25621380195054
 11
370.79951429650708
 21
271.25621380195054
  0
LINE
  8
_0-f_
  6
CONTINUOUS
 62
    7
 10
371.09068825800682
 20
273.02441380195057
 11
371.63214200603619
 21
271.72990867791736
  0
ARC
  8
_0-f_
  6
CONTINUOUS
 62
    7
 10
371.49598081138851
 20
271.49621380195049
 40
0.2399999999999999
 50
203.21748710460054
 51
270
  0
LINE
  8
_0-f_
  6
CONTINUOUS
 62
    7
 10
371.81950629650709
 20
271.25621380195054
 11
371.49598081138851
 21
271.25621380195054
  0
LINE
  8
_0-f_
  6
CONTINUOUS
 62
    7
 10
371.81950629650709
 20
271.65621380195051
 11
371.81950629650709
 21
271.25621380195054
  0
LINE
  8
_0-f_
  6
CONTINUOUS
 62
    7
 10
371.81950629650709
 20
271.65621380195051
 11
371.74284808305225
 21
271.65621380195051
  0
ARC
  8
_0-f_
  6
CONTINUOUS
 62
    7
 10
371.74284808305225
 20
271.77621380195058
 40
0.12
 50
202.6981362709997
 51
270
  0
LINE
  8
_0-f_
  6
CONTINUOUS
 62
    7
 10
371.09068825800682
 20
273.02441380195057
 11
371.81950629650709
 21
273.02441380195057
  0
LINE
  8
_0-f_
  6
CONTINUOUS
 62
    7
 10
371.81950629650709
 20
273.46445380195053
 11
371.81950629650709
 21
273.02441380195057
  0
LINE
  8
_0-f_
  6
CONTINUOUS
 62
    7
 10
371.81950629650709
 20
274.13633380195051
 11
370.79951429650708
 21
274.13633380195051
  0
LINE
  8
_0-f_
  6
CONTINUOUS
 62
    7
 10
371.81950629650709
 20
274.57637380195052
 11
370.79951429650708
 21
274.57637380195052
  0
LINE
  8
_0-f_
  6
CONTINUOUS
 62
    7
 10
370.79951429650708
 20
275.25625380195055
 11
370.79951429650708
 21
274.57637380195052
  0
LINE
  8
_0-f_
  6
CONTINUOUS
 62
    7
 10
370.2795142965071
 20
275.25625380195055
 11
370.2795142965071
 21
274.57637380195052
  0
LINE
  8
_0-f_
  6
CONTINUOUS
 62
    7
 10
369.81549829650697
 20
274.57637380195052
 11
369.81549829650697
 21
275.25625380195055
  0
LINE
  8
_0-f_
  6
CONTINUOUS
 62
    7
 10
370.2795142965071
 20
274.57637380195052
 11
369.81549829650697
 21
274.57637380195052
  0
LINE
  8
_0-f_
  6
CONTINUOUS
 62
    7
 10
370.2795142965071
 20
275.25625380195055
 11
370.79951429650708
 21
275.25625380195055
  0
LINE
  8
_0-f_
  6
CONTINUOUS
 62
    7
 10
371.81950629650709
 20
274.57637380195052
 11
371.81950629650709
 21
274.13633380195051
  0
LINE
  8
_0-f_
  6
CONTINUOUS
 62
    7
 10
374.99408454005538
 20
273.02441380195057
 11
374.99408454005538
 21
273.46445380195053
  0
LINE
  8
_0-f_
  6
CONTINUOUS
 62
    7
 10
374.99408454005538
 20
273.46445380195053
 11
372.59408454005546
 21
273.46445380195053
  0
LINE
  8
_0-f_
  6
CONTINUOUS
 62
    7
 10
372.59408454005546
 20
273.46445380195053
 11
372.59408454005546
 21
273.02441380195057
  0
LINE
  8
_0-f_
  6
CONTINUOUS
 62
    7
 10
372.59408454005546
 20
273.02441380195057
 11
373.35409254005549
 21
273.02441380195057
  0
LINE
  8
_0-f_
  6
CONTINUOUS
 62
    7
 10
373.35409254005549
 20
273.02441380195057
 11
373.35409254005549
 21
271.69629380195056
  0
LINE
  8
_0-f_
  6
CONTINUOUS
 62
    7
 10
373.35409254005549
 20
271.69629380195056
 11
372.59408454005546
 21
271.69629380195056
  0
LINE
  8
_0-f_
  6
CONTINUOUS
 62
    7
 10
372.59408454005546
 20
271.69629380195056
 11
372.59408454005546
 21
271.25621380195054
  0
LINE
  8
_0-f_
  6
CONTINUOUS
 62
    7
 10
372.59408454005546
 20
271.25621380195054
 11
374.08129254005547
 21
271.25621380195054
  0
ARC
  8
_0-f_
  6
CONTINUOUS
 62
    7
 10
374.08129254005547
 20
272.05621380195055
 40
0.8000000000000078
 50
270
 51
285.45094822953388
  0
LINE
  8
_0-f_
  6
CONTINUOUS
 62
    7
 10
374.29442317994148
 20
271.28512669251234
 11
374.99408454005538
 21
271.48709380195055
  0
LINE
  8
_0-f_
  6
CONTINUOUS
 62
    7
 10
374.99408454005538
 20
271.48709380195055
 11
374.99408454005538
 21
271.92717380195052
  0
LINE
  8
_0-f_
  6
CONTINUOUS
 62
    7
 10
374.99408454005538
 20
271.92717380195052
 11
374.19410854005554
 21
271.69629380195056
  0
LINE
  8
_0-f_
  6
CONTINUOUS
 62
    7
 10
374.19410854005554
 20
271.69629380195056
 11
374.09408454005535
 21
271.69629380195056
  0
LINE
  8
_0-f_
  6
CONTINUOUS
 62
    7
 10
374.09408454005535
 20
271.69629380195056
 11
374.09408454005535
 21
273.02441380195057
  0
LINE
  8
_0-f_
  6
CONTINUOUS
 62
    7
 10
374.09408454005535
 20
273.02441380195057
 11
374.99408454005538
 21
273.02441380195057
  0
LINE
  8
_0-f_
  6
CONTINUOUS
 62
    7
 10
376.06805127361707
 20
274.57637380195052
 11
375.91161314119523
 21
275.25625380195055
  0
LINE
  8
_0-f_
  6
CONTINUOUS
 62
    7
 10
375.91161314119523
 20
275.25625380195055
 11
375.07289488138821
 21
275.25625380195055
  0
LINE
  8
_0-f_
  6
CONTINUOUS
 62
    7
 10
375.07289488138821
 20
275.25625380195055
 11
375.23095427015926
 21
274.57637380195052
  0
LINE
  8
_0-f_
  6
CONTINUOUS
 62
    7
 10
375.23095427015926
 20
274.57637380195052
 11
372.59408454005546
 21
274.57637380195052
  0
LINE
  8
_0-f_
  6
CONTINUOUS
 62
    7
 10
372.59408454005546
 20
274.57637380195052
 11
372.59408454005546
 21
274.13633380195051
  0
LINE
  8
_0-f_
  6
CONTINUOUS
 62
    7
 10
372.59408454005546
 20
274.13633380195051
 11
375.3332553430468
 21
274.13633380195051
  0
LINE
  8
_0-f_
  6
CONTINUOUS
 62
    7
 10
375.3332553430468
 20
274.13633380195051
 11
375.91650731991086
 21
271.62752140482905
  0
ARC
  8
_0-f_
  6
CONTINUOUS
 62
    7
 10
376.38403909723507
 20
271.7362138019505
 40
0.4800000000000017
 50
193.0877165037698
 51
270
  0
LINE
  8
_0-f_
  6
CONTINUOUS
 62
    7
 10
376.38403909723507
 20
271.25621380195054
 11
377.39408454005547
 21
271.25621380195054
  0
LINE
  8
_0-f_
  6
CONTINUOUS
 62
    7
 10
377.39408454005547
 20
271.25621380195054
 11
377.39408454005547
 21
271.69629380195056
  0
LINE
  8
_0-f_
  6
CONTINUOUS
 62
    7
 10
377.39408454005547
 20
271.69629380195056
 11
376.79750171909581
 21
271.69629380195056
  0
ARC
  8
_0-f_
  6
CONTINUOUS
 62
    7
 10
376.79410854005545
 20
271.77621380195058
 40
0.0799919999999998
 50
267.56884201629123
 51
272.43115798371281
  0
LINE
  8
_0-f_
  6
CONTINUOUS
 62
    7
 10
376.7907153610152
 20
271.69629380195056
 11
376.73074812662895
 21
271.69629380195056
  0
LINE
  8
_0-f_
  6
CONTINUOUS
 62
    7
 10
376.73074812662895
 20
271.69629380195056
 11
376.7180822800471
 21
271.75133956119555
  0
ARC
  8
_0-f_
  6
CONTINUOUS
 62
    7
 10
376.79410854005545
 20
271.77621380195058
 40
0.0799919999999998
 50
187.79901102615551
 51
198.1170401314526
  0
LINE
  8
_0-f_
  6
CONTINUOUS
 62
    7
 10
376.71485645142576
 20
271.7653590098372
 11
376.16930301773505
 21
274.13633380195051
  0
LINE
  8
_0-f_
  6
CONTINUOUS
 62
    7
 10
376.16930301773505
 20
274.13633380195051
 11
377.39408454005547
 21
274.13633380195051
  0
LINE
  8
_0-f_
  6
CONTINUOUS
 62
    7
 10
377.39408454005547
 20
274.13633380195051
 11
377.39408454005547
 21
274.57637380195052
  0
LINE
  8
_0-f_
  6
CONTINUOUS
 62
    7
 10
377.39408454005547
 20
274.57637380195052
 11
376.06805127361707
 21
274.57637380195052
  0
LINE
  8
_0-f_
  6
CONTINUOUS
 62
    7
 10
377.07409254005546
 20
275.25625380195055
 11
376.55409254005548
 21
275.25625380195055
  0
LINE
  8
_0-f_
  6
CONTINUOUS
 62
    7
 10
376.55409254005548
 20
275.25625380195055
 11
376.55409254005548
 21
274.90019780195053
  0
LINE
  8
_0-f_
  6
CONTINUOUS
 62
    7
 10
376.55409254005548
 20
274.90019780195053
 11
377.07409254005546
 21
274.90019780195053
  0
LINE
  8
_0-f_
  6
CONTINUOUS
 62
    7
 10
377.07409254005546
 20
274.90019780195053
 11
377.07409254005546
 21
275.25625380195055
  0
LINE
  8
_0-f_
  6
CONTINUOUS
 62
    7
 10
376.38101957713383
 20
273.21621380195052
 11
375.54716604022286
 21
273.21621380195052
  0
LINE
  8
_0-f_
  6
CONTINUOUS
 62
    7
 10
374.9940845400551
 20
273.21621380195052
 11
372.59408454005558
 21
273.21621380195052
  0
LINE
  8
_0-f_
  6
CONTINUOUS
 62
    7
 10
376.36261184254278
 20
273.29621380195056
 11
375.52856753592556
 21
273.29621380195056
  0
LINE
  8
_0-f_
  6
CONTINUOUS
 62
    7
 10
374.9940845400551
 20
273.29621380195056
 11
372.59408454005558
 21
273.29621380195056
  0
LINE
  8
_0-f_
  6
CONTINUOUS
 62
    7
 10
376.34420410795173
 20
273.37621380195048
 11
375.5099690316282
 21
273.37621380195048
  0
LINE
  8
_0-f_
  6
CONTINUOUS
 62
    7
 10
374.9940845400551
 20
273.37621380195048
 11
372.59408454005558
 21
273.37621380195048
  0
LINE
  8
_0-f_
  6
CONTINUOUS
 62
    7
 10
376.32579637336067
 20
273.45621380195053
 11
375.49137052733084
 21
273.45621380195053
  0
LINE
  8
_0-f_
  6
CONTINUOUS
 62
    7
 10
374.9940845400551
 20
273.45621380195053
 11
372.59408454005558
 21
273.45621380195053
  0
LINE
  8
_0-f_
  6
CONTINUOUS
 62
    7
 10
376.30738863876962
 20
273.53621380195051
 11
375.47277202303343
 21
273.53621380195051
  0
LINE
  8
_0-f_
  6
CONTINUOUS
 62
    7
 10
376.28898090417863
 20
273.61621380195049
 11
375.45417351873613
 21
273.61621380195049
  0
LINE
  8
_0-f_
  6
CONTINUOUS
 62
    7
 10
376.27057316958758
 20
273.69621380195053
 11
375.43557501443877
 21
273.69621380195053
  0
LINE
  8
_0-f_
  6
CONTINUOUS
 62
    7
 10
376.25216543499658
 20
273.77621380195058
 11
375.41697651014141
 21
273.77621380195058
  0
LINE
  8
_0-f_
  6
CONTINUOUS
 62
    7
 10
376.23375770040553
 20
273.85621380195056
 11
375.39837800584411
 21
273.85621380195056
  0
LINE
  8
_0-f_
  6
CONTINUOUS
 62
    7
 10
376.21534996581448
 20
273.93621380195054
 11
375.37977950154669
 21
273.93621380195054
  0
LINE
  8
_0-f_
  6
CONTINUOUS
 62
    7
 10
376.19694223122343
 20
274.01621380195058
 11
375.36118099724933
 21
274.01621380195058
  0
LINE
  8
_0-f_
  6
CONTINUOUS
 62
    7
 10
376.17853449663244
 20
274.09621380195051
 11
375.34258249295198
 21
274.09621380195051
  0
LINE
  8
_0-f_
  6
CONTINUOUS
 62
    7
 10
377.39408454005553
 20
274.17621380195055
 11
372.59408454005523
 21
274.17621380195055
  0
LINE
  8
_0-f_
  6
CONTINUOUS
 62
    7
 10
377.39408454005553
 20
274.25621380195054
 11
372.59408454005523
 21
274.25621380195054
  0
LINE
  8
_0-f_
  6
CONTINUOUS
 62
    7
 10
377.39408454005553
 20
274.33621380195052
 11
372.59408454005523
 21
274.33621380195052
  0
LINE
  8
_0-f_
  6
CONTINUOUS
 62
    7
 10
377.39408454005553
 20
274.41621380195056
 11
372.59408454005523
 21
274.41621380195056
  0
LINE
  8
_0-f_
  6
CONTINUOUS
 62
    7
 10
377.39408454005553
 20
274.49621380195049
 11
372.59408454005523
 21
274.49621380195049
  0
LINE
  8
_0-f_
  6
CONTINUOUS
 62
    7
 10
377.39408454005553
 20
274.57621380195053
 11
372.59408454005523
 21
274.57621380195053
  0
LINE
  8
_0-f_
  6
CONTINUOUS
 62
    7
 10
376.04968035449502
 20
274.65621380195051
 11
375.21239296287064
 21
274.65621380195057
  0
LINE
  8
_0-f_
  6
CONTINUOUS
 62
    7
 10
376.03127261990397
 20
274.7362138019505
 11
375.19379445857322
 21
274.7362138019505
  0
LINE
  8
_0-f_
  6
CONTINUOUS
 62
    7
 10
376.01286488531292
 20
274.81621380195054
 11
375.17519595427592
 21
274.81621380195054
  0
LINE
  8
_0-f_
  6
CONTINUOUS
 62
    7
 10
375.99445715072193
 20
274.89621380195058
 11
375.15659744997862
 21
274.89621380195058
  0
LINE
  8
_0-f_
  6
CONTINUOUS
 62
    7
 10
377.07409254005546
 20
274.97621380195056
 11
376.55409254005474
 21
274.97621380195056
  0
LINE
  8
_0-f_
  6
CONTINUOUS
 62
    7
 10
375.97604941613088
 20
274.97621380195056
 11
375.1379989456812
 21
274.97621380195056
  0
LINE
  8
_0-f_
  6
CONTINUOUS
 62
    7
 10
377.07409254005546
 20
275.05621380195055
 11
376.55409254005474
 21
275.05621380195055
  0
LINE
  8
_0-f_
  6
CONTINUOUS
 62
    7
 10
375.95764168153988
 20
275.05621380195055
 11
375.1194004413839
 21
275.05621380195055
  0
LINE
  8
_0-f_
  6
CONTINUOUS
 62
    7
 10
377.07409254005546
 20
275.13621380195059
 11
376.55409254005474
 21
275.13621380195059
  0
LINE
  8
_0-f_
  6
CONTINUOUS
 62
    7
 10
375.93923394694883
 20
275.13621380195059
 11
375.10080193708649
 21
275.13621380195059
  0
LINE
  8
_0-f_
  6
CONTINUOUS
 62
    7
 10
377.07409254005546
 20
275.21621380195052
 11
376.55409254005474
 21
275.21621380195052
  0
LINE
  8
_0-f_
  6
CONTINUOUS
 62
    7
 10
375.92082621235778
 20
275.21621380195052
 11
375.08220343278913
 21
275.21621380195052
  0
LINE
  8
_0-f_
  6
CONTINUOUS
 62
    7
 10
376.39942731172488
 20
273.13621380195053
 11
375.56576454452028
 21
273.13621380195053
  0
LINE
  8
_0-f_
  6
CONTINUOUS
 62
    7
 10
374.9940845400551
 20
273.13621380195053
 11
372.59408454005558
 21
273.13621380195053
  0
LINE
  8
_0-f_
  6
CONTINUOUS
 62
    7
 10
376.41783504631593
 20
273.05621380195055
 11
375.58436304881758
 21
273.05621380195055
  0
LINE
  8
_0-f_
  6
CONTINUOUS
 62
    7
 10
374.9940845400551
 20
273.05621380195055
 11
372.59408454005558
 21
273.05621380195055
  0
LINE
  8
_0-f_
  6
CONTINUOUS
 62
    7
 10
376.43624278090692
 20
272.97621380195051
 11
375.60296155311494
 21
272.97621380195051
  0
LINE
  8
_0-f_
  6
CONTINUOUS
 62
    7
 10
374.09408454005523
 20
272.97621380195051
 11
373.3540925400556
 21
272.97621380195051
  0
LINE
  8
_0-f_
  6
CONTINUOUS
 62
    7
 10
376.45465051549792
 20
272.89621380195047
 11
375.6215600574123
 21
272.89621380195047
  0
LINE
  8
_0-f_
  6
CONTINUOUS
 62
    7
 10
374.09408454005523
 20
272.89621380195047
 11
373.3540925400556
 21
272.89621380195047
  0
LINE
  8
_0-f_
  6
CONTINUOUS
 62
    7
 10
376.47305825008897
 20
272.81621380195054
 11
375.64015856170971
 21
272.81621380195054
  0
LINE
  8
_0-f_
  6
CONTINUOUS
 62
    7
 10
374.09408454005523
 20
272.81621380195054
 11
373.3540925400556
 21
272.81621380195054
  0
LINE
  8
_0-f_
  6
CONTINUOUS
 62
    7
 10
376.49146598468002
 20
272.7362138019505
 11
375.65875706600701
 21
272.7362138019505
  0
LINE
  8
_0-f_
  6
CONTINUOUS
 62
    7
 10
374.09408454005523
 20
272.7362138019505
 11
373.3540925400556
 21
272.7362138019505
  0
LINE
  8
_0-f_
  6
CONTINUOUS
 62
    7
 10
376.50987371927107
 20
272.65621380195046
 11
375.67735557030443
 21
272.65621380195046
  0
LINE
  8
_0-f_
  6
CONTINUOUS
 62
    7
 10
374.09408454005523
 20
272.65621380195046
 11
373.3540925400556
 21
272.65621380195046
  0
LINE
  8
_0-f_
  6
CONTINUOUS
 62
    7
 10
376.52828145386212
 20
272.57621380195053
 11
375.69595407460173
 21
272.57621380195053
  0
LINE
  8
_0-f_
  6
CONTINUOUS
 62
    7
 10
374.09408454005523
 20
272.57621380195053
 11
373.3540925400556
 21
272.57621380195053
  0
LINE
  8
_0-f_
  6
CONTINUOUS
 62
    7
 10
376.54668918845312
 20
272.49621380195049
 11
375.71455257889909
 21
272.49621380195049
  0
LINE
  8
_0-f_
  6
CONTINUOUS
 62
    7
 10
374.09408454005523
 20
272.49621380195049
 11
373.3540925400556
 21
272.49621380195049
  0
LINE
  8
_0-f_
  6
CONTINUOUS
 62
    7
 10
376.56509692304417
 20
272.41621380195051
 11
375.73315108319645
 21
272.41621380195051
  0
LINE
  8
_0-f_
  6
CONTINUOUS
 62
    7
 10
374.09408454005523
 20
272.41621380195051
 11
373.3540925400556
 21
272.41621380195051
  0
LINE
  8
_0-f_
  6
CONTINUOUS
 62
    7
 10
376.58350465763516
 20
272.33621380195052
 11
375.7517495874938
 21
272.33621380195052
  0
LINE
  8
_0-f_
  6
CONTINUOUS
 62
    7
 10
374.09408454005523
 20
272.33621380195052
 11
373.3540925400556
 21
272.33621380195052
  0
LINE
  8
_0-f_
  6
CONTINUOUS
 62
    7
 10
376.60191239222621
 20
272.25621380195048
 11
375.77034809179116
 21
272.25621380195048
  0
LINE
  8
_0-f_
  6
CONTINUOUS
 62
    7
 10
374.09408454005523
 20
272.25621380195048
 11
373.3540925400556
 21
272.25621380195048
  0
LINE
  8
_0-f_
  6
CONTINUOUS
 62
    7
 10
376.62032012681726
 20
272.17621380195055
 11
375.78894659608852
 21
272.17621380195055
  0
LINE
  8
_0-f_
  6
CONTINUOUS
 62
    7
 10
374.09408454005523
 20
272.17621380195055
 11
373.3540925400556
 21
272.17621380195055
  0
LINE
  8
_0-f_
  6
CONTINUOUS
 62
    7
 10
376.63872786140826
 20
272.09621380195051
 11
375.80754510038588
 21
272.09621380195051
  0
LINE
  8
_0-f_
  6
CONTINUOUS
 62
    7
 10
374.09408454005523
 20
272.09621380195051
 11
373.3540925400556
 21
272.09621380195051
  0
LINE
  8
_0-f_
  6
CONTINUOUS
 62
    7
 10
376.65713559599931
 20
272.01621380195053
 11
375.82614360468318
 21
272.01621380195053
  0
LINE
  8
_0-f_
  6
CONTINUOUS
 62
    7
 10
374.09408454005523
 20
272.01621380195053
 11
373.3540925400556
 21
272.01621380195053
  0
LINE
  8
_0-f_
  6
CONTINUOUS
 62
    7
 10
376.6755433305903
 20
271.93621380195054
 11
375.84474210898054
 21
271.93621380195054
  0
LINE
  8
_0-f_
  6
CONTINUOUS
 62
    7
 10
374.09408454005523
 20
271.93621380195054
 11
373.3540925400556
 21
271.93621380195054
  0
LINE
  8
_0-f_
  6
CONTINUOUS
 62
    7
 10
376.69395106518135
 20
271.8562138019505
 11
375.8633406132779
 21
271.8562138019505
  0
LINE
  8
_0-f_
  6
CONTINUOUS
 62
    7
 10
374.99408454005567
 20
271.8562138019505
 11
374.74821527047862
 21
271.8562138019505
  0
LINE
  8
_0-f_
  6
CONTINUOUS
 62
    7
 10
374.09408454005523
 20
271.8562138019505
 11
373.3540925400556
 21
271.8562138019505
  0
LINE
  8
_0-f_
  6
CONTINUOUS
 62
    7
 10
376.7123587997724
 20
271.77621380195046
 11
375.88193911757531
 21
271.77621380195046
  0
LINE
  8
_0-f_
  6
CONTINUOUS
 62
    7
 10
374.99408454005567
 20
271.77621380195046
 11
374.47102330928675
 21
271.77621380195046
  0
LINE
  8
_0-f_
  6
CONTINUOUS
 62
    7
 10
374.09408454005523
 20
271.77621380195046
 11
373.3540925400556
 21
271.77621380195046
  0
LINE
  8
_0-f_
  6
CONTINUOUS
 62
    7
 10
377.39408454005547
 20
271.69621380195048
 11
375.90053762187262
 21
271.69621380195048
  0
LINE
  8
_0-f_
  6
CONTINUOUS
 62
    7
 10
374.99408454005567
 20
271.69621380195048
 11
372.59408454005546
 21
271.69621380195048
  0
LINE
  8
_0-f_
  6
CONTINUOUS
 62
    7
 10
377.39408454005547
 20
271.61621380195049
 11
375.92009231274409
 21
271.61621380195049
  0
LINE
  8
_0-f_
  6
CONTINUOUS
 62
    7
 10
374.99408454005567
 20
271.61621380195049
 11
372.59408454005546
 21
271.61621380195049
  0
LINE
  8
_0-f_
  6
CONTINUOUS
 62
    7
 10
377.39408454005547
 20
271.53621380195045
 11
375.94903077077635
 21
271.53621380195045
  0
LINE
  8
_0-f_
  6
CONTINUOUS
 62
    7
 10
374.99408454005567
 20
271.53621380195045
 11
372.59408454005546
 21
271.53621380195045
  0
LINE
  8
_0-f_
  6
CONTINUOUS
 62
    7
 10
377.39408454005547
 20
271.45621380195053
 11
375.99598671021664
 21
271.45621380195053
  0
LINE
  8
_0-f_
  6
CONTINUOUS
 62
    7
 10
374.88710898913286
 20
271.45621380195053
 11
372.59408454005546
 21
271.45621380195053
  0
LINE
  8
_0-f_
  6
CONTINUOUS
 62
    7
 10
377.39408454005547
 20
271.37621380195048
 11
376.06698347333901
 21
271.37621380195048
  0
LINE
  8
_0-f_
  6
CONTINUOUS
 62
    7
 10
374.60997025617377
 20
271.37621380195048
 11
372.59408454005546
 21
271.37621380195048
  0
LINE
  8
_0-f_
  6
CONTINUOUS
 62
    7
 10
377.39408454005547
 20
271.2962138019505
 11
376.19306115353464
 21
271.2962138019505
  0
LINE
  8
_0-f_
  6
CONTINUOUS
 62
    7
 10
374.33283152321468
 20
271.2962138019505
 11
372.59408454005546
 21
271.2962138019505
  0
LINE
  8
_0-f_
  6
CONTINUOUS
 62
    7
 10
376.06805127361707
 20
274.57637380195052
 11
377.39408454005547
 21
274.57637380195052
  0
LINE
  8
_0-f_
  6
CONTINUOUS
 62
    7
 10
376.38403909723507
 20
271.25621380195054
 11
377.39408454005547
 21
271.25621380195054
  0
LINE
  8
_0-f_
  6
CONTINUOUS
 62
    7
 10
376.73074812662895
 20
271.69629380195056
 11
377.39408454005547
 21
271.69629380195056
  0
LINE
  8
_0-f_
  6
CONTINUOUS
 62
    7
 10
376.16930301773505
 20
274.13633380195051
 11
377.39408454005547
 21
274.13633380195051
  0
LINE
  8
_0-f_
  6
CONTINUOUS
 62
    7
 10
376.55409254005548
 20
275.25625380195055
 11
377.07409254005546
 21
275.25625380195055
  0
LINE
  8
_0-f_
  6
CONTINUOUS
 62
    7
 10
377.07409254005546
 20
274.90019780195053
 11
376.55409254005548
 21
274.90019780195053
  0
LINE
  8
_0-f_
  6
CONTINUOUS
 62
    7
 10
375.3332553430468
 20
274.13633380195051
 11
375.91650731991086
 21
271.62752140482905
  0
LINE
  8
_0-f_
  6
CONTINUOUS
 62
    7
 10
376.16930301773505
 20
274.13633380195051
 11
376.73074812662895
 21
271.69629380195056
  0
LINE
  8
_0-f_
  6
CONTINUOUS
 62
    7
 10
374.09408454005535
 20
273.02441380195057
 11
374.99408454005538
 21
273.02441380195057
  0
LINE
  8
_0-f_
  6
CONTINUOUS
 62
    7
 10
374.99408454005538
 20
273.46445380195053
 11
372.59408454005546
 21
273.46445380195053
  0
LINE
  8
_0-f_
  6
CONTINUOUS
 62
    7
 10
374.30290054005553
 20
271.28757380195054
 11
374.99408454005538
 21
271.48709380195055
  0
LINE
  8
_0-f_
  6
CONTINUOUS
 62
    7
 10
374.19410854005559
 20
271.69629380195056
 11
374.99408454005538
 21
271.92717380195052
  0
LINE
  8
_0-f_
  6
CONTINUOUS
 62
    7
 10
372.59408454005546
 20
271.25621380195054
 11
374.08129254005547
 21
271.25621380195054
  0
LINE
  8
_0-f_
  6
CONTINUOUS
 62
    7
 10
373.35409254005549
 20
273.02441380195057
 11
373.35409254005549
 21
271.69629380195056
  0
LINE
  8
_0-f_
  6
CONTINUOUS
 62
    7
 10
373.35409254005549
 20
271.69629380195056
 11
372.59408454005546
 21
271.69629380195056
  0
LINE
  8
_0-f_
  6
CONTINUOUS
 62
    7
 10
372.59408454005546
 20
271.69629380195056
 11
372.59408454005546
 21
271.25621380195054
  0
LINE
  8
_0-f_
  6
CONTINUOUS
 62
    7
 10
372.59408454005546
 20
273.02441380195057
 11
373.35409254005549
 21
273.02441380195057
  0
LINE
  8
_0-f_
  6
CONTINUOUS
 62
    7
 10
372.59408454005546
 20
273.46445380195053
 11
372.59408454005546
 21
273.02441380195057
  0
LINE
  8
_0-f_
  6
CONTINUOUS
 62
    7
 10
374.09408454005535
 20
271.69629380195056
 11
374.09408454005535
 21
273.02441380195057
  0
ARC
  8
_0-f_
  6
CONTINUOUS
 62
    7
 10
374.08129254005547
 20
272.05621380195055
 40
0.8000000000000001
 50
270
 51
286.10199
  0
LINE
  8
_0-f_
  6
CONTINUOUS
 62
    7
 10
374.19410854005559
 20
271.69629380195056
 11
374.09408454005535
 21
271.69629380195056
  0
LINE
  8
_0-f_
  6
CONTINUOUS
 62
    7
 10
374.99408454005538
 20
271.92717380195052
 11
374.99408454005538
 21
271.48709380195055
  0
LINE
  8
_0-f_
  6
CONTINUOUS
 62
    7
 10
374.99408454005538
 20
273.02441380195057
 11
374.99408454005538
 21
273.46445380195053
  0
ARC
  8
_0-f_
  6
CONTINUOUS
 62
    7
 10
376.38403909723507
 20
271.7362138019505
 40
0.4799999999999999
 50
193.08771650376977
 51
269.99999999999972
  0
ARC
  8
_0-f_
  6
CONTINUOUS
 62
    7
 10
376.79410854005545
 20
271.77621380195058
 40
0.0799919999999998
 50
192.96201000000002
 51
270
  0
LINE
  8
_0-f_
  6
CONTINUOUS
 62
    7
 10
372.59408454005546
 20
274.57637380195052
 11
375.23095427015926
 21
274.57637380195052
  0
LINE
  8
_0-f_
  6
CONTINUOUS
 62
    7
 10
372.59408454005546
 20
274.13633380195051
 11
375.3332553430468
 21
274.13633380195051
  0
LINE
  8
_0-f_
  6
CONTINUOUS
 62
    7
 10
372.59408454005546
 20
274.57637380195052
 11
372.59408454005546
 21
274.13633380195051
  0
LINE
  8
_0-f_
  6
CONTINUOUS
 62
    7
 10
375.07289488138821
 20
275.25625380195055
 11
375.91161314119523
 21
275.25625380195055
  0
LINE
  8
_0-f_
  6
CONTINUOUS
 62
    7
 10
375.07289488138821
 20
275.25625380195055
 11
375.23095427015926
 21
274.57637380195052
  0
LINE
  8
_0-f_
  6
CONTINUOUS
 62
    7
 10
375.91161314119523
 20
275.25625380195055
 11
376.06805127361707
 21
274.57637380195052
  0
LINE
  8
_0-f_
  6
CONTINUOUS
 62
    7
 10
376.55409254005548
 20
275.25625380195055
 11
376.55409254005548
 21
274.90019780195053
  0
LINE
  8
_0-f_
  6
CONTINUOUS
 62
    7
 10
377.39408454005547
 20
271.69629380195056
 11
377.39408454005547
 21
271.25621380195054
  0
LINE
  8
_0-f_
  6
CONTINUOUS
 62
    7
 10
377.39408454005547
 20
271.69629380195056
 11
377.39408454005547
 21
271.25621380195054
  0
LINE
  8
_0-f_
  6
CONTINUOUS
 62
    7
 10
377.39408454005547
 20
274.57637380195052
 11
377.39408454005547
 21
274.13633380195051
  0
LINE
  8
_0-f_
  6
CONTINUOUS
 62
    7
 10
377.07409254005546
 20
275.25629380195051
 11
377.07409254005546
 21
274.90024580195052
  0
LINE
  8
_0-f_
  6
CONTINUOUS
 62
    7
 10
380.64816030958065
 20
274.81397884280443
 11
382.90056517723912
 21
274.25626180195059
  0
LINE
  8
_0-f_
  6
CONTINUOUS
 62
    7
 10
382.90056517723912
 20
274.25626180195059
 11
382.90056517723912
 21
274.69629380195056
  0
LINE
  8
_0-f_
  6
CONTINUOUS
 62
    7
 10
382.90056517723912
 20
274.69629380195056
 11
380.77590228676212
 21
275.22423336485491
  0
ARC
  8
_0-f_
  6
CONTINUOUS
 62
    7
 10
380.50054117723914
 20
274.05625380195056
 40
1.1999999999999964
 50
76.734271344360408
 51
103.26596249111499
  0
LINE
  8
_0-f_
  6
CONTINUOUS
 62
    7
 10
380.2251753009615
 20
275.2242322410417
 11
378.10054117723911
 21
274.69630980195052
  0
LINE
  8
_0-f_
  6
CONTINUOUS
 62
    7
 10
378.10054117723911
 20
274.69630980195052
 11
378.10054117723911
 21
274.25625380195049
  0
LINE
  8
_0-f_
  6
CONTINUOUS
 62
    7
 10
378.10054117723911
 20
274.25625380195049
 11
380.34075656855339
 21
274.81075464627736
  0
ARC
  8
_0-f_
  6
CONTINUOUS
 62
    7
 10
380.5005411772392
 20
274.23242180195052
 40
0.5999999999999982
 50
75.757176751039125
 51
105.44466990909265
  0
LINE
  8
_0-f_
  6
CONTINUOUS
 62
    7
 10
382.20614917723907
 20
274.08828580195052
 11
378.79494917723895
 21
274.08828580195052
  0
LINE
  8
_0-f_
  6
CONTINUOUS
 62
    7
 10
378.79494917723895
 20
274.08828580195052
 11
378.79494917723895
 21
273.64824580195057
  0
LINE
  8
_0-f_
  6
CONTINUOUS
 62
    7
 10
378.79494917723895
 20
273.64824580195057
 11
382.20614917723907
 21
273.64824580195057
  0
LINE
  8
_0-f_
  6
CONTINUOUS
 62
    7
 10
382.20614917723907
 20
273.64824580195057
 11
382.20614917723907
 21
274.08828580195052
  0
LINE
  8
_0-f_
  6
CONTINUOUS
 62
    7
 10
382.90056517723912
 20
273.16816580195052
 11
378.10054117723905
 21
273.16816580195052
  0
LINE
  8
_0-f_
  6
CONTINUOUS
 62
    7
 10
378.10054117723905
 20
273.16816580195052
 11
378.10054117723911
 21
272.72832580195052
  0
LINE
  8
_0-f_
  6
CONTINUOUS
 62
    7
 10
378.10054117723911
 20
272.72832580195052
 11
379.35022306347429
 21
272.72832580195052
  0
LINE
  8
_0-f_
  6
CONTINUOUS
 62
    7
 10
379.35022306347429
 20
272.72832580195052
 11
378.58215717723903
 21
271.39773380195049
  0
LINE
  8
_0-f_
  6
CONTINUOUS
 62
    7
 10
378.58215717723903
 20
271.39773380195049
 11
378.58215717723903
 21
271.25621380195054
  0
LINE
  8
_0-f_
  6
CONTINUOUS
 62
    7
 10
378.58215717723903
 20
271.25621380195054
 11
382.41894917723909
 21
271.25621380195054
  0
LINE
  8
_0-f_
  6
CONTINUOUS
 62
    7
 10
382.41894917723909
 20
271.25621380195054
 11
382.41894917723909
 21
271.39765380195053
  0
LINE
  8
_0-f_
  6
CONTINUOUS
 62
    7
 10
382.41894917723909
 20
271.39765380195053
 11
381.65085558610929
 21
272.72832580195052
  0
LINE
  8
_0-f_
  6
CONTINUOUS
 62
    7
 10
381.65085558610929
 20
272.72832580195052
 11
382.90056517723912
 21
272.72832580195052
  0
LINE
  8
_0-f_
  6
CONTINUOUS
 62
    7
 10
382.90056517723912
 20
272.72832580195052
 11
382.90056517723912
 21
273.16816580195052
  0
LINE
  8
_0-f_
  6
CONTINUOUS
 62
    7
 10
379.85824027101313
 20
272.72832580195052
 11
381.14294209818513
 21
272.72832580195052
  0
LINE
  8
_0-f_
  6
CONTINUOUS
 62
    7
 10
381.14294209818513
 20
272.72832580195052
 11
381.68614917723903
 21
271.78685380195054
  0
LINE
  8
_0-f_
  6
CONTINUOUS
 62
    7
 10
381.68614917723903
 20
271.78685380195054
 11
381.68614917723903
 21
271.72829380195049
  0
LINE
  8
_0-f_
  6
CONTINUOUS
 62
    7
 10
381.68614917723903
 20
271.72829380195049
 11
379.3149731772391
 21
271.72829380195049
  0
LINE
  8
_0-f_
  6
CONTINUOUS
 62
    7
 10
379.3149731772391
 20
271.72829380195049
 11
379.3149731772391
 21
271.78685380195054
  0
LINE
  8
_0-f_
  6
CONTINUOUS
 62
    7
 10
379.3149731772391
 20
271.78685380195054
 11
379.85824027101313
 21
272.72832580195052
  0
LINE
  8
_0-f_
  6
CONTINUOUS
 62
    7
 10
382.20614917723918
 20
273.69621380195053
 11
378.794949177239
 21
273.69621380195053
  0
LINE
  8
_0-f_
  6
CONTINUOUS
 62
    7
 10
382.20614917723918
 20
273.77621380195058
 11
378.794949177239
 21
273.77621380195058
  0
LINE
  8
_0-f_
  6
CONTINUOUS
 62
    7
 10
382.20614917723918
 20
273.85621380195056
 11
378.794949177239
 21
273.85621380195056
  0
LINE
  8
_0-f_
  6
CONTINUOUS
 62
    7
 10
382.20614917723918
 20
273.93621380195054
 11
378.794949177239
 21
273.93621380195054
  0
LINE
  8
_0-f_
  6
CONTINUOUS
 62
    7
 10
382.20614917723918
 20
274.01621380195058
 11
378.794949177239
 21
274.01621380195058
  0
LINE
  8
_0-f_
  6
CONTINUOUS
 62
    7
 10
382.90056517723878
 20
274.33621380195052
 11
382.57766976471356
 21
274.33621380195052
  0
LINE
  8
_0-f_
  6
CONTINUOUS
 62
    7
 10
378.42358418884533
 20
274.33621380195052
 11
378.10054117723911
 21
274.33621380195052
  0
LINE
  8
_0-f_
  6
CONTINUOUS
 62
    7
 10
382.90056517723878
 20
274.41621380195056
 11
382.25458049862829
 21
274.41621380195056
  0
LINE
  8
_0-f_
  6
CONTINUOUS
 62
    7
 10
378.74678880275843
 20
274.41621380195056
 11
378.10054117723911
 21
274.41621380195056
  0
LINE
  8
_0-f_
  6
CONTINUOUS
 62
    7
 10
382.90056517723878
 20
274.49621380195049
 11
381.93149123254324
 21
274.49621380195049
  0
LINE
  8
_0-f_
  6
CONTINUOUS
 62
    7
 10
379.06999341667159
 20
274.49621380195049
 11
378.10054117723911
 21
274.49621380195049
  0
LINE
  8
_0-f_
  6
CONTINUOUS
 62
    7
 10
382.90056517723878
 20
274.57621380195053
 11
381.60840196645802
 21
274.57621380195053
  0
LINE
  8
_0-f_
  6
CONTINUOUS
 62
    7
 10
379.39319803058476
 20
274.57621380195053
 11
378.10054117723911
 21
274.57621380195053
  0
LINE
  8
_0-f_
  6
CONTINUOUS
 62
    7
 10
382.90056517723878
 20
274.65621380195051
 11
381.2853127003728
 21
274.65621380195057
  0
LINE
  8
_0-f_
  6
CONTINUOUS
 62
    7
 10
379.71640264449786
 20
274.65621380195051
 11
378.10054117723911
 21
274.65621380195057
  0
LINE
  8
_0-f_
  6
CONTINUOUS
 62
    7
 10
382.73990939663935
 20
274.7362138019505
 11
380.96222343428764
 21
274.7362138019505
  0
LINE
  8
_0-f_
  6
CONTINUOUS
 62
    7
 10
380.03960725841097
 20
274.7362138019505
 11
378.26113560133479
 21
274.7362138019505
  0
LINE
  8
_0-f_
  6
CONTINUOUS
 62
    7
 10
382.41795392449575
 20
274.81621380195054
 11
380.63514482169671
 21
274.81621380195054
  0
LINE
  8
_0-f_
  6
CONTINUOUS
 62
    7
 10
380.36248942564634
 20
274.81621380195054
 11
378.58309715726028
 21
274.81621380195054
  0
LINE
  8
_0-f_
  6
CONTINUOUS
 62
    7
 10
382.09599845235215
 20
274.89621380195058
 11
378.90505871318584
 21
274.89621380195058
  0
LINE
  8
_0-f_
  6
CONTINUOUS
 62
    7
 10
381.77404298020855
 20
274.97621380195056
 11
379.22702026911134
 21
274.97621380195056
  0
LINE
  8
_0-f_
  6
CONTINUOUS
 62
    7
 10
381.45208750806495
 20
275.05621380195055
 11
379.54898182503695
 21
275.05621380195055
  0
LINE
  8
_0-f_
  6
CONTINUOUS
 62
    7
 10
381.13013203592135
 20
275.13621380195059
 11
379.87094338096244
 21
275.13621380195059
  0
LINE
  8
_0-f_
  6
CONTINUOUS
 62
    7
 10
380.80817656377775
 20
275.21621380195052
 11
380.19290493688794
 21
275.21621380195052
  0
LINE
  8
_0-f_
  6
CONTINUOUS
 62
    7
 10
382.90056517723934
 20
273.13621380195053
 11
378.10054117723911
 21
273.13621380195053
  0
LINE
  8
_0-f_
  6
CONTINUOUS
 62
    7
 10
382.90056517723934
 20
273.05621380195055
 11
378.10054117723911
 21
273.05621380195055
  0
LINE
  8
_0-f_
  6
CONTINUOUS
 62
    7
 10
382.90056517723934
 20
272.97621380195051
 11
378.10054117723911
 21
272.97621380195051
  0
LINE
  8
_0-f_
  6
CONTINUOUS
 62
    7
 10
382.90056517723934
 20
272.89621380195047
 11
378.10054117723911
 21
272.89621380195047
  0
LINE
  8
_0-f_
  6
CONTINUOUS
 62
    7
 10
382.90056517723934
 20
272.81621380195054
 11
378.10054117723911
 21
272.81621380195054
  0
LINE
  8
_0-f_
  6
CONTINUOUS
 62
    7
 10
382.90056517723934
 20
272.7362138019505
 11
378.10054117723911
 21
272.7362138019505
  0
LINE
  8
_0-f_
  6
CONTINUOUS
 62
    7
 10
381.69248024270649
 20
272.65621380195057
 11
381.18454901680258
 21
272.65621380195057
  0
LINE
  8
_0-f_
  6
CONTINUOUS
 62
    7
 10
379.81662875557123
 20
272.65621380195046
 11
379.30859740573078
 21
272.65621380195046
  0
LINE
  8
_0-f_
  6
CONTINUOUS
 62
    7
 10
381.73865802903578
 20
272.57621380195053
 11
381.23070712487623
 21
272.57621380195053
  0
LINE
  8
_0-f_
  6
CONTINUOUS
 62
    7
 10
379.77046554784766
 20
272.57621380195053
 11
379.26241850874447
 21
272.57621380195053
  0
LINE
  8
_0-f_
  6
CONTINUOUS
 62
    7
 10
381.78483581536511
 20
272.49621380195049
 11
381.27686523294989
 21
272.49621380195049
  0
LINE
  8
_0-f_
  6
CONTINUOUS
 62
    7
 10
379.7243023401241
 20
272.49621380195049
 11
379.21623961175811
 21
272.49621380195049
  0
LINE
  8
_0-f_
  6
CONTINUOUS
 62
    7
 10
381.83101360169445
 20
272.41621380195051
 11
381.32302334102354
 21
272.41621380195051
  0
LINE
  8
_0-f_
  6
CONTINUOUS
 62
    7
 10
379.67813913240053
 20
272.41621380195051
 11
379.17006071477181
 21
272.41621380195051
  0
LINE
  8
_0-f_
  6
CONTINUOUS
 62
    7
 10
381.87719138802373
 20
272.33621380195052
 11
381.3691814490972
 21
272.33621380195052
  0
LINE
  8
_0-f_
  6
CONTINUOUS
 62
    7
 10
379.63197592467696
 20
272.33621380195052
 11
379.1238818177855
 21
272.33621380195052
  0
LINE
  8
_0-f_
  6
CONTINUOUS
 62
    7
 10
381.92336917435301
 20
272.25621380195048
 11
381.41533955717085
 21
272.25621380195048
  0
LINE
  8
_0-f_
  6
CONTINUOUS
 62
    7
 10
379.5858127169534
 20
272.25621380195048
 11
379.07770292079914
 21
272.25621380195048
  0
LINE
  8
_0-f_
  6
CONTINUOUS
 62
    7
 10
381.96954696068229
 20
272.17621380195055
 11
381.46149766524451
 21
272.17621380195055
  0
LINE
  8
_0-f_
  6
CONTINUOUS
 62
    7
 10
379.53964950922983
 20
272.17621380195055
 11
379.03152402381284
 21
272.17621380195055
  0
LINE
  8
_0-f_
  6
CONTINUOUS
 62
    7
 10
382.01572474701163
 20
272.09621380195051
 11
381.50765577331816
 21
272.09621380195051
  0
LINE
  8
_0-f_
  6
CONTINUOUS
 62
    7
 10
379.49348630150627
 20
272.09621380195051
 11
378.98534512682653
 21
272.09621380195051
  0
LINE
  8
_0-f_
  6
CONTINUOUS
 62
    7
 10
382.06190253334091
 20
272.01621380195053
 11
381.55381388139182
 21
272.01621380195053
  0
LINE
  8
_0-f_
  6
CONTINUOUS
 62
    7
 10
379.4473230937827
 20
272.01621380195053
 11
378.93916622984017
 21
272.01621380195053
  0
LINE
  8
_0-f_
  6
CONTINUOUS
 62
    7
 10
382.10808031967025
 20
271.93621380195054
 11
381.59997198946547
 21
271.93621380195054
  0
LINE
  8
_0-f_
  6
CONTINUOUS
 62
    7
 10
379.40115988605913
 20
271.93621380195054
 11
378.89298733285392
 21
271.93621380195054
  0
LINE
  8
_0-f_
  6
CONTINUOUS
 62
    7
 10
382.15425810599953
 20
271.8562138019505
 11
381.64613009753907
 21
271.8562138019505
  0
LINE
  8
_0-f_
  6
CONTINUOUS
 62
    7
 10
379.35499667833557
 20
271.8562138019505
 11
378.84680843586756
 21
271.8562138019505
  0
LINE
  8
_0-f_
  6
CONTINUOUS
 62
    7
 10
382.20043589232881
 20
271.77621380195046
 11
381.68614917723909
 21
271.77621380195046
  0
LINE
  8
_0-f_
  6
CONTINUOUS
 62
    7
 10
379.31497317723478
 20
271.77621380195046
 11
378.80062953888131
 21
271.77621380195046
  0
LINE
  8
_0-f_
  6
CONTINUOUS
 62
    7
 10
382.24661367865809
 20
271.69621380195048
 11
378.75445064189495
 21
271.69621380195048
  0
LINE
  8
_0-f_
  6
CONTINUOUS
 62
    7
 10
382.29279146498743
 20
271.61621380195049
 11
378.70827174490859
 21
271.61621380195049
  0
LINE
  8
_0-f_
  6
CONTINUOUS
 62
    7
 10
382.33896925131677
 20
271.53621380195045
 11
378.66209284792234
 21
271.53621380195045
  0
LINE
  8
_0-f_
  6
CONTINUOUS
 62
    7
 10
382.38514703764605
 20
271.45621380195053
 11
378.61591395093598
 21
271.45621380195053
  0
LINE
  8
_0-f_
  6
CONTINUOUS
 62
    7
 10
382.41894917723761
 20
271.37621380195048
 11
378.58215717724028
 21
271.37621380195048
  0
LINE
  8
_0-f_
  6
CONTINUOUS
 62
    7
 10
382.41894917723761
 20
271.2962138019505
 11
378.58215717724028
 21
271.2962138019505
  0
LINE
  8
_0-f_
  6
CONTINUOUS
 62
    7
 10
378.10054117723911
 20
274.69630980195052
 11
380.22774117723907
 21
275.22486980195049
  0
LINE
  8
_0-f_
  6
CONTINUOUS
 62
    7
 10
378.10054117723911
 20
274.25625380195049
 11
380.36455717723908
 21
274.81664580195047
  0
LINE
  8
_0-f_
  6
CONTINUOUS
 62
    7
 10
378.79494917723895
 20
274.08828580195052
 11
382.20614917723907
 21
274.08828580195052
  0
LINE
  8
_0-f_
  6
CONTINUOUS
 62
    7
 10
378.79494917723895
 20
273.64824580195057
 11
382.20614917723907
 21
273.64824580195057
  0
LINE
  8
_0-f_
  6
CONTINUOUS
 62
    7
 10
378.10054117723911
 20
273.16816580195052
 11
382.90056517723912
 21
273.16816580195052
  0
LINE
  8
_0-f_
  6
CONTINUOUS
 62
    7
 10
378.58215717723903
 20
271.25621380195054
 11
382.41894917723909
 21
271.25621380195054
  0
LINE
  8
_0-f_
  6
CONTINUOUS
 62
    7
 10
379.3149731772391
 20
271.72829380195049
 11
381.68614917723903
 21
271.72829380195049
  0
LINE
  8
_0-f_
  6
CONTINUOUS
 62
    7
 10
379.85815717723921
 20
272.72818180195054
 11
379.3149731772391
 21
271.78685380195054
  0
LINE
  8
_0-f_
  6
CONTINUOUS
 62
    7
 10
378.10054117723911
 20
272.72832580195052
 11
379.3509571772392
 21
272.72832580195052
  0
LINE
  8
_0-f_
  6
CONTINUOUS
 62
    7
 10
378.10054117723911
 20
273.16816580195052
 11
378.10054117723911
 21
272.72832580195052
  0
LINE
  8
_0-f_
  6
CONTINUOUS
 62
    7
 10
379.35014917723902
 20
272.7281978019505
 11
378.58215717723903
 21
271.39773380195049
  0
LINE
  8
_0-f_
  6
CONTINUOUS
 62
    7
 10
378.58215717723903
 20
271.25621380195054
 11
378.58215717723903
 21
271.39765380195053
  0
LINE
  8
_0-f_
  6
CONTINUOUS
 62
    7
 10
379.3149731772391
 20
271.72829380195049
 11
379.3149731772391
 21
271.78693380195057
  0
LINE
  8
_0-f_
  6
CONTINUOUS
 62
    7
 10
378.10054117723911
 20
274.69629380195056
 11
378.10054117723911
 21
274.25625380195049
  0
LINE
  8
_0-f_
  6
CONTINUOUS
 62
    7
 10
378.79494917723895
 20
274.08828580195052
 11
378.79494917723895
 21
273.64824580195057
  0
LINE
  8
_0-f_
  6
CONTINUOUS
 62
    7
 10
381.65095717723921
 20
272.72814980195051
 11
382.41894917723909
 21
271.39765380195053
  0
LINE
  8
_0-f_
  6
CONTINUOUS
 62
    7
 10
381.65095717723921
 20
272.72832580195052
 11
382.90056517723912
 21
272.72832580195052
  0
LINE
  8
_0-f_
  6
CONTINUOUS
 62
    7
 10
379.85896517723916
 20
272.72832580195052
 11
381.14296517723915
 21
272.72832580195052
  0
LINE
  8
_0-f_
  6
CONTINUOUS
 62
    7
 10
381.14296517723915
 20
272.72828580195051
 11
381.68614917723903
 21
271.78685380195054
  0
LINE
  8
_0-f_
  6
CONTINUOUS
 62
    7
 10
381.68614917723903
 20
271.72829380195049
 11
381.68614917723903
 21
271.78693380195057
  0
LINE
  8
_0-f_
  6
CONTINUOUS
 62
    7
 10
382.41894917723909
 20
271.25621380195054
 11
382.41894917723909
 21
271.39765380195053
  0
LINE
  8
_0-f_
  6
CONTINUOUS
 62
    7
 10
382.90056517723912
 20
273.16816580195052
 11
382.90056517723912
 21
272.72832580195052
  0
LINE
  8
_0-f_
  6
CONTINUOUS
 62
    7
 10
380.63735717723915
 20
274.81665380195057
 11
382.90056517723912
 21
274.25626180195047
  0
LINE
  8
_0-f_
  6
CONTINUOUS
 62
    7
 10
380.77337317723914
 20
275.22486180195051
 11
382.90056517723912
 21
274.69629380195056
  0
ARC
  8
_0-f_
  6
CONTINUOUS
 62
    7
 10
380.5005411772392
 20
274.05625380195056
 40
1.2000000000000004
 50
76.866900000000015
 51
103.133
  0
ARC
  8
_0-f_
  6
CONTINUOUS
 62
    7
 10
380.5005411772392
 20
274.23242180195052
 40
0.6000000000000002
 50
76.866900000000015
 51
103.133
  0
LINE
  8
_0-f_
  6
CONTINUOUS
 62
    7
 10
382.20614917723907
 20
274.08828580195052
 11
382.20614917723907
 21
273.64824580195057
  0
LINE
  8
_0-f_
  6
CONTINUOUS
 62
    7
 10
382.90056517723912
 20
274.69629380195056
 11
382.90056517723912
 21
274.25625380195049
  0
LINE
  8
_0-f_
  6
CONTINUOUS
 62
    7
 10
386.05514308995811
 20
275.25625380195055
 11
383.29513508995814
 21
275.25625380195055
  0
LINE
  8
_0-f_
  6
CONTINUOUS
 62
    7
 10
383.29513508995814
 20
275.25625380195055
 11
383.29513508995814
 21
274.81621380195054
  0
LINE
  8
_0-f_
  6
CONTINUOUS
 62
    7
 10
383.29513508995814
 20
274.81621380195054
 11
386.05514308995811
 21
274.81621380195054
  0
LINE
  8
_0-f_
  6
CONTINUOUS
 62
    7
 10
386.05514308995811
 20
274.81621380195054
 11
386.05514308995811
 21
275.25625380195055
  0
LINE
  8
_0-f_
  6
CONTINUOUS
 62
    7
 10
386.05514308995811
 20
274.13633380195051
 11
383.29513508995814
 21
274.13633380195051
  0
LINE
  8
_0-f_
  6
CONTINUOUS
 62
    7
 10
383.29513508995814
 20
274.13633380195051
 11
383.29513508995814
 21
273.69629380195056
  0
LINE
  8
_0-f_
  6
CONTINUOUS
 62
    7
 10
383.29513508995814
 20
273.69629380195056
 11
384.4111510899582
 21
273.69629380195056
  0
LINE
  8
_0-f_
  6
CONTINUOUS
 62
    7
 10
384.4111510899582
 20
273.69629380195056
 11
384.4111510899582
 21
271.25621380195054
  0
LINE
  8
_0-f_
  6
CONTINUOUS
 62
    7
 10
384.4111510899582
 20
271.25621380195054
 11
384.93914308995807
 21
271.25621380195054
  0
LINE
  8
_0-f_
  6
CONTINUOUS
 62
    7
 10
384.93914308995807
 20
271.25621380195054
 11
384.93914308995807
 21
273.69629380195056
  0
LINE
  8
_0-f_
  6
CONTINUOUS
 62
    7
 10
384.93914308995807
 20
273.69629380195056
 11
386.05514308995811
 21
273.69629380195056
  0
LINE
  8
_0-f_
  6
CONTINUOUS
 62
    7
 10
386.05514308995811
 20
273.69629380195056
 11
386.05514308995811
 21
274.13633380195051
  0
LINE
  8
_0-f_
  6
CONTINUOUS
 62
    7
 10
383.51113508995815
 20
273.21621380195052
 11
383.51113508995815
 21
271.89789378195405
  0
ARC
  8
_0-f_
  6
CONTINUOUS
 62
    7
 10
383.35114308995816
 20
271.89629380195049
 40
0.1600000000000022
 50
270
 51
0.5729601837918403
  0
LINE
  8
_0-f_
  6
CONTINUOUS
 62
    7
 10
383.35114308995816
 20
271.73629380195052
 11
383.29513508995814
 21
271.73629380195052
  0
LINE
  8
_0-f_
  6
CONTINUOUS
 62
    7
 10
383.29513508995814
 20
271.73629380195052
 11
383.29513508995814
 21
271.25621380195054
  0
LINE
  8
_0-f_
  6
CONTINUOUS
 62
    7
 10
383.29513508995814
 20
271.25621380195054
 11
383.59114308995817
 21
271.25621380195054
  0
ARC
  8
_0-f_
  6
CONTINUOUS
 62
    7
 10
383.59114308995817
 20
271.65621380195051
 40
0.4
 50
270
 51
0
  0
LINE
  8
_0-f_
  6
CONTINUOUS
 62
    7
 10
383.99114308995814
 20
271.65621380195051
 11
383.99114308995814
 21
273.21621380195052
  0
LINE
  8
_0-f_
  6
CONTINUOUS
 62
    7
 10
383.99114308995814
 20
273.21621380195052
 11
383.51113508995815
 21
273.21621380195052
  0
LINE
  8
_0-f_
  6
CONTINUOUS
 62
    7
 10
385.35915108995817
 20
273.21621380195052
 11
385.35915108995817
 21
271.65263612896831
  0
ARC
  8
_0-f_
  6
CONTINUOUS
 62
    7
 10
385.75913508995819
 20
271.65621380195051
 40
0.4
 50
180.51247073885855
 51
270
  0
LINE
  8
_0-f_
  6
CONTINUOUS
 62
    7
 10
385.75913508995819
 20
271.25621380195054
 11
386.05514308995811
 21
271.25621380195054
  0
LINE
  8
_0-f_
  6
CONTINUOUS
 62
    7
 10
386.05514308995811
 20
271.25621380195054
 11
386.05514308995811
 21
271.73629380195052
  0
LINE
  8
_0-f_
  6
CONTINUOUS
 62
    7
 10
386.05514308995811
 20
271.73629380195052
 11
385.99913508995814
 21
271.73629380195052
  0
ARC
  8
_0-f_
  6
CONTINUOUS
 62
    7
 10
385.99913508995814
 20
271.89629380195049
 40
0.1600000000000022
 50
179.42703981620815
 51
270
  0
LINE
  8
_0-f_
  6
CONTINUOUS
 62
    7
 10
385.83914308995821
 20
271.89789378195405
 11
385.83914308995821
 21
273.21621380195052
  0
LINE
  8
_0-f_
  6
CONTINUOUS
 62
    7
 10
385.83914308995821
 20
273.21621380195052
 11
385.35915108995817
 21
273.21621380195052
  0
LINE
  8
_0-f_
  6
CONTINUOUS
 62
    7
 10
387.47515108995827
 20
273.89629380195049
 11
388.09514308995824
 21
273.89629380195049
  0
LINE
  8
_0-f_
  6
CONTINUOUS
 62
    7
 10
388.09514308995824
 20
273.89629380195049
 11
388.09514308995824
 21
274.3363338019505
  0
LINE
  8
_0-f_
  6
CONTINUOUS
 62
    7
 10
388.09514308995824
 20
274.3363338019505
 11
387.47515108995827
 21
274.33633380195056
  0
LINE
  8
_0-f_
  6
CONTINUOUS
 62
    7
 10
387.47515108995827
 20
274.33633380195056
 11
387.47515108995827
 21
275.25625380195055
  0
LINE
  8
_0-f_
  6
CONTINUOUS
 62
    7
 10
387.47515108995827
 20
275.25625380195055
 11
387.03515108995816
 21
275.25625380195055
  0
LINE
  8
_0-f_
  6
CONTINUOUS
 62
    7
 10
387.03515108995816
 20
275.25625380195055
 11
387.03515108995816
 21
274.33633380195056
  0
LINE
  8
_0-f_
  6
CONTINUOUS
 62
    7
 10
387.03515108995816
 20
274.33633380195056
 11
386.4551430899582
 21
274.33633380195056
  0
LINE
  8
_0-f_
  6
CONTINUOUS
 62
    7
 10
386.4551430899582
 20
274.33633380195056
 11
386.4551430899582
 21
273.89629380195049
  0
LINE
  8
_0-f_
  6
CONTINUOUS
 62
    7
 10
386.4551430899582
 20
273.89629380195049
 11
387.03515108995822
 21
273.89629380195049
  0
LINE
  8
_0-f_
  6
CONTINUOUS
 62
    7
 10
387.03515108995822
 20
273.89629380195049
 11
387.03515108995816
 21
271.73629380195052
  0
LINE
  8
_0-f_
  6
CONTINUOUS
 62
    7
 10
387.03515108995816
 20
271.73629380195052
 11
386.4551430899582
 21
271.73629380195052
  0
LINE
  8
_0-f_
  6
CONTINUOUS
 62
    7
 10
386.4551430899582
 20
271.73629380195052
 11
386.4551430899582
 21
271.25621380195054
  0
LINE
  8
_0-f_
  6
CONTINUOUS
 62
    7
 10
386.4551430899582
 20
271.25621380195054
 11
388.09514308995824
 21
271.25621380195054
  0
LINE
  8
_0-f_
  6
CONTINUOUS
 62
    7
 10
388.09514308995824
 20
271.25621380195054
 11
388.09514308995824
 21
271.73629380195052
  0
LINE
  8
_0-f_
  6
CONTINUOUS
 62
    7
 10
388.09514308995824
 20
271.73629380195052
 11
387.47515108995827
 21
271.73629380195052
  0
LINE
  8
_0-f_
  6
CONTINUOUS
 62
    7
 10
387.47515108995827
 20
271.73629380195052
 11
387.47515108995827
 21
273.89629380195049
  0
LINE
  8
_0-f_
  6
CONTINUOUS
 62
    7
 10
387.47515108995827
 20
273.21621380195052
 11
387.03515108995799
 21
273.21621380195052
  0
LINE
  8
_0-f_
  6
CONTINUOUS
 62
    7
 10
385.83914308995804
 20
273.21621380195052
 11
385.35915108995817
 21
273.21621380195052
  0
LINE
  8
_0-f_
  6
CONTINUOUS
 62
    7
 10
384.93914308995807
 20
273.21621380195052
 11
384.4111510899582
 21
273.21621380195052
  0
LINE
  8
_0-f_
  6
CONTINUOUS
 62
    7
 10
383.99114308995814
 20
273.21621380195052
 11
383.51113508995809
 21
273.21621380195052
  0
LINE
  8
_0-f_
  6
CONTINUOUS
 62
    7
 10
387.47515108995827
 20
273.29621380195056
 11
387.03515108995799
 21
273.29621380195056
  0
LINE
  8
_0-f_
  6
CONTINUOUS
 62
    7
 10
384.93914308995807
 20
273.29621380195056
 11
384.4111510899582
 21
273.29621380195056
  0
LINE
  8
_0-f_
  6
CONTINUOUS
 62
    7
 10
387.47515108995827
 20
273.37621380195048
 11
387.03515108995799
 21
273.37621380195048
  0
LINE
  8
_0-f_
  6
CONTINUOUS
 62
    7
 10
384.93914308995807
 20
273.37621380195048
 11
384.4111510899582
 21
273.37621380195048
  0
LINE
  8
_0-f_
  6
CONTINUOUS
 62
    7
 10
387.47515108995827
 20
273.45621380195053
 11
387.03515108995799
 21
273.45621380195053
  0
LINE
  8
_0-f_
  6
CONTINUOUS
 62
    7
 10
384.93914308995807
 20
273.45621380195053
 11
384.4111510899582
 21
273.45621380195053
  0
LINE
  8
_0-f_
  6
CONTINUOUS
 62
    7
 10
387.47515108995827
 20
273.53621380195051
 11
387.03515108995799
 21
273.53621380195051
  0
LINE
  8
_0-f_
  6
CONTINUOUS
 62
    7
 10
384.93914308995807
 20
273.53621380195051
 11
384.4111510899582
 21
273.53621380195051
  0
LINE
  8
_0-f_
  6
CONTINUOUS
 62
    7
 10
387.47515108995827
 20
273.61621380195049
 11
387.03515108995799
 21
273.61621380195049
  0
LINE
  8
_0-f_
  6
CONTINUOUS
 62
    7
 10
384.93914308995807
 20
273.61621380195049
 11
384.4111510899582
 21
273.61621380195049
  0
LINE
  8
_0-f_
  6
CONTINUOUS
 62
    7
 10
387.47515108995827
 20
273.69621380195053
 11
387.03515108995799
 21
273.69621380195053
  0
LINE
  8
_0-f_
  6
CONTINUOUS
 62
    7
 10
384.93914308995807
 20
273.69621380195053
 11
384.4111510899582
 21
273.69621380195053
  0
LINE
  8
_0-f_
  6
CONTINUOUS
 62
    7
 10
387.47515108995827
 20
273.77621380195058
 11
387.03515108995799
 21
273.77621380195058
  0
LINE
  8
_0-f_
  6
CONTINUOUS
 62
    7
 10
386.05514308995811
 20
273.77621380195058
 11
383.29513508995802
 21
273.77621380195058
  0
LINE
  8
_0-f_
  6
CONTINUOUS
 62
    7
 10
387.47515108995827
 20
273.85621380195056
 11
387.03515108995799
 21
273.85621380195056
  0
LINE
  8
_0-f_
  6
CONTINUOUS
 62
    7
 10
386.05514308995811
 20
273.85621380195056
 11
383.29513508995802
 21
273.85621380195056
  0
LINE
  8
_0-f_
  6
CONTINUOUS
 62
    7
 10
388.0951430899583
 20
273.93621380195054
 11
386.45514308995809
 21
273.93621380195054
  0
LINE
  8
_0-f_
  6
CONTINUOUS
 62
    7
 10
386.05514308995811
 20
273.93621380195054
 11
383.29513508995802
 21
273.93621380195054
  0
LINE
  8
_0-f_
  6
CONTINUOUS
 62
    7
 10
388.0951430899583
 20
274.01621380195058
 11
386.45514308995809
 21
274.01621380195058
  0
LINE
  8
_0-f_
  6
CONTINUOUS
 62
    7
 10
386.05514308995811
 20
274.01621380195058
 11
383.29513508995802
 21
274.01621380195058
  0
LINE
  8
_0-f_
  6
CONTINUOUS
 62
    7
 10
388.0951430899583
 20
274.09621380195051
 11
386.45514308995809
 21
274.09621380195051
  0
LINE
  8
_0-f_
  6
CONTINUOUS
 62
    7
 10
386.05514308995811
 20
274.09621380195051
 11
383.29513508995802
 21
274.09621380195051
  0
LINE
  8
_0-f_
  6
CONTINUOUS
 62
    7
 10
388.0951430899583
 20
274.17621380195055
 11
386.45514308995809
 21
274.17621380195055
  0
LINE
  8
_0-f_
  6
CONTINUOUS
 62
    7
 10
388.0951430899583
 20
274.25621380195054
 11
386.45514308995809
 21
274.25621380195054
  0
LINE
  8
_0-f_
  6
CONTINUOUS
 62
    7
 10
388.0951430899583
 20
274.33621380195052
 11
386.45514308995809
 21
274.33621380195052
  0
LINE
  8
_0-f_
  6
CONTINUOUS
 62
    7
 10
387.47515108995827
 20
274.41621380195056
 11
387.03515108995822
 21
274.41621380195056
  0
LINE
  8
_0-f_
  6
CONTINUOUS
 62
    7
 10
387.47515108995827
 20
274.49621380195049
 11
387.03515108995822
 21
274.49621380195049
  0
LINE
  8
_0-f_
  6
CONTINUOUS
 62
    7
 10
387.47515108995827
 20
274.57621380195053
 11
387.03515108995822
 21
274.57621380195053
  0
LINE
  8
_0-f_
  6
CONTINUOUS
 62
    7
 10
387.47515108995827
 20
274.65621380195057
 11
387.03515108995822
 21
274.65621380195057
  0
LINE
  8
_0-f_
  6
CONTINUOUS
 62
    7
 10
387.47515108995827
 20
274.7362138019505
 11
387.03515108995822
 21
274.7362138019505
  0
LINE
  8
_0-f_
  6
CONTINUOUS
 62
    7
 10
387.47515108995827
 20
274.81621380195054
 11
387.03515108995822
 21
274.81621380195054
  0
LINE
  8
_0-f_
  6
CONTINUOUS
 62
    7
 10
386.05514308995811
 20
274.81621380195054
 11
383.29513508995802
 21
274.81621380195054
  0
LINE
  8
_0-f_
  6
CONTINUOUS
 62
    7
 10
387.47515108995827
 20
274.89621380195058
 11
387.03515108995822
 21
274.89621380195058
  0
LINE
  8
_0-f_
  6
CONTINUOUS
 62
    7
 10
386.05514308995811
 20
274.89621380195058
 11
383.29513508995802
 21
274.89621380195058
  0
LINE
  8
_0-f_
  6
CONTINUOUS
 62
    7
 10
387.47515108995827
 20
274.97621380195056
 11
387.03515108995822
 21
274.97621380195056
  0
LINE
  8
_0-f_
  6
CONTINUOUS
 62
    7
 10
386.05514308995811
 20
274.97621380195056
 11
383.29513508995802
 21
274.97621380195056
  0
LINE
  8
_0-f_
  6
CONTINUOUS
 62
    7
 10
387.47515108995827
 20
275.05621380195055
 11
387.03515108995822
 21
275.05621380195055
  0
LINE
  8
_0-f_
  6
CONTINUOUS
 62
    7
 10
386.05514308995811
 20
275.05621380195055
 11
383.29513508995802
 21
275.05621380195055
  0
LINE
  8
_0-f_
  6
CONTINUOUS
 62
    7
 10
387.47515108995827
 20
275.13621380195059
 11
387.03515108995822
 21
275.13621380195059
  0
LINE
  8
_0-f_
  6
CONTINUOUS
 62
    7
 10
386.05514308995811
 20
275.13621380195059
 11
383.29513508995802
 21
275.13621380195059
  0
LINE
  8
_0-f_
  6
CONTINUOUS
 62
    7
 10
387.47515108995827
 20
275.21621380195052
 11
387.03515108995822
 21
275.21621380195052
  0
LINE
  8
_0-f_
  6
CONTINUOUS
 62
    7
 10
386.05514308995811
 20
275.21621380195052
 11
383.29513508995802
 21
275.21621380195052
  0
LINE
  8
_0-f_
  6
CONTINUOUS
 62
    7
 10
387.47515108995827
 20
273.13621380195053
 11
387.03515108995799
 21
273.13621380195053
  0
LINE
  8
_0-f_
  6
CONTINUOUS
 62
    7
 10
385.83914308995804
 20
273.13621380195053
 11
385.35915108995817
 21
273.13621380195053
  0
LINE
  8
_0-f_
  6
CONTINUOUS
 62
    7
 10
384.93914308995807
 20
273.13621380195053
 11
384.4111510899582
 21
273.13621380195053
  0
LINE
  8
_0-f_
  6
CONTINUOUS
 62
    7
 10
383.99114308995814
 20
273.13621380195053
 11
383.51113508995809
 21
273.13621380195053
  0
LINE
  8
_0-f_
  6
CONTINUOUS
 62
    7
 10
387.47515108995827
 20
273.05621380195055
 11
387.03515108995799
 21
273.05621380195055
  0
LINE
  8
_0-f_
  6
CONTINUOUS
 62
    7
 10
385.83914308995804
 20
273.05621380195055
 11
385.35915108995817
 21
273.05621380195055
  0
LINE
  8
_0-f_
  6
CONTINUOUS
 62
    7
 10
384.93914308995807
 20
273.05621380195055
 11
384.4111510899582
 21
273.05621380195055
  0
LINE
  8
_0-f_
  6
CONTINUOUS
 62
    7
 10
383.99114308995814
 20
273.05621380195055
 11
383.51113508995809
 21
273.05621380195055
  0
LINE
  8
_0-f_
  6
CONTINUOUS
 62
    7
 10
387.47515108995827
 20
272.97621380195051
 11
387.03515108995799
 21
272.97621380195051
  0
LINE
  8
_0-f_
  6
CONTINUOUS
 62
    7
 10
385.83914308995804
 20
272.97621380195051
 11
385.35915108995817
 21
272.97621380195051
  0
LINE
  8
_0-f_
  6
CONTINUOUS
 62
    7
 10
384.93914308995807
 20
272.97621380195051
 11
384.4111510899582
 21
272.97621380195051
  0
LINE
  8
_0-f_
  6
CONTINUOUS
 62
    7
 10
383.99114308995814
 20
272.97621380195051
 11
383.51113508995809
 21
272.97621380195051
  0
LINE
  8
_0-f_
  6
CONTINUOUS
 62
    7
 10
387.47515108995827
 20
272.89621380195047
 11
387.03515108995799
 21
272.89621380195047
  0
LINE
  8
_0-f_
  6
CONTINUOUS
 62
    7
 10
385.83914308995804
 20
272.89621380195047
 11
385.35915108995817
 21
272.89621380195047
  0
LINE
  8
_0-f_
  6
CONTINUOUS
 62
    7
 10
384.93914308995807
 20
272.89621380195047
 11
384.4111510899582
 21
272.89621380195047
  0
LINE
  8
_0-f_
  6
CONTINUOUS
 62
    7
 10
383.99114308995814
 20
272.89621380195047
 11
383.51113508995809
 21
272.89621380195047
  0
LINE
  8
_0-f_
  6
CONTINUOUS
 62
    7
 10
387.47515108995827
 20
272.81621380195054
 11
387.03515108995799
 21
272.81621380195054
  0
LINE
  8
_0-f_
  6
CONTINUOUS
 62
    7
 10
385.83914308995804
 20
272.81621380195054
 11
385.35915108995817
 21
272.81621380195054
  0
LINE
  8
_0-f_
  6
CONTINUOUS
 62
    7
 10
384.93914308995807
 20
272.81621380195054
 11
384.4111510899582
 21
272.81621380195054
  0
LINE
  8
_0-f_
  6
CONTINUOUS
 62
    7
 10
383.99114308995814
 20
272.81621380195054
 11
383.51113508995809
 21
272.81621380195054
  0
LINE
  8
_0-f_
  6
CONTINUOUS
 62
    7
 10
387.47515108995827
 20
272.7362138019505
 11
387.03515108995799
 21
272.7362138019505
  0
LINE
  8
_0-f_
  6
CONTINUOUS
 62
    7
 10
385.83914308995804
 20
272.7362138019505
 11
385.35915108995817
 21
272.7362138019505
  0
LINE
  8
_0-f_
  6
CONTINUOUS
 62
    7
 10
384.93914308995807
 20
272.7362138019505
 11
384.4111510899582
 21
272.7362138019505
  0
LINE
  8
_0-f_
  6
CONTINUOUS
 62
    7
 10
383.99114308995814
 20
272.7362138019505
 11
383.51113508995809
 21
272.7362138019505
  0
LINE
  8
_0-f_
  6
CONTINUOUS
 62
    7
 10
387.47515108995827
 20
272.65621380195046
 11
387.03515108995799
 21
272.65621380195046
  0
LINE
  8
_0-f_
  6
CONTINUOUS
 62
    7
 10
385.83914308995804
 20
272.65621380195046
 11
385.35915108995817
 21
272.65621380195046
  0
LINE
  8
_0-f_
  6
CONTINUOUS
 62
    7
 10
384.93914308995807
 20
272.65621380195046
 11
384.4111510899582
 21
272.65621380195046
  0
LINE
  8
_0-f_
  6
CONTINUOUS
 62
    7
 10
383.99114308995814
 20
272.65621380195046
 11
383.51113508995809
 21
272.65621380195046
  0
LINE
  8
_0-f_
  6
CONTINUOUS
 62
    7
 10
387.47515108995827
 20
272.57621380195053
 11
387.03515108995799
 21
272.57621380195053
  0
LINE
  8
_0-f_
  6
CONTINUOUS
 62
    7
 10
385.83914308995804
 20
272.57621380195053
 11
385.35915108995817
 21
272.57621380195053
  0
LINE
  8
_0-f_
  6
CONTINUOUS
 62
    7
 10
384.93914308995807
 20
272.57621380195053
 11
384.4111510899582
 21
272.57621380195053
  0
LINE
  8
_0-f_
  6
CONTINUOUS
 62
    7
 10
383.99114308995814
 20
272.57621380195053
 11
383.51113508995809
 21
272.57621380195053
  0
LINE
  8
_0-f_
  6
CONTINUOUS
 62
    7
 10
387.47515108995827
 20
272.49621380195049
 11
387.03515108995799
 21
272.49621380195049
  0
LINE
  8
_0-f_
  6
CONTINUOUS
 62
    7
 10
385.83914308995804
 20
272.49621380195049
 11
385.35915108995817
 21
272.49621380195049
  0
LINE
  8
_0-f_
  6
CONTINUOUS
 62
    7
 10
384.93914308995807
 20
272.49621380195049
 11
384.4111510899582
 21
272.49621380195049
  0
LINE
  8
_0-f_
  6
CONTINUOUS
 62
    7
 10
383.99114308995814
 20
272.49621380195049
 11
383.51113508995809
 21
272.49621380195049
  0
LINE
  8
_0-f_
  6
CONTINUOUS
 62
    7
 10
387.47515108995827
 20
272.41621380195051
 11
387.03515108995799
 21
272.41621380195051
  0
LINE
  8
_0-f_
  6
CONTINUOUS
 62
    7
 10
385.83914308995804
 20
272.41621380195051
 11
385.35915108995817
 21
272.41621380195051
  0
LINE
  8
_0-f_
  6
CONTINUOUS
 62
    7
 10
384.93914308995807
 20
272.41621380195051
 11
384.4111510899582
 21
272.41621380195051
  0
LINE
  8
_0-f_
  6
CONTINUOUS
 62
    7
 10
383.99114308995814
 20
272.41621380195051
 11
383.51113508995809
 21
272.41621380195051
  0
LINE
  8
_0-f_
  6
CONTINUOUS
 62
    7
 10
387.47515108995827
 20
272.33621380195052
 11
387.03515108995799
 21
272.33621380195052
  0
LINE
  8
_0-f_
  6
CONTINUOUS
 62
    7
 10
385.83914308995804
 20
272.33621380195052
 11
385.35915108995817
 21
272.33621380195052
  0
LINE
  8
_0-f_
  6
CONTINUOUS
 62
    7
 10
384.93914308995807
 20
272.33621380195052
 11
384.4111510899582
 21
272.33621380195052
  0
LINE
  8
_0-f_
  6
CONTINUOUS
 62
    7
 10
383.99114308995814
 20
272.33621380195052
 11
383.51113508995809
 21
272.33621380195052
  0
LINE
  8
_0-f_
  6
CONTINUOUS
 62
    7
 10
387.47515108995827
 20
272.25621380195048
 11
387.03515108995799
 21
272.25621380195048
  0
LINE
  8
_0-f_
  6
CONTINUOUS
 62
    7
 10
385.83914308995804
 20
272.25621380195048
 11
385.35915108995817
 21
272.25621380195048
  0
LINE
  8
_0-f_
  6
CONTINUOUS
 62
    7
 10
384.93914308995807
 20
272.25621380195048
 11
384.4111510899582
 21
272.25621380195048
  0
LINE
  8
_0-f_
  6
CONTINUOUS
 62
    7
 10
383.99114308995814
 20
272.25621380195048
 11
383.51113508995809
 21
272.25621380195048
  0
LINE
  8
_0-f_
  6
CONTINUOUS
 62
    7
 10
387.47515108995827
 20
272.17621380195055
 11
387.03515108995799
 21
272.17621380195055
  0
LINE
  8
_0-f_
  6
CONTINUOUS
 62
    7
 10
385.83914308995804
 20
272.17621380195055
 11
385.35915108995817
 21
272.17621380195055
  0
LINE
  8
_0-f_
  6
CONTINUOUS
 62
    7
 10
384.93914308995807
 20
272.17621380195055
 11
384.4111510899582
 21
272.17621380195055
  0
LINE
  8
_0-f_
  6
CONTINUOUS
 62
    7
 10
383.99114308995814
 20
272.17621380195055
 11
383.51113508995809
 21
272.17621380195055
  0
LINE
  8
_0-f_
  6
CONTINUOUS
 62
    7
 10
387.47515108995827
 20
272.09621380195051
 11
387.03515108995799
 21
272.09621380195051
  0
LINE
  8
_0-f_
  6
CONTINUOUS
 62
    7
 10
385.83914308995804
 20
272.09621380195051
 11
385.35915108995817
 21
272.09621380195051
  0
LINE
  8
_0-f_
  6
CONTINUOUS
 62
    7
 10
384.93914308995807
 20
272.09621380195051
 11
384.4111510899582
 21
272.09621380195051
  0
LINE
  8
_0-f_
  6
CONTINUOUS
 62
    7
 10
383.99114308995814
 20
272.09621380195051
 11
383.51113508995809
 21
272.09621380195051
  0
LINE
  8
_0-f_
  6
CONTINUOUS
 62
    7
 10
387.47515108995827
 20
272.01621380195053
 11
387.03515108995799
 21
272.01621380195053
  0
LINE
  8
_0-f_
  6
CONTINUOUS
 62
    7
 10
385.83914308995804
 20
272.01621380195053
 11
385.35915108995817
 21
272.01621380195053
  0
LINE
  8
_0-f_
  6
CONTINUOUS
 62
    7
 10
384.93914308995807
 20
272.01621380195053
 11
384.4111510899582
 21
272.01621380195053
  0
LINE
  8
_0-f_
  6
CONTINUOUS
 62
    7
 10
383.99114308995814
 20
272.01621380195053
 11
383.51113508995809
 21
272.01621380195053
  0
LINE
  8
_0-f_
  6
CONTINUOUS
 62
    7
 10
387.47515108995827
 20
271.93621380195054
 11
387.03515108995799
 21
271.93621380195054
  0
LINE
  8
_0-f_
  6
CONTINUOUS
 62
    7
 10
385.83914308995804
 20
271.93621380195054
 11
385.35915108995817
 21
271.93621380195054
  0
LINE
  8
_0-f_
  6
CONTINUOUS
 62
    7
 10
384.93914308995807
 20
271.93621380195054
 11
384.4111510899582
 21
271.93621380195054
  0
LINE
  8
_0-f_
  6
CONTINUOUS
 62
    7
 10
383.99114308995814
 20
271.93621380195054
 11
383.51113508995809
 21
271.93621380195054
  0
LINE
  8
_0-f_
  6
CONTINUOUS
 62
    7
 10
387.47515108995827
 20
271.8562138019505
 11
387.03515108995799
 21
271.8562138019505
  0
LINE
  8
_0-f_
  6
CONTINUOUS
 62
    7
 10
385.84468052699305
 20
271.8562138019505
 11
385.35915108995817
 21
271.8562138019505
  0
LINE
  8
_0-f_
  6
CONTINUOUS
 62
    7
 10
384.93914308995807
 20
271.8562138019505
 11
384.4111510899582
 21
271.8562138019505
  0
LINE
  8
_0-f_
  6
CONTINUOUS
 62
    7
 10
383.99114308995814
 20
271.8562138019505
 11
383.50555989182618
 21
271.8562138019505
  0
LINE
  8
_0-f_
  6
CONTINUOUS
 62
    7
 10
387.47515108995827
 20
271.77621380195046
 11
387.03515108995799
 21
271.77621380195046
  0
LINE
  8
_0-f_
  6
CONTINUOUS
 62
    7
 10
385.89414418479873
 20
271.77621380195046
 11
385.35915108995817
 21
271.77621380195046
  0
LINE
  8
_0-f_
  6
CONTINUOUS
 62
    7
 10
384.93914308995807
 20
271.77621380195046
 11
384.4111510899582
 21
271.77621380195046
  0
LINE
  8
_0-f_
  6
CONTINUOUS
 62
    7
 10
383.99114308995814
 20
271.77621380195046
 11
383.45615076408893
 21
271.77621380195046
  0
LINE
  8
_0-f_
  6
CONTINUOUS
 62
    7
 10
388.09514308995807
 20
271.69621380195048
 11
386.45514308995831
 21
271.69621380195048
  0
LINE
  8
_0-f_
  6
CONTINUOUS
 62
    7
 10
386.05514308995794
 20
271.69621380195048
 11
385.35915108995817
 21
271.69621380195048
  0
LINE
  8
_0-f_
  6
CONTINUOUS
 62
    7
 10
384.93914308995807
 20
271.69621380195048
 11
384.4111510899582
 21
271.69621380195048
  0
LINE
  8
_0-f_
  6
CONTINUOUS
 62
    7
 10
383.99114308995814
 20
271.69621380195048
 11
383.29513508995819
 21
271.69621380195048
  0
LINE
  8
_0-f_
  6
CONTINUOUS
 62
    7
 10
388.09514308995807
 20
271.61621380195049
 11
386.45514308995831
 21
271.61621380195049
  0
LINE
  8
_0-f_
  6
CONTINUOUS
 62
    7
 10
386.05514308995794
 20
271.61621380195049
 11
385.36234598187815
 21
271.61621380195049
  0
LINE
  8
_0-f_
  6
CONTINUOUS
 62
    7
 10
384.93914308995807
 20
271.61621380195049
 11
384.4111510899582
 21
271.61621380195049
  0
LINE
  8
_0-f_
  6
CONTINUOUS
 62
    7
 10
383.98799490511209
 20
271.61621380195049
 11
383.29513508995819
 21
271.61621380195049
  0
LINE
  8
_0-f_
  6
CONTINUOUS
 62
    7
 10
388.09514308995807
 20
271.53621380195045
 11
386.45514308995831
 21
271.53621380195045
  0
LINE
  8
_0-f_
  6
CONTINUOUS
 62
    7
 10
386.05514308995794
 20
271.53621380195045
 11
385.37808558370028
 21
271.53621380195045
  0
LINE
  8
_0-f_
  6
CONTINUOUS
 62
    7
 10
384.93914308995807
 20
271.53621380195045
 11
384.4111510899582
 21
271.53621380195045
  0
LINE
  8
_0-f_
  6
CONTINUOUS
 62
    7
 10
383.97243168784451
 20
271.53621380195045
 11
383.29513508995819
 21
271.53621380195045
  0
LINE
  8
_0-f_
  6
CONTINUOUS
 62
    7
 10
388.09514308995807
 20
271.45621380195053
 11
386.45514308995831
 21
271.45621380195053
  0
LINE
  8
_0-f_
  6
CONTINUOUS
 62
    7
 10
386.05514308995794
 20
271.45621380195053
 11
385.41388887150202
 21
271.45621380195053
  0
LINE
  8
_0-f_
  6
CONTINUOUS
 62
    7
 10
384.93914308995807
 20
271.45621380195053
 11
384.4111510899582
 21
271.45621380195053
  0
LINE
  8
_0-f_
  6
CONTINUOUS
 62
    7
 10
383.93626761531181
 20
271.45621380195053
 11
383.29513508995819
 21
271.45621380195053
  0
LINE
  8
_0-f_
  6
CONTINUOUS
 62
    7
 10
388.09514308995807
 20
271.37621380195048
 11
386.45514308995831
 21
271.37621380195048
  0
LINE
  8
_0-f_
  6
CONTINUOUS
 62
    7
 10
386.05514308995794
 20
271.37621380195048
 11
385.47417177553251
 21
271.37621380195048
  0
LINE
  8
_0-f_
  6
CONTINUOUS
 62
    7
 10
384.93914308995807
 20
271.37621380195048
 11
384.4111510899582
 21
271.37621380195048
  0
LINE
  8
_0-f_
  6
CONTINUOUS
 62
    7
 10
383.8764135142336
 20
271.37621380195048
 11
383.29513508995819
 21
271.37621380195048
  0
LINE
  8
_0-f_
  6
CONTINUOUS
 62
    7
 10
388.09514308995807
 20
271.2962138019505
 11
386.45514308995831
 21
271.2962138019505
  0
LINE
  8
_0-f_
  6
CONTINUOUS
 62
    7
 10
386.05514308995794
 20
271.2962138019505
 11
385.58565784769019
 21
271.2962138019505
  0
LINE
  8
_0-f_
  6
CONTINUOUS
 62
    7
 10
384.93914308995807
 20
271.2962138019505
 11
384.4111510899582
 21
271.2962138019505
  0
LINE
  8
_0-f_
  6
CONTINUOUS
 62
    7
 10
383.76405374666541
 20
271.2962138019505
 11
383.29513508995819
 21
271.2962138019505
  0
LINE
  8
_0-f_
  6
CONTINUOUS
 62
    7
 10
384.4111510899582
 20
273.69629380195056
 11
384.4111510899582
 21
271.25621380195054
  0
LINE
  8
_0-f_
  6
CONTINUOUS
 62
    7
 10
384.93914308995807
 20
273.69629380195056
 11
384.93914308995807
 21
271.25621380195054
  0
LINE
  8
_0-f_
  6
CONTINUOUS
 62
    7
 10
383.51113508995815
 20
273.21621380195052
 11
383.51113508995815
 21
271.89629380195049
  0
LINE
  8
_0-f_
  6
CONTINUOUS
 62
    7
 10
383.99114308995814
 20
273.21621380195052
 11
383.99114308995814
 21
271.65621380195051
  0
ARC
  8
_0-f_
  6
CONTINUOUS
 62
    7
 10
383.35114308995816
 20
271.89629380195049
 40
0.16
 50
270
 51
0
  0
LINE
  8
_0-f_
  6
CONTINUOUS
 62
    7
 10
383.29513508995814
 20
271.25621380195054
 11
383.59114308995817
 21
271.25621380195054
  0
LINE
  8
_0-f_
  6
CONTINUOUS
 62
    7
 10
383.29513508995814
 20
271.73629380195052
 11
383.35114308995816
 21
271.73629380195052
  0
LINE
  8
_0-f_
  6
CONTINUOUS
 62
    7
 10
383.29513508995814
 20
271.73629380195052
 11
383.29513508995814
 21
271.25621380195054
  0
ARC
  8
_0-f_
  6
CONTINUOUS
 62
    7
 10
383.59114308995817
 20
271.65621380195051
 40
0.4
 50
270
 51
0
  0
LINE
  8
_0-f_
  6
CONTINUOUS
 62
    7
 10
383.51113508995815
 20
273.21621380195052
 11
383.99114308995814
 21
273.21621380195052
  0
LINE
  8
_0-f_
  6
CONTINUOUS
 62
    7
 10
384.4111510899582
 20
271.25621380195054
 11
384.93914308995807
 21
271.25621380195054
  0
LINE
  8
_0-f_
  6
CONTINUOUS
 62
    7
 10
385.35915108995817
 20
273.21621380195052
 11
385.35915108995817
 21
271.65621380195051
  0
LINE
  8
_0-f_
  6
CONTINUOUS
 62
    7
 10
385.83914308995821
 20
273.21621380195052
 11
385.83914308995821
 21
271.89629380195049
  0
ARC
  8
_0-f_
  6
CONTINUOUS
 62
    7
 10
385.75913508995819
 20
271.65621380195051
 40
0.4
 50
180
 51
270
  0
LINE
  8
_0-f_
  6
CONTINUOUS
 62
    7
 10
385.75913508995819
 20
271.25621380195054
 11
386.05514308995811
 21
271.25621380195054
  0
LINE
  8
_0-f_
  6
CONTINUOUS
 62
    7
 10
386.05514308995811
 20
271.73629380195052
 11
386.05514308995811
 21
271.25621380195054
  0
LINE
  8
_0-f_
  6
CONTINUOUS
 62
    7
 10
385.99913508995814
 20
271.73629380195052
 11
386.05514308995811
 21
271.73629380195052
  0
ARC
  8
_0-f_
  6
CONTINUOUS
 62
    7
 10
385.99913508995814
 20
271.89629380195049
 40
0.16
 50
180
 51
270
  0
LINE
  8
_0-f_
  6
CONTINUOUS
 62
    7
 10
385.35915108995817
 20
273.21621380195052
 11
385.83914308995821
 21
273.21621380195052
  0
LINE
  8
_0-f_
  6
CONTINUOUS
 62
    7
 10
383.29513508995814
 20
275.25625380195055
 11
386.05514308995811
 21
275.25625380195055
  0
LINE
  8
_0-f_
  6
CONTINUOUS
 62
    7
 10
383.29513508995814
 20
274.81621380195054
 11
386.05514308995811
 21
274.81621380195054
  0
LINE
  8
_0-f_
  6
CONTINUOUS
 62
    7
 10
383.29513508995814
 20
274.13633380195051
 11
386.05514308995811
 21
274.13633380195051
  0
LINE
  8
_0-f_
  6
CONTINUOUS
 62
    7
 10
383.29513508995814
 20
273.69629380195056
 11
384.4111510899582
 21
273.69629380195056
  0
LINE
  8
_0-f_
  6
CONTINUOUS
 62
    7
 10
383.29513508995814
 20
274.13633380195051
 11
383.29513508995814
 21
273.69629380195056
  0
LINE
  8
_0-f_
  6
CONTINUOUS
 62
    7
 10
383.29513508995814
 20
275.25625380195055
 11
383.29513508995814
 21
274.81621380195054
  0
LINE
  8
_0-f_
  6
CONTINUOUS
 62
    7
 10
384.93914308995807
 20
273.69629380195056
 11
386.05514308995811
 21
273.69629380195056
  0
LINE
  8
_0-f_
  6
CONTINUOUS
 62
    7
 10
386.05514308995811
 20
274.13633380195051
 11
386.05514308995811
 21
273.69629380195056
  0
LINE
  8
_0-f_
  6
CONTINUOUS
 62
    7
 10
386.05514308995811
 20
275.25625380195055
 11
386.05514308995811
 21
274.81621380195054
  0
LINE
  8
_0-f_
  6
CONTINUOUS
 62
    7
 10
387.03515108995816
 20
273.89629380195049
 11
387.03515108995816
 21
271.73629380195052
  0
LINE
  8
_0-f_
  6
CONTINUOUS
 62
    7
 10
387.47515108995827
 20
273.89629380195049
 11
387.47515108995827
 21
271.73629380195052
  0
LINE
  8
_0-f_
  6
CONTINUOUS
 62
    7
 10
386.4551430899582
 20
271.25621380195054
 11
388.09514308995824
 21
271.25621380195054
  0
LINE
  8
_0-f_
  6
CONTINUOUS
 62
    7
 10
386.4551430899582
 20
271.73629380195052
 11
387.03515108995816
 21
271.73629380195052
  0
LINE
  8
_0-f_
  6
CONTINUOUS
 62
    7
 10
386.4551430899582
 20
271.73629380195052
 11
386.4551430899582
 21
271.25621380195054
  0
LINE
  8
_0-f_
  6
CONTINUOUS
 62
    7
 10
388.09514308995824
 20
271.73629380195052
 11
387.47515108995827
 21
271.73629380195052
  0
LINE
  8
_0-f_
  6
CONTINUOUS
 62
    7
 10
388.09514308995824
 20
271.73629380195052
 11
388.09514308995824
 21
271.25621380195054
  0
LINE
  8
_0-f_
  6
CONTINUOUS
 62
    7
 10
387.03515108995816
 20
275.25625380195055
 11
387.47515108995827
 21
275.25625380195055
  0
LINE
  8
_0-f_
  6
CONTINUOUS
 62
    7
 10
387.03515108995816
 20
275.25625380195055
 11
387.03515108995816
 21
274.33633380195056
  0
LINE
  8
_0-f_
  6
CONTINUOUS
 62
    7
 10
386.4551430899582
 20
274.33633380195056
 11
387.03515108995816
 21
274.33633380195056
  0
LINE
  8
_0-f_
  6
CONTINUOUS
 62
    7
 10
386.4551430899582
 20
273.89629380195049
 11
387.03515108995816
 21
273.89629380195049
  0
LINE
  8
_0-f_
  6
CONTINUOUS
 62
    7
 10
386.4551430899582
 20
274.33633380195056
 11
386.4551430899582
 21
273.89629380195049
  0
LINE
  8
_0-f_
  6
CONTINUOUS
 62
    7
 10
387.47515108995827
 20
275.25625380195055
 11
387.47515108995827
 21
274.33633380195056
  0
LINE
  8
_0-f_
  6
CONTINUOUS
 62
    7
 10
388.09514308995824
 20
273.89629380195049
 11
387.47515108995827
 21
273.89629380195049
  0
LINE
  8
_0-f_
  6
CONTINUOUS
 62
    7
 10
387.47515108995827
 20
274.33633380195056
 11
388.09514308995824
 21
274.33633380195056
  0
LINE
  8
_0-f_
  6
CONTINUOUS
 62
    7
 10
388.09514308995824
 20
274.33496580195055
 11
388.09514308995824
 21
273.89629380195049
  0
LINE
  8
_0-f_
  6
CONTINUOUS
 62
    7
 10
360.6184927153933
 20
275.25625380195055
 11
356.45848471539313
 21
275.25625380195055
  0
LINE
  8
_0-f_
  6
CONTINUOUS
 62
    7
 10
356.45848471539313
 20
275.25625380195055
 11
356.45848471539313
 21
274.77617380195051
  0
LINE
  8
_0-f_
  6
CONTINUOUS
 62
    7
 10
356.45848471539313
 20
274.77617380195051
 11
358.13846871539317
 21
274.77617380195056
  0
LINE
  8
_0-f_
  6
CONTINUOUS
 62
    7
 10
358.13846871539317
 20
274.77617380195056
 11
358.13846871539317
 21
271.73629380195052
  0
LINE
  8
_0-f_
  6
CONTINUOUS
 62
    7
 10
358.13846871539317
 20
271.73629380195052
 11
356.13849271539306
 21
271.73629380195052
  0
LINE
  8
_0-f_
  6
CONTINUOUS
 62
    7
 10
356.13849271539306
 20
271.73629380195052
 11
356.13849271539306
 21
271.25621380195054
  0
LINE
  8
_0-f_
  6
CONTINUOUS
 62
    7
 10
356.13849271539306
 20
271.25621380195054
 11
360.93846871539324
 21
271.25621380195054
  0
LINE
  8
_0-f_
  6
CONTINUOUS
 62
    7
 10
360.93846871539324
 20
271.25621380195054
 11
360.93846871539324
 21
271.73629380195052
  0
LINE
  8
_0-f_
  6
CONTINUOUS
 62
    7
 10
360.93846871539324
 20
271.73629380195052
 11
358.93846871539313
 21
271.73629380195052
  0
LINE
  8
_0-f_
  6
CONTINUOUS
 62
    7
 10
358.93846871539313
 20
271.73629380195052
 11
358.93846871539313
 21
274.77617380195051
  0
LINE
  8
_0-f_
  6
CONTINUOUS
 62
    7
 10
358.93846871539313
 20
274.77617380195051
 11
360.6184927153933
 21
274.77617380195056
  0
LINE
  8
_0-f_
  6
CONTINUOUS
 62
    7
 10
360.6184927153933
 20
274.77617380195056
 11
360.6184927153933
 21
275.25625380195055
  0
LINE
  8
_0-f_
  6
CONTINUOUS
 62
    7
 10
358.93846871539313
 20
273.21621380195052
 11
358.13846871539317
 21
273.21621380195052
  0
LINE
  8
_0-f_
  6
CONTINUOUS
 62
    7
 10
358.93846871539313
 20
273.29621380195056
 11
358.13846871539317
 21
273.29621380195056
  0
LINE
  8
_0-f_
  6
CONTINUOUS
 62
    7
 10
358.93846871539313
 20
273.37621380195048
 11
358.13846871539317
 21
273.37621380195048
  0
LINE
  8
_0-f_
  6
CONTINUOUS
 62
    7
 10
358.93846871539313
 20
273.45621380195053
 11
358.13846871539317
 21
273.45621380195053
  0
LINE
  8
_0-f_
  6
CONTINUOUS
 62
    7
 10
358.93846871539313
 20
273.53621380195051
 11
358.13846871539317
 21
273.53621380195051
  0
LINE
  8
_0-f_
  6
CONTINUOUS
 62
    7
 10
358.93846871539313
 20
273.61621380195049
 11
358.13846871539317
 21
273.61621380195049
  0
LINE
  8
_0-f_
  6
CONTINUOUS
 62
    7
 10
358.93846871539313
 20
273.69621380195053
 11
358.13846871539317
 21
273.69621380195053
  0
LINE
  8
_0-f_
  6
CONTINUOUS
 62
    7
 10
358.93846871539313
 20
273.77621380195058
 11
358.13846871539317
 21
273.77621380195058
  0
LINE
  8
_0-f_
  6
CONTINUOUS
 62
    7
 10
358.93846871539313
 20
273.85621380195056
 11
358.13846871539317
 21
273.85621380195056
  0
LINE
  8
_0-f_
  6
CONTINUOUS
 62
    7
 10
358.93846871539313
 20
273.93621380195054
 11
358.13846871539317
 21
273.93621380195054
  0
LINE
  8
_0-f_
  6
CONTINUOUS
 62
    7
 10
358.93846871539313
 20
274.01621380195058
 11
358.13846871539317
 21
274.01621380195058
  0
LINE
  8
_0-f_
  6
CONTINUOUS
 62
    7
 10
358.93846871539313
 20
274.09621380195051
 11
358.13846871539317
 21
274.09621380195051
  0
LINE
  8
_0-f_
  6
CONTINUOUS
 62
    7
 10
358.93846871539313
 20
274.17621380195055
 11
358.13846871539317
 21
274.17621380195055
  0
LINE
  8
_0-f_
  6
CONTINUOUS
 62
    7
 10
358.93846871539313
 20
274.25621380195054
 11
358.13846871539317
 21
274.25621380195054
  0
LINE
  8
_0-f_
  6
CONTINUOUS
 62
    7
 10
358.93846871539313
 20
274.33621380195052
 11
358.13846871539317
 21
274.33621380195052
  0
LINE
  8
_0-f_
  6
CONTINUOUS
 62
    7
 10
358.93846871539313
 20
274.41621380195056
 11
358.13846871539317
 21
274.41621380195056
  0
LINE
  8
_0-f_
  6
CONTINUOUS
 62
    7
 10
358.93846871539313
 20
274.49621380195049
 11
358.13846871539317
 21
274.49621380195049
  0
LINE
  8
_0-f_
  6
CONTINUOUS
 62
    7
 10
358.93846871539313
 20
274.57621380195053
 11
358.13846871539317
 21
274.57621380195053
  0
LINE
  8
_0-f_
  6
CONTINUOUS
 62
    7
 10
358.93846871539313
 20
274.65621380195057
 11
358.13846871539317
 21
274.65621380195057
  0
LINE
  8
_0-f_
  6
CONTINUOUS
 62
    7
 10
358.93846871539313
 20
274.7362138019505
 11
358.13846871539317
 21
274.7362138019505
  0
LINE
  8
_0-f_
  6
CONTINUOUS
 62
    7
 10
360.61849271539313
 20
274.81621380195054
 11
356.45848471539313
 21
274.81621380195054
  0
LINE
  8
_0-f_
  6
CONTINUOUS
 62
    7
 10
360.61849271539313
 20
274.89621380195058
 11
356.45848471539313
 21
274.89621380195058
  0
LINE
  8
_0-f_
  6
CONTINUOUS
 62
    7
 10
360.61849271539313
 20
274.97621380195056
 11
356.45848471539313
 21
274.97621380195056
  0
LINE
  8
_0-f_
  6
CONTINUOUS
 62
    7
 10
360.61849271539313
 20
275.05621380195055
 11
356.45848471539313
 21
275.05621380195055
  0
LINE
  8
_0-f_
  6
CONTINUOUS
 62
    7
 10
360.61849271539313
 20
275.13621380195059
 11
356.45848471539313
 21
275.13621380195059
  0
LINE
  8
_0-f_
  6
CONTINUOUS
 62
    7
 10
360.61849271539313
 20
275.21621380195052
 11
356.45848471539313
 21
275.21621380195052
  0
LINE
  8
_0-f_
  6
CONTINUOUS
 62
    7
 10
358.93846871539313
 20
273.13621380195053
 11
358.13846871539317
 21
273.13621380195053
  0
LINE
  8
_0-f_
  6
CONTINUOUS
 62
    7
 10
358.93846871539313
 20
273.05621380195055
 11
358.13846871539317
 21
273.05621380195055
  0
LINE
  8
_0-f_
  6
CONTINUOUS
 62
    7
 10
358.93846871539313
 20
272.97621380195051
 11
358.13846871539317
 21
272.97621380195051
  0
LINE
  8
_0-f_
  6
CONTINUOUS
 62
    7
 10
358.93846871539313
 20
272.89621380195047
 11
358.13846871539317
 21
272.89621380195047
  0
LINE
  8
_0-f_
  6
CONTINUOUS
 62
    7
 10
358.93846871539313
 20
272.81621380195054
 11
358.13846871539317
 21
272.81621380195054
  0
LINE
  8
_0-f_
  6
CONTINUOUS
 62
    7
 10
358.93846871539313
 20
272.7362138019505
 11
358.13846871539317
 21
272.7362138019505
  0
LINE
  8
_0-f_
  6
CONTINUOUS
 62
    7
 10
358.93846871539313
 20
272.65621380195046
 11
358.13846871539317
 21
272.65621380195046
  0
LINE
  8
_0-f_
  6
CONTINUOUS
 62
    7
 10
358.93846871539313
 20
272.57621380195053
 11
358.13846871539317
 21
272.57621380195053
  0
LINE
  8
_0-f_
  6
CONTINUOUS
 62
    7
 10
358.93846871539313
 20
272.49621380195049
 11
358.13846871539317
 21
272.49621380195049
  0
LINE
  8
_0-f_
  6
CONTINUOUS
 62
    7
 10
358.93846871539313
 20
272.41621380195051
 11
358.13846871539317
 21
272.41621380195051
  0
LINE
  8
_0-f_
  6
CONTINUOUS
 62
    7
 10
358.93846871539313
 20
272.33621380195052
 11
358.13846871539317
 21
272.33621380195052
  0
LINE
  8
_0-f_
  6
CONTINUOUS
 62
    7
 10
358.93846871539313
 20
272.25621380195048
 11
358.13846871539317
 21
272.25621380195048
  0
LINE
  8
_0-f_
  6
CONTINUOUS
 62
    7
 10
358.93846871539313
 20
272.17621380195055
 11
358.13846871539317
 21
272.17621380195055
  0
LINE
  8
_0-f_
  6
CONTINUOUS
 62
    7
 10
358.93846871539313
 20
272.09621380195051
 11
358.13846871539317
 21
272.09621380195051
  0
LINE
  8
_0-f_
  6
CONTINUOUS
 62
    7
 10
358.93846871539313
 20
272.01621380195053
 11
358.13846871539317
 21
272.01621380195053
  0
LINE
  8
_0-f_
  6
CONTINUOUS
 62
    7
 10
358.93846871539313
 20
271.93621380195054
 11
358.13846871539317
 21
271.93621380195054
  0
LINE
  8
_0-f_
  6
CONTINUOUS
 62
    7
 10
358.93846871539313
 20
271.8562138019505
 11
358.13846871539317
 21
271.8562138019505
  0
LINE
  8
_0-f_
  6
CONTINUOUS
 62
    7
 10
358.93846871539313
 20
271.77621380195046
 11
358.13846871539317
 21
271.77621380195046
  0
LINE
  8
_0-f_
  6
CONTINUOUS
 62
    7
 10
360.93846871539318
 20
271.69621380195048
 11
356.13849271539306
 21
271.69621380195048
  0
LINE
  8
_0-f_
  6
CONTINUOUS
 62
    7
 10
360.93846871539318
 20
271.61621380195049
 11
356.13849271539306
 21
271.61621380195049
  0
LINE
  8
_0-f_
  6
CONTINUOUS
 62
    7
 10
360.93846871539318
 20
271.53621380195045
 11
356.13849271539306
 21
271.53621380195045
  0
LINE
  8
_0-f_
  6
CONTINUOUS
 62
    7
 10
360.93846871539318
 20
271.45621380195053
 11
356.13849271539306
 21
271.45621380195053
  0
LINE
  8
_0-f_
  6
CONTINUOUS
 62
    7
 10
360.93846871539318
 20
271.37621380195048
 11
356.13849271539306
 21
271.37621380195048
  0
LINE
  8
_0-f_
  6
CONTINUOUS
 62
    7
 10
360.93846871539318
 20
271.2962138019505
 11
356.13849271539306
 21
271.2962138019505
  0
LINE
  8
_0-f_
  6
CONTINUOUS
 62
    7
 10
356.45848471539313
 20
275.25625380195055
 11
360.6184927153933
 21
275.25625380195055
  0
LINE
  8
_0-f_
  6
CONTINUOUS
 62
    7
 10
356.13849271539306
 20
271.25621380195054
 11
360.93846871539324
 21
271.25621380195054
  0
LINE
  8
_0-f_
  6
CONTINUOUS
 62
    7
 10
358.93846871539313
 20
271.73629380195052
 11
360.93846871539324
 21
271.73629380195052
  0
LINE
  8
_0-f_
  6
CONTINUOUS
 62
    7
 10
358.93846871539313
 20
274.77617380195056
 11
360.6184927153933
 21
274.77617380195056
  0
LINE
  8
_0-f_
  6
CONTINUOUS
 62
    7
 10
358.13846871539317
 20
274.77617380195056
 11
358.13846871539317
 21
271.73629380195052
  0
LINE
  8
_0-f_
  6
CONTINUOUS
 62
    7
 10
358.93846871539313
 20
274.77617380195056
 11
358.93846871539313
 21
271.73629380195052
  0
LINE
  8
_0-f_
  6
CONTINUOUS
 62
    7
 10
356.13849271539306
 20
271.73629380195052
 11
358.13846871539317
 21
271.73629380195052
  0
LINE
  8
_0-f_
  6
CONTINUOUS
 62
    7
 10
356.13849271539306
 20
271.73629380195052
 11
356.13849271539306
 21
271.25621380195054
  0
LINE
  8
_0-f_
  6
CONTINUOUS
 62
    7
 10
356.45848471539313
 20
274.77617380195051
 11
358.13846871539317
 21
274.77617380195056
  0
LINE
  8
_0-f_
  6
CONTINUOUS
 62
    7
 10
356.45848471539313
 20
275.25625380195055
 11
356.45848471539313
 21
274.77617380195051
  0
LINE
  8
_0-f_
  6
CONTINUOUS
 62
    7
 10
360.93846871539324
 20
271.73629380195052
 11
360.93846871539324
 21
271.25621380195054
  0
LINE
  8
_0-f_
  6
CONTINUOUS
 62
    7
 10
360.6184927153933
 20
275.25625380195055
 11
360.6184927153933
 21
274.77617380195051
  0
LINE
  8
_0-f_
  6
CONTINUOUS
 62
    7
 10
354.21855055738723
 20
273.81621380195054
 11
353.54898622462645
 21
271.97621380195056
  0
LINE
  8
_0-f_
  6
CONTINUOUS
 62
    7
 10
353.54898622462645
 20
271.97621380195056
 11
353.14893311313358
 21
271.97621380195056
  0
LINE
  8
_0-f_
  6
CONTINUOUS
 62
    7
 10
353.14893311313358
 20
271.97621380195056
 11
352.88655711313368
 21
271.25621380195054
  0
LINE
  8
_0-f_
  6
CONTINUOUS
 62
    7
 10
352.88655711313368
 20
271.25621380195054
 11
354.3610691319796
 21
271.25621380195054
  0
ARC
  8
_0-f_
  6
CONTINUOUS
 62
    7
 10
354.3610691319796
 20
271.65621380195051
 40
0.4000000000000004
 50
270
 51
339.99904441127069
  0
LINE
  8
_0-f_
  6
CONTINUOUS
 62
    7
 10
354.7369438985337
 20
271.51939947569815
 11
355.71783842984996
 21
274.21424520619905
  0
ARC
  8
_0-f_
  6
CONTINUOUS
 62
    7
 10
355.49231356991743
 20
274.29633380195054
 40
0.2399999999999993
 50
339.99904441126887
 51
90.000000000000014
  0
LINE
  8
_0-f_
  6
CONTINUOUS
 62
    7
 10
355.49231356991743
 20
274.53633380195049
 11
353.45298478283621
 21
274.53633380195049
  0
LINE
  8
_0-f_
  6
CONTINUOUS
 62
    7
 10
353.45298478283621
 20
274.53633380195049
 11
353.59776670616054
 21
274.93418012904328
  0
ARC
  8
_0-f_
  6
CONTINUOUS
 62
    7
 10
353.37223641503419
 20
275.01625380195048
 40
0.2399999999999989
 50
340.002835592856
 51
90.000000000000043
  0
LINE
  8
_0-f_
  6
CONTINUOUS
 62
    7
 10
353.37223641503419
 20
275.25625380195055
 11
352.36019708904513
 21
275.25625380195055
  0
LINE
  8
_0-f_
  6
CONTINUOUS
 62
    7
 10
352.36019708904513
 20
275.25625380195055
 11
352.09860506495636
 21
274.53633380195049
  0
LINE
  8
_0-f_
  6
CONTINUOUS
 62
    7
 10
352.09860506495636
 20
274.53633380195049
 11
351.45855711313368
 21
274.53633380195049
  0
LINE
  8
_0-f_
  6
CONTINUOUS
 62
    7
 10
351.45855711313368
 20
274.53633380195049
 11
351.19612578979229
 21
273.81621380195054
  0
LINE
  8
_0-f_
  6
CONTINUOUS
 62
    7
 10
351.19612578979229
 20
273.81621380195054
 11
351.83618549288434
 21
273.81621380195054
  0
LINE
  8
_0-f_
  6
CONTINUOUS
 62
    7
 10
351.83618549288434
 20
273.81621380195054
 11
351.16656511313363
 21
271.97621380195056
  0
LINE
  8
_0-f_
  6
CONTINUOUS
 62
    7
 10
351.16656511313363
 20
271.97621380195056
 11
350.52654911313357
 21
271.97621380195056
  0
LINE
  8
_0-f_
  6
CONTINUOUS
 62
    7
 10
350.52654911313357
 20
271.97621380195056
 11
350.26417026633874
 21
271.25621380195054
  0
LINE
  8
_0-f_
  6
CONTINUOUS
 62
    7
 10
350.26417026633874
 20
271.25621380195054
 11
351.92352225224727
 21
271.25621380195054
  0
ARC
  8
_0-f_
  6
CONTINUOUS
 62
    7
 10
351.92352225224727
 20
271.7362138019505
 40
0.4800000000000009
 50
270
 51
340.00100452272619
  0
LINE
  8
_0-f_
  6
CONTINUOUS
 62
    7
 10
352.37457758841515
 20
271.57205204113455
 11
353.1913411131336
 21
273.81621380195054
  0
LINE
  8
_0-f_
  6
CONTINUOUS
 62
    7
 10
353.1913411131336
 20
273.81621380195054
 11
354.21855055738723
 21
273.81621380195054
  0
LINE
  8
_0-f_
  6
CONTINUOUS
 62
    7
 10
355.35456585530915
 20
273.21621380195052
 11
354.00021436192173
 21
273.21621380195052
  0
LINE
  8
_0-f_
  6
CONTINUOUS
 62
    7
 10
352.97297088537744
 20
273.21621380195052
 11
351.61783102122649
 21
273.21621380195052
  0
LINE
  8
_0-f_
  6
CONTINUOUS
 62
    7
 10
355.38368498506748
 20
273.29621380195056
 11
354.02932585465049
 21
273.29621380195056
  0
LINE
  8
_0-f_
  6
CONTINUOUS
 62
    7
 10
353.00208691574488
 20
273.29621380195056
 11
351.64694495078089
 21
273.29621380195056
  0
LINE
  8
_0-f_
  6
CONTINUOUS
 62
    7
 10
355.41280411482592
 20
273.37621380195048
 11
354.0584373473792
 21
273.37621380195048
  0
LINE
  8
_0-f_
  6
CONTINUOUS
 62
    7
 10
353.03120294611239
 20
273.37621380195048
 11
351.67605888033529
 21
273.37621380195048
  0
LINE
  8
_0-f_
  6
CONTINUOUS
 62
    7
 10
355.44192324458436
 20
273.45621380195053
 11
354.08754884010796
 21
273.45621380195053
  0
LINE
  8
_0-f_
  6
CONTINUOUS
 62
    7
 10
353.06031897647989
 20
273.45621380195053
 11
351.70517280988963
 21
273.45621380195053
  0
LINE
  8
_0-f_
  6
CONTINUOUS
 62
    7
 10
355.47104237434269
 20
273.53621380195051
 11
354.11666033283666
 21
273.53621380195051
  0
LINE
  8
_0-f_
  6
CONTINUOUS
 62
    7
 10
353.0894350068474
 20
273.53621380195057
 11
351.73428673944397
 21
273.53621380195051
  0
LINE
  8
_0-f_
  6
CONTINUOUS
 62
    7
 10
355.50016150410107
 20
273.61621380195049
 11
354.14577182556536
 21
273.61621380195049
  0
LINE
  8
_0-f_
  6
CONTINUOUS
 62
    7
 10
353.11855103721484
 20
273.61621380195049
 11
351.76340066899837
 21
273.61621380195049
  0
LINE
  8
_0-f_
  6
CONTINUOUS
 62
    7
 10
355.52928063385946
 20
273.69621380195053
 11
354.17488331829418
 21
273.69621380195053
  0
LINE
  8
_0-f_
  6
CONTINUOUS
 62
    7
 10
353.14766706758235
 20
273.69621380195053
 11
351.79251459855277
 21
273.69621380195053
  0
LINE
  8
_0-f_
  6
CONTINUOUS
 62
    7
 10
355.55839976361784
 20
273.77621380195058
 11
354.20399481102288
 21
273.77621380195058
  0
LINE
  8
_0-f_
  6
CONTINUOUS
 62
    7
 10
353.17678309794985
 20
273.77621380195058
 11
351.82162852810717
 21
273.77621380195058
  0
LINE
  8
_0-f_
  6
CONTINUOUS
 62
    7
 10
355.58751889337623
 20
273.85621380195056
 11
351.21070287824102
 21
273.85621380195056
  0
LINE
  8
_0-f_
  6
CONTINUOUS
 62
    7
 10
355.61663802313467
 20
273.93621380195054
 11
351.23985705513837
 21
273.93621380195054
  0
LINE
  8
_0-f_
  6
CONTINUOUS
 62
    7
 10
355.64575715289305
 20
274.01621380195058
 11
351.26901123203572
 21
274.01621380195058
  0
LINE
  8
_0-f_
  6
CONTINUOUS
 62
    7
 10
355.67487628265144
 20
274.09621380195051
 11
351.29816540893302
 21
274.09621380195051
  0
LINE
  8
_0-f_
  6
CONTINUOUS
 62
    7
 10
355.70399541240977
 20
274.17621380195055
 11
351.32731958583042
 21
274.17621380195055
  0
LINE
  8
_0-f_
  6
CONTINUOUS
 62
    7
 10
355.7285501656512
 20
274.25621380195054
 11
351.35647376272772
 21
274.25621380195054
  0
LINE
  8
_0-f_
  6
CONTINUOUS
 62
    7
 10
355.72836161143869
 20
274.33621380195052
 11
351.38562793962501
 21
274.33621380195052
  0
LINE
  8
_0-f_
  6
CONTINUOUS
 62
    7
 10
355.69938800172918
 20
274.41621380195056
 11
351.41478211652236
 21
274.41621380195056
  0
LINE
  8
_0-f_
  6
CONTINUOUS
 62
    7
 10
355.62381972293758
 20
274.49621380195049
 11
351.44393629341971
 21
274.49621380195049
  0
LINE
  8
_0-f_
  6
CONTINUOUS
 62
    7
 10
353.46749768067883
 20
274.57621380195053
 11
352.113095966613
 21
274.57621380195053
  0
LINE
  8
_0-f_
  6
CONTINUOUS
 62
    7
 10
353.49661081576949
 20
274.65621380195057
 11
352.14216497695736
 21
274.65621380195057
  0
LINE
  8
_0-f_
  6
CONTINUOUS
 62
    7
 10
353.52572395086003
 20
274.7362138019505
 11
352.17123398730166
 21
274.7362138019505
  0
LINE
  8
_0-f_
  6
CONTINUOUS
 62
    7
 10
353.55483708595057
 20
274.81621380195054
 11
352.20030299764602
 21
274.81621380195054
  0
LINE
  8
_0-f_
  6
CONTINUOUS
 62
    7
 10
353.58395022104122
 20
274.89621380195058
 11
352.22937200799038
 21
274.89621380195058
  0
LINE
  8
_0-f_
  6
CONTINUOUS
 62
    7
 10
353.60848317424222
 20
274.97621380195056
 11
352.25844101833479
 21
274.97621380195056
  0
LINE
  8
_0-f_
  6
CONTINUOUS
 62
    7
 10
353.60826863599482
 20
275.05621380195055
 11
352.28751002867909
 21
275.05621380195055
  0
LINE
  8
_0-f_
  6
CONTINUOUS
 62
    7
 10
353.57926541941174
 20
275.13621380195059
 11
352.31657903902345
 21
275.13621380195059
  0
LINE
  8
_0-f_
  6
CONTINUOUS
 62
    7
 10
353.503621499833
 20
275.21621380195052
 11
352.34564804936781
 21
275.21621380195052
  0
LINE
  8
_0-f_
  6
CONTINUOUS
 62
    7
 10
355.32544672555076
 20
273.13621380195053
 11
353.97110286919303
 21
273.13621380195053
  0
LINE
  8
_0-f_
  6
CONTINUOUS
 62
    7
 10
352.94385485500993
 20
273.13621380195053
 11
351.58871709167209
 21
273.13621380195053
  0
LINE
  8
_0-f_
  6
CONTINUOUS
 62
    7
 10
355.29632759579238
 20
273.05621380195055
 11
353.94199137646427
 21
273.05621380195055
  0
LINE
  8
_0-f_
  6
CONTINUOUS
 62
    7
 10
352.91473882464243
 20
273.05621380195055
 11
351.55960316211775
 21
273.05621380195055
  0
LINE
  8
_0-f_
  6
CONTINUOUS
 62
    7
 10
355.26720846603399
 20
272.97621380195051
 11
353.91287988373557
 21
272.97621380195051
  0
LINE
  8
_0-f_
  6
CONTINUOUS
 62
    7
 10
352.88562279427492
 20
272.97621380195051
 11
351.53048923256335
 21
272.97621380195051
  0
LINE
  8
_0-f_
  6
CONTINUOUS
 62
    7
 10
355.23808933627561
 20
272.89621380195047
 11
353.88376839100681
 21
272.89621380195047
  0
LINE
  8
_0-f_
  6
CONTINUOUS
 62
    7
 10
352.85650676390742
 20
272.89621380195047
 11
351.50137530300896
 21
272.89621380195047
  0
LINE
  8
_0-f_
  6
CONTINUOUS
 62
    7
 10
355.20897020651717
 20
272.81621380195054
 11
353.85465689827811
 21
272.81621380195054
  0
LINE
  8
_0-f_
  6
CONTINUOUS
 62
    7
 10
352.82739073353997
 20
272.81621380195054
 11
351.47226137345456
 21
272.81621380195054
  0
LINE
  8
_0-f_
  6
CONTINUOUS
 62
    7
 10
355.17985107675884
 20
272.7362138019505
 11
353.82554540554941
 21
272.7362138019505
  0
LINE
  8
_0-f_
  6
CONTINUOUS
 62
    7
 10
352.79827470317247
 20
272.7362138019505
 11
351.44314744390022
 21
272.7362138019505
  0
LINE
  8
_0-f_
  6
CONTINUOUS
 62
    7
 10
355.15073194700039
 20
272.65621380195046
 11
353.79643391282059
 21
272.65621380195046
  0
LINE
  8
_0-f_
  6
CONTINUOUS
 62
    7
 10
352.76915867280502
 20
272.65621380195057
 11
351.41403351434587
 21
272.65621380195046
  0
LINE
  8
_0-f_
  6
CONTINUOUS
 62
    7
 10
355.12161281724207
 20
272.57621380195053
 11
353.76732242009189
 21
272.57621380195053
  0
LINE
  8
_0-f_
  6
CONTINUOUS
 62
    7
 10
352.74004264243752
 20
272.57621380195053
 11
351.38491958479148
 21
272.57621380195053
  0
LINE
  8
_0-f_
  6
CONTINUOUS
 62
    7
 10
355.09249368748362
 20
272.49621380195049
 11
353.73821092736318
 21
272.49621380195049
  0
LINE
  8
_0-f_
  6
CONTINUOUS
 62
    7
 10
352.71092661207001
 20
272.49621380195049
 11
351.35580565523708
 21
272.49621380195049
  0
LINE
  8
_0-f_
  6
CONTINUOUS
 62
    7
 10
355.06337455772524
 20
272.41621380195051
 11
353.70909943463442
 21
272.41621380195051
  0
LINE
  8
_0-f_
  6
CONTINUOUS
 62
    7
 10
352.68181058170251
 20
272.41621380195051
 11
351.32669172568268
 21
272.41621380195051
  0
LINE
  8
_0-f_
  6
CONTINUOUS
 62
    7
 10
355.03425542796685
 20
272.33621380195052
 11
353.67998794190572
 21
272.33621380195052
  0
LINE
  8
_0-f_
  6
CONTINUOUS
 62
    7
 10
352.65269455133506
 20
272.33621380195052
 11
351.29757779612834
 21
272.33621380195052
  0
LINE
  8
_0-f_
  6
CONTINUOUS
 62
    7
 10
355.00513629820847
 20
272.25621380195048
 11
353.65087644917696
 21
272.25621380195048
  0
LINE
  8
_0-f_
  6
CONTINUOUS
 62
    7
 10
352.62357852096761
 20
272.25621380195048
 11
351.26846386657394
 21
272.25621380195048
  0
LINE
  8
_0-f_
  6
CONTINUOUS
 62
    7
 10
354.97601716845008
 20
272.17621380195055
 11
353.62176495644826
 21
272.17621380195055
  0
LINE
  8
_0-f_
  6
CONTINUOUS
 62
    7
 10
352.59446249060011
 20
272.17621380195055
 11
351.23934993701954
 21
272.17621380195055
  0
LINE
  8
_0-f_
  6
CONTINUOUS
 62
    7
 10
354.94689803869176
 20
272.09621380195051
 11
353.5926534637195
 21
272.09621380195051
  0
LINE
  8
_0-f_
  6
CONTINUOUS
 62
    7
 10
352.5653464602326
 20
272.09621380195051
 11
351.21023600746514
 21
272.09621380195051
  0
LINE
  8
_0-f_
  6
CONTINUOUS
 62
    7
 10
354.91777890893331
 20
272.01621380195053
 11
353.5635419709908
 21
272.01621380195053
  0
LINE
  8
_0-f_
  6
CONTINUOUS
 62
    7
 10
352.5362304298651
 20
272.01621380195053
 11
351.1811220779108
 21
272.01621380195053
  0
LINE
  8
_0-f_
  6
CONTINUOUS
 62
    7
 10
354.88865977917487
 20
271.93621380195054
 11
353.13435666868912
 21
271.93621380195054
  0
LINE
  8
_0-f_
  6
CONTINUOUS
 62
    7
 10
352.5071143994976
 20
271.93621380195054
 11
350.51197251053378
 21
271.93621380195054
  0
LINE
  8
_0-f_
  6
CONTINUOUS
 62
    7
 10
354.85954064941654
 20
271.8562138019505
 11
353.10520377980026
 21
271.8562138019505
  0
LINE
  8
_0-f_
  6
CONTINUOUS
 62
    7
 10
352.47799836913009
 20
271.8562138019505
 11
350.48281930533432
 21
271.8562138019505
  0
LINE
  8
_0-f_
  6
CONTINUOUS
 62
    7
 10
354.83042151965816
 20
271.77621380195046
 11
353.07605089091135
 21
271.77621380195046
  0
LINE
  8
_0-f_
  6
CONTINUOUS
 62
    7
 10
352.44888233876264
 20
271.77621380195046
 11
350.45366610013491
 21
271.77621380195046
  0
LINE
  8
_0-f_
  6
CONTINUOUS
 62
    7
 10
354.80130238989977
 20
271.69621380195048
 11
353.04689800202249
 21
271.69621380195048
  0
LINE
  8
_0-f_
  6
CONTINUOUS
 62
    7
 10
352.41976630839514
 20
271.69621380195053
 11
350.42451289493545
 21
271.69621380195048
  0
LINE
  8
_0-f_
  6
CONTINUOUS
 62
    7
 10
354.77218326014139
 20
271.61621380195049
 11
353.01774511313363
 21
271.61621380195049
  0
LINE
  8
_0-f_
  6
CONTINUOUS
 62
    7
 10
352.39065027802764
 20
271.61621380195049
 11
350.3953596897361
 21
271.61621380195049
  0
LINE
  8
_0-f_
  6
CONTINUOUS
 62
    7
 10
354.743064130383
 20
271.53621380195045
 11
352.98859222424471
 21
271.53621380195045
  0
LINE
  8
_0-f_
  6
CONTINUOUS
 62
    7
 10
352.35899490148603
 20
271.53621380195045
 11
350.36620648453669
 21
271.53621380195045
  0
LINE
  8
_0-f_
  6
CONTINUOUS
 62
    7
 10
354.70619365733592
 20
271.45621380195053
 11
352.95943933535585
 21
271.45621380195053
  0
LINE
  8
_0-f_
  6
CONTINUOUS
 62
    7
 10
352.31315945309154
 20
271.45621380195053
 11
350.33705327933728
 21
271.45621380195053
  0
LINE
  8
_0-f_
  6
CONTINUOUS
 62
    7
 10
354.64633955625561
 20
271.37621380195048
 11
352.93028644646699
 21
271.37621380195048
  0
LINE
  8
_0-f_
  6
CONTINUOUS
 62
    7
 10
352.23882651809527
 20
271.37621380195048
 11
350.30790007413782
 21
271.37621380195048
  0
LINE
  8
_0-f_
  6
CONTINUOUS
 62
    7
 10
354.53397978868634
 20
271.2962138019505
 11
352.90113355757808
 21
271.2962138019505
  0
LINE
  8
_0-f_
  6
CONTINUOUS
 62
    7
 10
352.11170136922084
 20
271.2962138019505
 11
350.27874686893841
 21
271.2962138019505
  0
LINE
  8
_0-f_
  6
CONTINUOUS
 62
    7
 10
353.1913411131336
 20
273.81621380195054
 11
354.21855055738723
 21
273.81621380195054
  0
LINE
  8
_0-f_
  6
CONTINUOUS
 62
    7
 10
353.54898622462645
 20
271.97621380195056
 11
354.21855055738723
 21
273.81621380195054
  0
LINE
  8
_0-f_
  6
CONTINUOUS
 62
    7
 10
352.88655711313368
 20
271.25621380195054
 11
354.3610691319796
 21
271.25621380195054
  0
LINE
  8
_0-f_
  6
CONTINUOUS
 62
    7
 10
353.45294111313353
 20
274.53633380195049
 11
355.49231356991743
 21
274.53633380195049
  0
ARC
  8
_0-f_
  6
CONTINUOUS
 62
    7
 10
353.37223641503419
 20
275.01625380195048
 40
0.2399999999999999
 50
340.00283559285606
 51
90.000000000000014
  0
LINE
  8
_0-f_
  6
CONTINUOUS
 62
    7
 10
351.16656511313363
 20
271.97621380195056
 11
351.83616511313363
 21
273.81615780195057
  0
LINE
  8
_0-f_
  6
CONTINUOUS
 62
    7
 10
352.37457740034125
 20
271.57205152437768
 11
353.1913411131336
 21
273.81621380195054
  0
LINE
  8
_0-f_
  6
CONTINUOUS
 62
    7
 10
350.26417026633874
 20
271.25621380195054
 11
351.92352225224727
 21
271.25621380195054
  0
LINE
  8
_0-f_
  6
CONTINUOUS
 62
    7
 10
350.52654911313357
 20
271.97621380195056
 11
351.16656511313363
 21
271.97621380195056
  0
LINE
  8
_0-f_
  6
CONTINUOUS
 62
    7
 10
350.26417026633874
 20
271.25621380195054
 11
350.52654911313357
 21
271.97621380195056
  0
ARC
  8
_0-f_
  6
CONTINUOUS
 62
    7
 10
351.92352225224727
 20
271.7362138019505
 40
0.4799999999999999
 50
270
 51
340.00093888113781
  0
LINE
  8
_0-f_
  6
CONTINUOUS
 62
    7
 10
352.88655711313368
 20
271.25621380195054
 11
353.14893311313358
 21
271.97621380195056
  0
LINE
  8
_0-f_
  6
CONTINUOUS
 62
    7
 10
353.14893311313358
 20
271.97621380195056
 11
353.54898622462645
 21
271.97621380195056
  0
LINE
  8
_0-f_
  6
CONTINUOUS
 62
    7
 10
351.19614911313386
 20
273.81627780195049
 11
351.45855711313368
 21
274.53633380195049
  0
LINE
  8
_0-f_
  6
CONTINUOUS
 62
    7
 10
351.19614911313386
 20
273.81621380195054
 11
351.83616511313363
 21
273.81621380195054
  0
LINE
  8
_0-f_
  6
CONTINUOUS
 62
    7
 10
352.36016511313375
 20
275.25625380195055
 11
353.37223641503419
 21
275.25625380195055
  0
LINE
  8
_0-f_
  6
CONTINUOUS
 62
    7
 10
352.09860506495636
 20
274.53633380195049
 11
352.36016511313375
 21
275.25616580195049
  0
LINE
  8
_0-f_
  6
CONTINUOUS
 62
    7
 10
351.45855711313368
 20
274.53633380195049
 11
352.09860506495636
 21
274.53633380195049
  0
LINE
  8
_0-f_
  6
CONTINUOUS
 62
    7
 10
353.45294111313353
 20
274.53621380195057
 11
353.59776670616054
 21
274.93418012904328
  0
LINE
  8
_0-f_
  6
CONTINUOUS
 62
    7
 10
354.7369438985337
 20
271.51939947569815
 11
355.71783842984996
 21
274.21424520619905
  0
ARC
  8
_0-f_
  6
CONTINUOUS
 62
    7
 10
354.3610691319796
 20
271.65621380195051
 40
0.4
 50
270
 51
339.99904441127069
  0
ARC
  8
_0-f_
  6
CONTINUOUS
 62
    7
 10
355.49231356991743
 20
274.29633380195054
 40
0.2399999999999999
 50
339.99904441127069
 51
90.000000000000043
  0
LINE
  8
_0-f_
  6
CONTINUOUS
 62
    7
 10
350.77247532111215
 20
273.81621380195054
 11
350.91733002727415
 21
274.2142601290434
  0
ARC
  8
_0-f_
  6
CONTINUOUS
 62
    7
 10
350.6917997361478
 20
274.29633380195054
 40
0.2399999999999993
 50
340.00283559286606
 51
89.999999999999915
  0
LINE
  8
_0-f_
  6
CONTINUOUS
 62
    7
 10
350.6917997361478
 20
274.53633380195049
 11
349.49734811709368
 21
274.53633380195049
  0
LINE
  8
_0-f_
  6
CONTINUOUS
 62
    7
 10
349.49734811709368
 20
274.53633380195049
 11
349.64214728442681
 21
274.93416957418788
  0
ARC
  8
_0-f_
  6
CONTINUOUS
 62
    7
 10
349.41662083464189
 20
275.01625380195048
 40
0.2399999999999979
 50
340.00015411793316
 51
89.999999999999986
  0
LINE
  8
_0-f_
  6
CONTINUOUS
 62
    7
 10
349.41662083464189
 20
275.25625380195055
 11
348.244473853231
 21
275.25625380195055
  0
LINE
  8
_0-f_
  6
CONTINUOUS
 62
    7
 10
348.244473853231
 20
275.25625380195055
 11
347.98204985323105
 21
274.53633380195049
  0
LINE
  8
_0-f_
  6
CONTINUOUS
 62
    7
 10
347.98204985323105
 20
274.53633380195049
 11
346.01647385323122
 21
274.53633380195049
  0
LINE
  8
_0-f_
  6
CONTINUOUS
 62
    7
 10
346.01647385323122
 20
274.53633380195049
 11
345.75409425713229
 21
273.81621380195054
  0
LINE
  8
_0-f_
  6
CONTINUOUS
 62
    7
 10
345.75409425713229
 20
273.81621380195054
 11
347.72045636554321
 21
273.81621380195054
  0
LINE
  8
_0-f_
  6
CONTINUOUS
 62
    7
 10
347.72045636554321
 20
273.81621380195054
 11
347.05009499937756
 21
271.97621380195056
  0
LINE
  8
_0-f_
  6
CONTINUOUS
 62
    7
 10
347.05009499937756
 20
271.97621380195056
 11
345.72526585323118
 21
271.97621380195056
  0
LINE
  8
_0-f_
  6
CONTINUOUS
 62
    7
 10
345.72526585323118
 20
271.97621380195056
 11
345.46366585323108
 21
271.25621380195054
  0
LINE
  8
_0-f_
  6
CONTINUOUS
 62
    7
 10
345.46366585323108
 20
271.25621380195054
 11
348.02302298952833
 21
271.25621380195054
  0
ARC
  8
_0-f_
  6
CONTINUOUS
 62
    7
 10
348.02302298952833
 20
271.65621380195051
 40
0.399999999999999
 50
270
 51
340.00026326049675
  0
LINE
  8
_0-f_
  6
CONTINUOUS
 62
    7
 10
348.39890066643926
 20
271.51940747168749
 11
349.23485785323101
 21
273.81621380195054
  0
LINE
  8
_0-f_
  6
CONTINUOUS
 62
    7
 10
349.23485785323101
 20
273.81621380195054
 11
350.77247532111215
 21
273.81621380195054
  0
LINE
  8
_0-f_
  6
CONTINUOUS
 62
    7
 10
349.0164788347364
 20
273.21621380195052
 11
347.50186026788049
 21
273.21621380195052
  0
LINE
  8
_0-f_
  6
CONTINUOUS
 62
    7
 10
349.04559603720236
 20
273.29621380195056
 11
347.53100641423555
 21
273.29621380195056
  0
LINE
  8
_0-f_
  6
CONTINUOUS
 62
    7
 10
349.07471323966831
 20
273.37621380195048
 11
347.56015256059055
 21
273.37621380195048
  0
LINE
  8
_0-f_
  6
CONTINUOUS
 62
    7
 10
349.10383044213427
 20
273.45621380195053
 11
347.58929870694561
 21
273.45621380195053
  0
LINE
  8
_0-f_
  6
CONTINUOUS
 62
    7
 10
349.13294764460022
 20
273.53621380195051
 11
347.61844485330062
 21
273.53621380195057
  0
LINE
  8
_0-f_
  6
CONTINUOUS
 62
    7
 10
349.16206484706618
 20
273.61621380195049
 11
347.64759099965562
 21
273.61621380195049
  0
LINE
  8
_0-f_
  6
CONTINUOUS
 62
    7
 10
349.19118204953213
 20
273.69621380195053
 11
347.67673714601062
 21
273.69621380195053
  0
LINE
  8
_0-f_
  6
CONTINUOUS
 62
    7
 10
349.22029925199803
 20
273.77621380195058
 11
347.70588329236568
 21
273.77621380195058
  0
LINE
  8
_0-f_
  6
CONTINUOUS
 62
    7
 10
350.7870318886574
 20
273.85621380195056
 11
345.76866847232418
 21
273.85621380195056
  0
LINE
  8
_0-f_
  6
CONTINUOUS
 62
    7
 10
350.81614502374794
 20
273.93621380195054
 11
345.79781690270784
 21
273.93621380195054
  0
LINE
  8
_0-f_
  6
CONTINUOUS
 62
    7
 10
350.84525815883853
 20
274.01621380195058
 11
345.82696533309155
 21
274.01621380195058
  0
LINE
  8
_0-f_
  6
CONTINUOUS
 62
    7
 10
350.87437129392913
 20
274.09621380195051
 11
345.85611376347526
 21
274.09621380195051
  0
LINE
  8
_0-f_
  6
CONTINUOUS
 62
    7
 10
350.90348442901967
 20
274.17621380195055
 11
345.88526219385892
 21
274.17621380195055
  0
LINE
  8
_0-f_
  6
CONTINUOUS
 62
    7
 10
350.92803738411578
 20
274.25621380195054
 11
345.91441062424263
 21
274.25621380195054
  0
LINE
  8
_0-f_
  6
CONTINUOUS
 62
    7
 10
350.9278482371891
 20
274.33621380195052
 11
345.94355905462635
 21
274.33621380195052
  0
LINE
  8
_0-f_
  6
CONTINUOUS
 62
    7
 10
350.89887400766719
 20
274.41621380195056
 11
345.97270748501012
 21
274.41621380195056
  0
LINE
  8
_0-f_
  6
CONTINUOUS
 62
    7
 10
350.82330570083525
 20
274.49621380195049
 11
346.00185591539378
 21
274.49621380195049
  0
LINE
  8
_0-f_
  6
CONTINUOUS
 62
    7
 10
349.51186312855373
 20
274.57621380195053
 11
347.99658684222982
 21
274.57621380195053
  0
LINE
  8
_0-f_
  6
CONTINUOUS
 62
    7
 10
349.54098050359897
 20
274.65621380195057
 11
348.02574830461447
 21
274.65621380195051
  0
LINE
  8
_0-f_
  6
CONTINUOUS
 62
    7
 10
349.57009787864422
 20
274.7362138019505
 11
348.05490976699923
 21
274.7362138019505
  0
LINE
  8
_0-f_
  6
CONTINUOUS
 62
    7
 10
349.59921525368947
 20
274.81621380195054
 11
348.08407122938394
 21
274.81621380195054
  0
LINE
  8
_0-f_
  6
CONTINUOUS
 62
    7
 10
349.62833262873471
 20
274.89621380195058
 11
348.11323269176864
 21
274.89621380195058
  0
LINE
  8
_0-f_
  6
CONTINUOUS
 62
    7
 10
349.65286711542785
 20
274.97621380195056
 11
348.14239415415335
 21
274.97621380195056
  0
LINE
  8
_0-f_
  6
CONTINUOUS
 62
    7
 10
349.65265258048021
 20
275.05621380195055
 11
348.17155561653806
 21
275.05621380195055
  0
LINE
  8
_0-f_
  6
CONTINUOUS
 62
    7
 10
349.62365004274068
 20
275.13621380195059
 11
348.20071707892276
 21
275.13621380195059
  0
LINE
  8
_0-f_
  6
CONTINUOUS
 62
    7
 10
349.54800602434352
 20
275.21621380195052
 11
348.22987854130747
 21
275.21621380195052
  0
LINE
  8
_0-f_
  6
CONTINUOUS
 62
    7
 10
348.98736163227045
 20
273.13621380195053
 11
347.47271412152548
 21
273.13621380195053
  0
LINE
  8
_0-f_
  6
CONTINUOUS
 62
    7
 10
348.95824442980449
 20
273.05621380195055
 11
347.44356797517042
 21
273.05621380195055
  0
LINE
  8
_0-f_
  6
CONTINUOUS
 62
    7
 10
348.92912722733854
 20
272.97621380195051
 11
347.41442182881542
 21
272.97621380195051
  0
LINE
  8
_0-f_
  6
CONTINUOUS
 62
    7
 10
348.90001002487259
 20
272.89621380195047
 11
347.38527568246036
 21
272.89621380195047
  0
LINE
  8
_0-f_
  6
CONTINUOUS
 62
    7
 10
348.87089282240663
 20
272.81621380195054
 11
347.35612953610536
 21
272.81621380195054
  0
LINE
  8
_0-f_
  6
CONTINUOUS
 62
    7
 10
348.84177561994068
 20
272.7362138019505
 11
347.3269833897503
 21
272.7362138019505
  0
LINE
  8
_0-f_
  6
CONTINUOUS
 62
    7
 10
348.81265841747472
 20
272.65621380195057
 11
347.29783724339529
 21
272.65621380195046
  0
LINE
  8
_0-f_
  6
CONTINUOUS
 62
    7
 10
348.78354121500877
 20
272.57621380195053
 11
347.26869109704023
 21
272.57621380195053
  0
LINE
  8
_0-f_
  6
CONTINUOUS
 62
    7
 10
348.75442401254287
 20
272.49621380195049
 11
347.23954495068523
 21
272.49621380195049
  0
LINE
  8
_0-f_
  6
CONTINUOUS
 62
    7
 10
348.72530681007692
 20
272.41621380195051
 11
347.21039880433017
 21
272.41621380195051
  0
LINE
  8
_0-f_
  6
CONTINUOUS
 62
    7
 10
348.69618960761096
 20
272.33621380195052
 11
347.18125265797516
 21
272.33621380195052
  0
LINE
  8
_0-f_
  6
CONTINUOUS
 62
    7
 10
348.66707240514501
 20
272.25621380195048
 11
347.15210651162016
 21
272.25621380195048
  0
LINE
  8
_0-f_
  6
CONTINUOUS
 62
    7
 10
348.63795520267905
 20
272.17621380195055
 11
347.12296036526516
 21
272.17621380195055
  0
LINE
  8
_0-f_
  6
CONTINUOUS
 62
    7
 10
348.60883800021315
 20
272.09621380195051
 11
347.0938142189101
 21
272.09621380195051
  0
LINE
  8
_0-f_
  6
CONTINUOUS
 62
    7
 10
348.5797207977472
 20
272.01621380195053
 11
347.06466807255504
 21
272.01621380195053
  0
LINE
  8
_0-f_
  6
CONTINUOUS
 62
    7
 10
348.55060359528125
 20
271.93621380195054
 11
345.71073251989776
 21
271.93621380195054
  0
LINE
  8
_0-f_
  6
CONTINUOUS
 62
    7
 10
348.52148639281529
 20
271.8562138019505
 11
345.68166585323115
 21
271.8562138019505
  0
LINE
  8
_0-f_
  6
CONTINUOUS
 62
    7
 10
348.49236919034934
 20
271.77621380195046
 11
345.65259918656443
 21
271.77621380195046
  0
LINE
  8
_0-f_
  6
CONTINUOUS
 62
    7
 10
348.46325198788338
 20
271.69621380195048
 11
345.62353251989782
 21
271.69621380195053
  0
LINE
  8
_0-f_
  6
CONTINUOUS
 62
    7
 10
348.43413478541743
 20
271.61621380195049
 11
345.5944658532311
 21
271.61621380195049
  0
LINE
  8
_0-f_
  6
CONTINUOUS
 62
    7
 10
348.40501758295147
 20
271.53621380195045
 11
345.56539918656443
 21
271.53621380195045
  0
LINE
  8
_0-f_
  6
CONTINUOUS
 62
    7
 10
348.36814751488424
 20
271.45621380195053
 11
345.53633251989771
 21
271.45621380195053
  0
LINE
  8
_0-f_
  6
CONTINUOUS
 62
    7
 10
348.30829341380553
 20
271.37621380195048
 11
345.50726585323105
 21
271.37621380195048
  0
LINE
  8
_0-f_
  6
CONTINUOUS
 62
    7
 10
348.19593364623438
 20
271.2962138019505
 11
345.47819918656438
 21
271.2962138019505
  0
LINE
  8
_0-f_
  6
CONTINUOUS
 62
    7
 10
346.01647385323122
 20
274.53633380195049
 11
347.98204985323105
 21
274.53633380195049
  0
LINE
  8
_0-f_
  6
CONTINUOUS
 62
    7
 10
347.98204985323105
 20
274.53633380195049
 11
346.01647385323122
 21
274.53633380195049
  0
LINE
  8
_0-f_
  6
CONTINUOUS
 62
    7
 10
347.72045636554321
 20
273.81621380195054
 11
345.75409425713229
 21
273.81621380195054
  0
LINE
  8
_0-f_
  6
CONTINUOUS
 62
    7
 10
347.05009499937756
 20
271.97621380195056
 11
347.72045636554321
 21
273.81621380195054
  0
LINE
  8
_0-f_
  6
CONTINUOUS
 62
    7
 10
345.46366585323108
 20
271.25621380195054
 11
348.02302298952833
 21
271.25621380195054
  0
LINE
  8
_0-f_
  6
CONTINUOUS
 62
    7
 10
345.72526585323118
 20
271.97621380195056
 11
347.05009499937756
 21
271.97621380195056
  0
LINE
  8
_0-f_
  6
CONTINUOUS
 62
    7
 10
345.46366585323108
 20
271.25621380195054
 11
345.72526585323118
 21
271.97621380195056
  0
LINE
  8
_0-f_
  6
CONTINUOUS
 62
    7
 10
345.75409425713229
 20
273.81621380195054
 11
346.01647385323122
 21
274.53633380195049
  0
LINE
  8
_0-f_
  6
CONTINUOUS
 62
    7
 10
348.39890066643926
 20
271.51940747168749
 11
349.23485785323101
 21
273.81621380195054
  0
ARC
  8
_0-f_
  6
CONTINUOUS
 62
    7
 10
348.02302298952833
 20
271.65621380195051
 40
0.4
 50
270
 51
340.00026326049698
  0
LINE
  8
_0-f_
  6
CONTINUOUS
 62
    7
 10
349.23485785323101
 20
273.81621380195054
 11
350.77247532111215
 21
273.81621380195054
  0
ARC
  8
_0-f_
  6
CONTINUOUS
 62
    7
 10
349.41662083464189
 20
275.01625380195048
 40
0.2399999999999999
 50
340.00015411793424
 51
89.999999999999957
  0
LINE
  8
_0-f_
  6
CONTINUOUS
 62
    7
 10
348.244473853231
 20
275.25625380195055
 11
349.41662083464189
 21
275.25625380195055
  0
LINE
  8
_0-f_
  6
CONTINUOUS
 62
    7
 10
347.98204985323105
 20
274.53633380195049
 11
348.244473853231
 21
275.25625380195055
  0
LINE
  8
_0-f_
  6
CONTINUOUS
 62
    7
 10
349.49734811709368
 20
274.53633380195049
 11
350.6917997361478
 21
274.53633380195049
  0
LINE
  8
_0-f_
  6
CONTINUOUS
 62
    7
 10
349.49734811709368
 20
274.53633380195049
 11
349.64214728442681
 21
274.93416957418788
  0
LINE
  8
_0-f_
  6
CONTINUOUS
 62
    7
 10
350.77247532111215
 20
273.81621380195054
 11
350.91733002727415
 21
274.2142601290434
  0
ARC
  8
_0-f_
  6
CONTINUOUS
 62
    7
 10
350.6917997361478
 20
274.29633380195054
 40
0.2399999999999999
 50
340.00283559286788
 51
89.999999999999986
  0
LINE
  8
_0-f_
  6
CONTINUOUS
 62
    7
 10
338.9337671756083
 20
274.48064459517747
 11
339.52255145940745
 21
274.94484791417142
  0
LINE
  8
_0-f_
  6
CONTINUOUS
 62
    7
 10
343.41831186816785
 20
271.64421380195051
 11
342.81659760850465
 21
271.50064320068304
  0
LINE
  8
_0-f_
  6
CONTINUOUS
 62
    7
 10
342.81659760850465
 20
271.50064320068304
 11
342.17576678838867
 21
271.42979610094335
  0
LINE
  8
_0-f_
  6
CONTINUOUS
 62
    7
 10
342.17576678838867
 20
271.42979610094335
 11
341.6438269380152
 21
271.42814958827057
  0
LINE
  8
_0-f_
  6
CONTINUOUS
 62
    7
 10
341.6438269380152
 20
271.42814958827057
 11
341.21790957110341
 21
271.46368046827274
  0
LINE
  8
_0-f_
  6
CONTINUOUS
 62
    7
 10
341.21790957110341
 20
271.46368046827274
 11
340.8684015111653
 21
271.53485458820512
  0
LINE
  8
_0-f_
  6
CONTINUOUS
 62
    7
 10
340.8684015111653
 20
271.53485458820512
 11
341.05112087731561
 21
272.2167733520713
  0
LINE
  8
_0-f_
  6
CONTINUOUS
 62
    7
 10
341.05112087731561
 20
272.2167733520713
 11
341.25835849706755
 21
272.9901955922391
  0
LINE
  8
_0-f_
  6
CONTINUOUS
 62
    7
 10
341.25835849706755
 20
272.9901955922391
 11
341.41084533227149
 21
272.91322378056941
  0
LINE
  8
_0-f_
  6
CONTINUOUS
 62
    7
 10
341.41084533227149
 20
272.91322378056941
 11
341.79297481960845
 21
272.53479317044508
  0
LINE
  8
_0-f_
  6
CONTINUOUS
 62
    7
 10
341.79297481960845
 20
272.53479317044508
 11
341.95769138490249
 21
272.37410557847443
  0
LINE
  8
_0-f_
  6
CONTINUOUS
 62
    7
 10
341.95769138490249
 20
272.37410557847443
 11
342.06960275382698
 21
272.30866993575512
  0
LINE
  8
_0-f_
  6
CONTINUOUS
 62
    7
 10
342.06960275382698
 20
272.30866993575512
 11
342.1966131222423
 21
272.28157781182983
  0
LINE
  8
_0-f_
  6
CONTINUOUS
 62
    7
 10
342.1966131222423
 20
272.28157781182983
 11
342.60801681131909
 21
272.28127025014948
  0
LINE
  8
_0-f_
  6
CONTINUOUS
 62
    7
 10
342.60801681131909
 20
272.28127025014948
 11
343.39678300566709
 21
272.28169148197605
  0
LINE
  8
_0-f_
  6
CONTINUOUS
 62
    7
 10
343.39678300566709
 20
272.28169148197605
 11
343.65644380455757
 21
272.53293296539937
  0
LINE
  8
_0-f_
  6
CONTINUOUS
 62
    7
 10
343.65644380455757
 20
272.53293296539937
 11
344.10422929733033
 21
274.20409082856281
  0
LINE
  8
_0-f_
  6
CONTINUOUS
 62
    7
 10
344.10422929733033
 20
274.20409082856281
 11
344.40546681065109
 21
275.32832430014571
  0
LINE
  8
_0-f_
  6
CONTINUOUS
 62
    7
 10
344.40546681065109
 20
275.32832430014571
 11
343.46182252811036
 21
275.72225056215302
  0
LINE
  8
_0-f_
  6
CONTINUOUS
 62
    7
 10
343.46182252811036
 20
275.72225056215302
 11
342.38201258505899
 21
275.9188383340894
  0
LINE
  8
_0-f_
  6
CONTINUOUS
 62
    7
 10
342.38201258505899
 20
275.9188383340894
 11
341.19964774402706
 21
275.89856229070415
  0
LINE
  8
_0-f_
  6
CONTINUOUS
 62
    7
 10
341.19964774402706
 20
275.89856229070415
 11
340.07358268062819
 21
275.6422674519435
  0
LINE
  8
_0-f_
  6
CONTINUOUS
 62
    7
 10
340.07358268062819
 20
275.6422674519435
 11
339.11535594709949
 21
275.16285185425829
  0
LINE
  8
_0-f_
  6
CONTINUOUS
 62
    7
 10
339.11535594709949
 20
275.16285185425829
 11
338.42640833846582
 21
274.49419650509913
  0
LINE
  8
_0-f_
  6
CONTINUOUS
 62
    7
 10
338.42640833846582
 20
274.49419650509913
 11
338.11165121127146
 21
273.71508642081994
  0
LINE
  8
_0-f_
  6
CONTINUOUS
 62
    7
 10
338.11165121127146
 20
273.71508642081994
 11
338.19871091249149
 21
272.8985366021617
  0
LINE
  8
_0-f_
  6
CONTINUOUS
 62
    7
 10
338.19871091249149
 20
272.8985366021617
 11
338.67768596378528
 21
272.16082499073752
  0
LINE
  8
_0-f_
  6
CONTINUOUS
 62
    7
 10
338.67768596378528
 20
272.16082499073752
 11
339.50266046340192
 21
271.56224477498085
  0
LINE
  8
_0-f_
  6
CONTINUOUS
 62
    7
 10
339.50266046340192
 20
271.56224477498085
 11
340.53936196563751
 21
271.17774542716961
  0
LINE
  8
_0-f_
  6
CONTINUOUS
 62
    7
 10
340.53936196563751
 20
271.17774542716961
 11
341.71688569633488
 21
271.021670571453
  0
LINE
  8
_0-f_
  6
CONTINUOUS
 62
    7
 10
341.71688569633488
 20
271.021670571453
 11
342.40371798645617
 21
271.04102861458102
  0
LINE
  8
_0-f_
  6
CONTINUOUS
 62
    7
 10
342.40371798645617
 20
271.04102861458102
 11
342.98020560536361
 21
271.12048467661884
  0
LINE
  8
_0-f_
  6
CONTINUOUS
 62
    7
 10
342.98020560536361
 20
271.12048467661884
 11
343.30689112048628
 21
271.22838926002993
  0
LINE
  8
_0-f_
  6
CONTINUOUS
 62
    7
 10
343.30689112048628
 20
271.22838926002993
 11
343.3735013500775
 21
271.47698001878814
  0
LINE
  8
_0-f_
  6
CONTINUOUS
 62
    7
 10
343.3735013500775
 20
271.47698001878814
 11
343.41831186816785
 21
271.64421380195051
  0
LINE
  8
_0-f_
  6
CONTINUOUS
 62
    7
 10
339.97529847575481
 20
273.9517353861429
 11
339.8198691358262
 21
273.37166517859237
  0
LINE
  8
_0-f_
  6
CONTINUOUS
 62
    7
 10
339.8198691358262
 20
273.37166517859237
 11
339.55472496771216
 21
272.38213364806154
  0
LINE
  8
_0-f_
  6
CONTINUOUS
 62
    7
 10
339.55472496771216
 20
272.38213364806154
 11
339.46445360675045
 21
272.0487451002457
  0
LINE
  8
_0-f_
  6
CONTINUOUS
 62
    7
 10
339.46445360675045
 20
272.0487451002457
 11
339.46144778973587
 21
272.05052791254627
  0
LINE
  8
_0-f_
  6
CONTINUOUS
 62
    7
 10
339.46144778973587
 20
272.05052791254627
 11
339.45843658001758
 21
272.05230580519219
  0
LINE
  8
_0-f_
  6
CONTINUOUS
 62
    7
 10
339.45843658001758
 20
272.05230580519219
 11
339.11998430087726
 21
272.29950982788432
  0
LINE
  8
_0-f_
  6
CONTINUOUS
 62
    7
 10
339.11998430087726
 20
272.29950982788432
 11
338.68508007857639
 21
272.80997307381557
  0
LINE
  8
_0-f_
  6
CONTINUOUS
 62
    7
 10
338.68508007857639
 20
272.80997307381557
 11
338.50290214291618
 21
273.37308840210005
  0
LINE
  8
_0-f_
  6
CONTINUOUS
 62
    7
 10
338.50290214291618
 20
273.37308840210005
 11
338.58861672971045
 21
273.94784706659846
  0
LINE
  8
_0-f_
  6
CONTINUOUS
 62
    7
 10
338.58861672971045
 20
273.94784706659846
 11
338.9337671756083
 21
274.48064459517747
  0
LINE
  8
_0-f_
  6
CONTINUOUS
 62
    7
 10
339.52255145940745
 20
274.94484791417142
 11
340.32817118698887
 21
275.30236698474869
  0
LINE
  8
_0-f_
  6
CONTINUOUS
 62
    7
 10
340.32817118698887
 20
275.30236698474869
 11
341.25778902645732
 21
275.49922891549102
  0
LINE
  8
_0-f_
  6
CONTINUOUS
 62
    7
 10
341.25778902645732
 20
275.49922891549102
 11
342.03004256047984
 21
275.53360789679419
  0
LINE
  8
_0-f_
  6
CONTINUOUS
 62
    7
 10
342.03004256047984
 20
275.53360789679419
 11
342.4032089604417
 21
275.51202197210978
  0
LINE
  8
_0-f_
  6
CONTINUOUS
 62
    7
 10
342.4032089604417
 20
275.51202197210978
 11
342.7664456910565
 21
275.46602342245046
  0
LINE
  8
_0-f_
  6
CONTINUOUS
 62
    7
 10
342.7664456910565
 20
275.46602342245046
 11
342.82315693590709
 21
275.17304984528954
  0
LINE
  8
_0-f_
  6
CONTINUOUS
 62
    7
 10
342.82315693590709
 20
275.17304984528954
 11
342.55528797626164
 21
274.17334947430061
  0
LINE
  8
_0-f_
  6
CONTINUOUS
 62
    7
 10
342.55528797626164
 20
274.17334947430061
 11
342.37214434251234
 21
273.48984826218714
  0
LINE
  8
_0-f_
  6
CONTINUOUS
 62
    7
 10
342.37214434251234
 20
273.48984826218714
 11
342.20095071622859
 21
273.65245300524066
  0
LINE
  8
_0-f_
  6
CONTINUOUS
 62
    7
 10
342.20095071622859
 20
273.65245300524066
 11
341.85791914106932
 21
273.99449403745825
  0
LINE
  8
_0-f_
  6
CONTINUOUS
 62
    7
 10
341.85791914106932
 20
273.99449403745825
 11
341.70104540506378
 21
274.15011124158718
  0
LINE
  8
_0-f_
  6
CONTINUOUS
 62
    7
 10
341.70104540506378
 20
274.15011124158718
 11
341.60371892104763
 21
274.21492856759943
  0
LINE
  8
_0-f_
  6
CONTINUOUS
 62
    7
 10
341.60371892104763
 20
274.21492856759943
 11
341.49243910161363
 21
274.24945408696237
  0
LINE
  8
_0-f_
  6
CONTINUOUS
 62
    7
 10
341.49243910161363
 20
274.24945408696237
 11
341.34986822108357
 21
274.25452428811252
  0
LINE
  8
_0-f_
  6
CONTINUOUS
 62
    7
 10
341.34986822108357
 20
274.25452428811252
 11
340.84624444214808
 21
274.25452428811252
  0
LINE
  8
_0-f_
  6
CONTINUOUS
 62
    7
 10
340.84624444214808
 20
274.25452428811252
 11
340.39953704918707
 21
274.25452428811252
  0
LINE
  8
_0-f_
  6
CONTINUOUS
 62
    7
 10
340.39953704918707
 20
274.25452428811252
 11
340.22862470849856
 21
274.22935378245552
  0
LINE
  8
_0-f_
  6
CONTINUOUS
 62
    7
 10
340.22862470849856
 20
274.22935378245552
 11
340.06943410796089
 21
274.12280959993075
  0
LINE
  8
_0-f_
  6
CONTINUOUS
 62
    7
 10
340.06943410796089
 20
274.12280959993075
 11
339.97529847575481
 21
273.9517353861429
  0
SOLID
  8
_0-f_
  6
CONTINUOUS
 62
    7
 10
342.1966131222423
 20
272.28157781182983
 11
342.60801681131909
 21
272.28127025014948
 12
343.39678300566709
 22
272.28169148197605
 13
343.39678300566709
 23
272.28169148197605
  0
LINE
  8
_0-f_
  6
CONTINUOUS
 62
    7
 10
342.5480507343886
 20
271.06092169016097
 11
341.42075136052051
 21
271.06092169016097
  0
LINE
  8
_0-f_
  6
CONTINUOUS
 62
    7
 10
343.06815025335175
 20
271.14953289016091
 11
340.75221452076812
 21
271.14953289016091
  0
LINE
  8
_0-f_
  6
CONTINUOUS
 62
    7
 10
343.333248431127
 20
271.32675529016092
 11
340.13759600767065
 21
271.32675529016092
  0
LINE
  8
_0-f_
  6
CONTINUOUS
 62
    7
 10
343.35699192185791
 20
271.41536649016098
 11
339.89867918069069
 21
271.41536649016098
  0
LINE
  8
_0-f_
  6
CONTINUOUS
 62
    7
 10
343.30950494039615
 20
271.23814409016097
 11
340.37651283465055
 21
271.23814409016097
  0
LINE
  8
_0-f_
  6
CONTINUOUS
 62
    7
 10
340.93135789531101
 20
271.76981129016099
 11
339.21658839237392
 21
271.76981129016099
  0
LINE
  8
_0-f_
  6
CONTINUOUS
 62
    7
 10
340.90761462388963
 20
271.68120009016093
 11
339.33871401306124
 21
271.68120009016093
  0
LINE
  8
_0-f_
  6
CONTINUOUS
 62
    7
 10
340.97884443815383
 20
271.94703369016094
 11
338.97233715099929
 21
271.94703369016094
  0
LINE
  8
_0-f_
  6
CONTINUOUS
 62
    7
 10
341.00258770957521
 20
272.03564489016094
 11
338.85021153031198
 21
272.03564489016094
  0
LINE
  8
_0-f_
  6
CONTINUOUS
 62
    7
 10
340.95510116673245
 20
271.85842249016093
 11
339.09446277168666
 21
271.85842249016093
  0
LINE
  8
_0-f_
  6
CONTINUOUS
 62
    7
 10
340.88387135246819
 20
271.59258889016093
 11
339.46083963374861
 21
271.59258889016093
  0
LINE
  8
_0-f_
  6
CONTINUOUS
 62
    7
 10
341.02002579176883
 20
271.50397769016092
 11
339.65976235371079
 21
271.50397769016092
  0
LINE
  8
_0-f_
  6
CONTINUOUS
 62
    7
 10
343.40447890331961
 20
271.59258889016093
 11
343.20194831390666
 21
271.59258889016093
  0
LINE
  8
_0-f_
  6
CONTINUOUS
 62
    7
 10
343.38073541258876
 20
271.50397769016092
 11
342.83057268313581
 21
271.50397769016092
  0
LINE
  8
_0-f_
  6
CONTINUOUS
 62
    7
 10
343.73688557840626
 20
272.8331456901609
 11
341.4917061263406
 21
272.8331456901609
  0
LINE
  8
_0-f_
  6
CONTINUOUS
 62
    7
 10
343.71314227399921
 20
272.7445344901609
 11
341.58118343478873
 21
272.7445344901609
  0
LINE
  8
_0-f_
  6
CONTINUOUS
 62
    7
 10
343.68939896959228
 20
272.6559232901609
 11
341.67066074323691
 21
272.6559232901609
  0
LINE
  8
_0-f_
  6
CONTINUOUS
 62
    7
 10
343.66565566518534
 20
272.56731209016095
 11
341.76013805168503
 21
272.56731209016095
  0
LINE
  8
_0-f_
  6
CONTINUOUS
 62
    7
 10
343.6003943664233
 20
272.47870089016089
 11
341.84961536013316
 21
272.47870089016089
  0
LINE
  8
_0-f_
  6
CONTINUOUS
 62
    7
 10
343.50881372986146
 20
272.39008969016095
 11
341.93909266858134
 21
272.39008969016095
  0
LINE
  8
_0-f_
  6
CONTINUOUS
 62
    7
 10
343.41723309329967
 20
272.30147849016095
 11
342.10331691211428
 21
272.30147849016095
  0
LINE
  8
_0-f_
  6
CONTINUOUS
 62
    7
 10
343.76062888281319
 20
272.92175689016096
 11
341.39394061289647
 21
272.92175689016096
  0
LINE
  8
_0-f_
  6
CONTINUOUS
 62
    7
 10
343.80235903794096
 20
275.58009289016098
 11
339.94931194865137
 21
275.58009289016098
  0
LINE
  8
_0-f_
  6
CONTINUOUS
 62
    7
 10
343.59009227557021
 20
275.66870409016099
 11
340.18973552566553
 21
275.66870409016099
  0
LINE
  8
_0-f_
  6
CONTINUOUS
 62
    7
 10
343.26922030478534
 20
275.75731529016105
 11
340.57906048058186
 21
275.75731529016093
  0
LINE
  8
_0-f_
  6
CONTINUOUS
 62
    7
 10
342.78250002771426
 20
275.84592649016099
 11
340.96838543549887
 21
275.84592649016099
  0
LINE
  8
_0-f_
  6
CONTINUOUS
 62
    7
 10
344.01462580031171
 20
275.49148169016098
 11
342.5654093975478
 21
275.49148169016098
  0
LINE
  8
_0-f_
  6
CONTINUOUS
 62
    7
 10
344.22689256268245
 20
275.40287049016092
 11
342.77867027950168
 21
275.40287049016092
  0
LINE
  8
_0-f_
  6
CONTINUOUS
 62
    7
 10
344.40169810180214
 20
275.31425929016098
 11
342.7958228551995
 21
275.31425929016098
  0
LINE
  8
_0-f_
  6
CONTINUOUS
 62
    7
 10
344.37795479739509
 20
275.22564809016103
 11
342.81297543089727
 21
275.22564809016103
  0
LINE
  8
_0-f_
  6
CONTINUOUS
 62
    7
 10
344.35421149298804
 20
275.13703689016097
 11
342.81350729176972
 21
275.13703689016097
  0
LINE
  8
_0-f_
  6
CONTINUOUS
 62
    7
 10
344.33046818858105
 20
275.04842569016103
 11
342.78976398763007
 21
275.04842569016103
  0
LINE
  8
_0-f_
  6
CONTINUOUS
 62
    7
 10
344.306724884174
 20
274.95981449016097
 11
342.76602068349041
 21
274.95981449016097
  0
LINE
  8
_0-f_
  6
CONTINUOUS
 62
    7
 10
344.28298157976695
 20
274.87120329016096
 11
342.7422773793507
 21
274.87120329016096
  0
LINE
  8
_0-f_
  6
CONTINUOUS
 62
    7
 10
344.25923827535996
 20
274.78259209016096
 11
342.71853407521098
 21
274.78259209016096
  0
LINE
  8
_0-f_
  6
CONTINUOUS
 62
    7
 10
344.23549497095291
 20
274.6939808901609
 11
342.69479077107133
 21
274.6939808901609
  0
LINE
  8
_0-f_
  6
CONTINUOUS
 62
    7
 10
344.21175166654587
 20
274.60536969016096
 11
342.67104746693167
 21
274.60536969016096
  0
LINE
  8
_0-f_
  6
CONTINUOUS
 62
    7
 10
344.18800836213882
 20
274.51675849016095
 11
342.64730416279201
 21
274.51675849016095
  0
LINE
  8
_0-f_
  6
CONTINUOUS
 62
    7
 10
344.16426505773182
 20
274.42814729016095
 11
342.62356085865235
 21
274.42814729016095
  0
LINE
  8
_0-f_
  6
CONTINUOUS
 62
    7
 10
344.14052175332472
 20
274.339536090161
 11
342.5998175545127
 21
274.339536090161
  0
LINE
  8
_0-f_
  6
CONTINUOUS
 62
    7
 10
344.11677844891773
 20
274.25092489016095
 11
342.57607425037298
 21
274.25092489016095
  0
LINE
  8
_0-f_
  6
CONTINUOUS
 62
    7
 10
344.09303514451074
 20
274.16231369016094
 11
342.55233094623327
 21
274.16231369016094
  0
LINE
  8
_0-f_
  6
CONTINUOUS
 62
    7
 10
344.0692918401038
 20
274.07370249016094
 11
342.52858764209361
 21
274.07370249016094
  0
LINE
  8
_0-f_
  6
CONTINUOUS
 62
    7
 10
344.04554853569687
 20
273.98509129016099
 11
342.50484433795395
 21
273.98509129016099
  0
LINE
  8
_0-f_
  6
CONTINUOUS
 62
    7
 10
344.02180523128982
 20
273.89648009016094
 11
342.4811010338143
 21
273.89648009016094
  0
LINE
  8
_0-f_
  6
CONTINUOUS
 62
    7
 10
343.99806192688288
 20
273.80786889016093
 11
342.45735772967464
 21
273.80786889016099
  0
LINE
  8
_0-f_
  6
CONTINUOUS
 62
    7
 10
343.97431862247595
 20
273.71925769016099
 11
342.43361442553498
 21
273.71925769016099
  0
LINE
  8
_0-f_
  6
CONTINUOUS
 62
    7
 10
343.95057531806896
 20
273.63064649016098
 11
342.40987112139527
 21
273.63064649016098
  0
LINE
  8
_0-f_
  6
CONTINUOUS
 62
    7
 10
343.92683201366196
 20
273.54203529016092
 11
342.38612781725556
 21
273.54203529016092
  0
LINE
  8
_0-f_
  6
CONTINUOUS
 62
    7
 10
341.22120521949171
 20
275.49148169016098
 11
339.7722012723612
 21
275.49148169016098
  0
LINE
  8
_0-f_
  6
CONTINUOUS
 62
    7
 10
340.80276701772203
 20
275.40287049016092
 11
339.59509059607103
 21
275.40287049016092
  0
LINE
  8
_0-f_
  6
CONTINUOUS
 62
    7
 10
340.38432881595236
 20
275.31425929016098
 11
339.41797991978086
 21
275.31425929016092
  0
LINE
  8
_0-f_
  6
CONTINUOUS
 62
    7
 10
340.15529577964833
 20
275.22564809016103
 11
339.24086924349092
 21
275.22564809016103
  0
LINE
  8
_0-f_
  6
CONTINUOUS
 62
    7
 10
339.95562270853225
 20
275.13703689016097
 11
339.08875755406456
 21
275.13703689016097
  0
LINE
  8
_0-f_
  6
CONTINUOUS
 62
    7
 10
339.75594963741645
 20
275.04842569016103
 11
338.99745719369969
 21
275.04842569016103
  0
LINE
  8
_0-f_
  6
CONTINUOUS
 62
    7
 10
339.55627656630048
 20
274.95981449016097
 11
338.91000956441337
 21
274.95981449016097
  0
LINE
  8
_0-f_
  6
CONTINUOUS
 62
    7
 10
339.42914239611673
 20
274.87120329016096
 11
338.81485647296984
 21
274.87120329016096
  0
LINE
  8
_0-f_
  6
CONTINUOUS
 62
    7
 10
339.31675008913874
 20
274.78259209016096
 11
338.72355611260491
 21
274.78259209016096
  0
LINE
  8
_0-f_
  6
CONTINUOUS
 62
    7
 10
339.20435778216068
 20
274.6939808901609
 11
338.63225575223998
 21
274.6939808901609
  0
LINE
  8
_0-f_
  6
CONTINUOUS
 62
    7
 10
339.09196547518275
 20
274.60536969016096
 11
338.54095539187517
 21
274.60536969016096
  0
LINE
  8
_0-f_
  6
CONTINUOUS
 62
    7
 10
338.97957316820469
 20
274.51675849016095
 11
338.44965503151019
 21
274.51675849016095
  0
LINE
  8
_0-f_
  6
CONTINUOUS
 62
    7
 10
338.89975900690831
 20
274.42814729016095
 11
338.39972473936109
 21
274.42814729016095
  0
LINE
  8
_0-f_
  6
CONTINUOUS
 62
    7
 10
338.84235597188837
 20
274.339536090161
 11
338.36392619521177
 21
274.339536090161
  0
LINE
  8
_0-f_
  6
CONTINUOUS
 62
    7
 10
341.19253388094421
 20
272.7445344901609
 11
339.65182997835365
 21
272.7445344901609
  0
LINE
  8
_0-f_
  6
CONTINUOUS
 62
    7
 10
341.16879060952317
 20
272.6559232901609
 11
339.62808667944432
 21
272.6559232901609
  0
LINE
  8
_0-f_
  6
CONTINUOUS
 62
    7
 10
341.14504733810213
 20
272.56731209016095
 11
339.604343380535
 21
272.56731209016095
  0
LINE
  8
_0-f_
  6
CONTINUOUS
 62
    7
 10
341.12130406668109
 20
272.47870089016089
 11
339.58060008162568
 21
272.47870089016089
  0
LINE
  8
_0-f_
  6
CONTINUOUS
 62
    7
 10
341.09756079526016
 20
272.39008969016095
 11
339.55685678271635
 21
272.39008969016095
  0
LINE
  8
_0-f_
  6
CONTINUOUS
 62
    7
 10
341.07381752383912
 20
272.30147849016095
 11
339.53311348380703
 21
272.30147849016095
  0
LINE
  8
_0-f_
  6
CONTINUOUS
 62
    7
 10
341.05007425241809
 20
272.21286729016094
 11
339.5093701848977
 21
272.21286729016094
  0
LINE
  8
_0-f_
  6
CONTINUOUS
 62
    7
 10
341.02633098099665
 20
272.12425609016088
 11
339.48562688598838
 21
272.12425609016088
  0
LINE
  8
_0-f_
  6
CONTINUOUS
 62
    7
 10
341.95621693449777
 20
273.89648009016094
 11
339.9604928641748
 21
273.89648009016094
  0
LINE
  8
_0-f_
  6
CONTINUOUS
 62
    7
 10
342.04508475048954
 20
273.80786889016099
 11
339.93674956526547
 21
273.80786889016099
  0
LINE
  8
_0-f_
  6
CONTINUOUS
 62
    7
 10
342.13395256648136
 20
273.71925769016099
 11
339.91300626635615
 21
273.71925769016099
  0
LINE
  8
_0-f_
  6
CONTINUOUS
 62
    7
 10
342.22282038247317
 20
273.63064649016098
 11
339.88926296744683
 21
273.63064649016098
  0
LINE
  8
_0-f_
  6
CONTINUOUS
 62
    7
 10
342.31168819846494
 20
273.54203529016092
 11
339.8655196685375
 21
273.54203529016092
  0
LINE
  8
_0-f_
  6
CONTINUOUS
 62
    7
 10
343.90308870925503
 20
273.45342409016092
 11
339.84177636962818
 21
273.45342409016092
  0
LINE
  8
_0-f_
  6
CONTINUOUS
 62
    7
 10
343.87934540484804
 20
273.36481289016092
 11
339.81803307071885
 21
273.36481289016092
  0
LINE
  8
_0-f_
  6
CONTINUOUS
 62
    7
 10
343.8556021004411
 20
273.27620169016097
 11
339.79428977180953
 21
273.27620169016097
  0
LINE
  8
_0-f_
  6
CONTINUOUS
 62
    7
 10
343.83185879603411
 20
273.18759049016091
 11
339.77054647290026
 21
273.18759049016091
  0
LINE
  8
_0-f_
  6
CONTINUOUS
 62
    7
 10
343.80811549162718
 20
273.09897929016103
 11
339.74680317399088
 21
273.09897929016086
  0
LINE
  8
_0-f_
  6
CONTINUOUS
 62
    7
 10
343.78437218722019
 20
273.01036809016097
 11
339.72305987508162
 21
273.01036809016097
  0
LINE
  8
_0-f_
  6
CONTINUOUS
 62
    7
 10
341.24002042378629
 20
272.92175689016096
 11
339.69931657617224
 21
272.92175689016096
  0
LINE
  8
_0-f_
  6
CONTINUOUS
 62
    7
 10
341.21627715236525
 20
272.8331456901609
 11
339.67557327726297
 21
272.8331456901609
  0
LINE
  8
_0-f_
  6
CONTINUOUS
 62
    7
 10
341.77848130251419
 20
274.07370249016094
 11
340.04241233348279
 21
274.073702490161
  0
LINE
  8
_0-f_
  6
CONTINUOUS
 62
    7
 10
341.8673491185059
 20
273.98509129016099
 11
339.9936529608816
 21
273.98509129016099
  0
LINE
  8
_0-f_
  6
CONTINUOUS
 62
    7
 10
341.68272281310976
 20
274.16231369016094
 11
340.12845825830317
 21
274.16231369016094
  0
LINE
  8
_0-f_
  6
CONTINUOUS
 62
    7
 10
341.45108103693428
 20
274.25092489016095
 11
340.37509647825243
 21
274.25092489016095
  0
LINE
  8
_0-f_
  6
CONTINUOUS
 62
    7
 10
338.78495293686842
 20
274.25092489016095
 11
338.32812765106246
 21
274.25092489016095
  0
LINE
  8
_0-f_
  6
CONTINUOUS
 62
    7
 10
338.72754990184853
 20
274.16231369016094
 11
338.29232910691314
 21
274.16231369016094
  0
LINE
  8
_0-f_
  6
CONTINUOUS
 62
    7
 10
338.67014686682865
 20
274.07370249016105
 11
338.25653056276383
 21
274.07370249016105
  0
LINE
  8
_0-f_
  6
CONTINUOUS
 62
    7
 10
338.6127438318087
 20
273.98509129016099
 11
338.22073201861451
 21
273.98509129016099
  0
LINE
  8
_0-f_
  6
CONTINUOUS
 62
    7
 10
338.58095629859008
 20
273.89648009016094
 11
338.1849334744652
 21
273.89648009016094
  0
LINE
  8
_0-f_
  6
CONTINUOUS
 62
    7
 10
338.5677415828103
 20
273.80786889016105
 11
338.14913493031588
 21
273.80786889016105
  0
LINE
  8
_0-f_
  6
CONTINUOUS
 62
    7
 10
338.5545268670304
 20
273.71925769016099
 11
338.11333638616657
 21
273.71925769016099
  0
LINE
  8
_0-f_
  6
CONTINUOUS
 62
    7
 10
338.54131215125062
 20
273.63064649016098
 11
338.12065410976737
 21
273.63064649016098
  0
LINE
  8
_0-f_
  6
CONTINUOUS
 62
    7
 10
338.52809743547078
 20
273.54203529016092
 11
338.13010174470708
 21
273.54203529016092
  0
LINE
  8
_0-f_
  6
CONTINUOUS
 62
    7
 10
338.51488271969095
 20
273.45342409016092
 11
338.13954937964672
 21
273.45342409016092
  0
LINE
  8
_0-f_
  6
CONTINUOUS
 62
    7
 10
338.50557941985375
 20
273.36481289016092
 11
338.14899701458643
 21
273.36481289016092
  0
LINE
  8
_0-f_
  6
CONTINUOUS
 62
    7
 10
338.5342467366209
 20
273.27620169016097
 11
338.15844464952613
 21
273.27620169016097
  0
LINE
  8
_0-f_
  6
CONTINUOUS
 62
    7
 10
338.56291405338806
 20
273.18759049016091
 11
338.16789228446578
 21
273.18759049016091
  0
LINE
  8
_0-f_
  6
CONTINUOUS
 62
    7
 10
338.59158137015527
 20
273.09897929016086
 11
338.17733991940548
 21
273.09897929016086
  0
LINE
  8
_0-f_
  6
CONTINUOUS
 62
    7
 10
338.62024868692237
 20
273.01036809016097
 11
338.18678755434513
 21
273.01036809016097
  0
LINE
  8
_0-f_
  6
CONTINUOUS
 62
    7
 10
338.64891600368952
 20
272.92175689016096
 11
338.19623518928483
 21
272.92175689016096
  0
LINE
  8
_0-f_
  6
CONTINUOUS
 62
    7
 10
338.67758332045668
 20
272.8331456901609
 11
338.24116736152212
 21
272.8331456901609
  0
LINE
  8
_0-f_
  6
CONTINUOUS
 62
    7
 10
338.74083241052119
 20
272.7445344901609
 11
338.29870007946766
 21
272.7445344901609
  0
LINE
  8
_0-f_
  6
CONTINUOUS
 62
    7
 10
338.81632733661104
 20
272.6559232901609
 11
338.35623279741316
 21
272.6559232901609
  0
LINE
  8
_0-f_
  6
CONTINUOUS
 62
    7
 10
338.89182226270083
 20
272.56731209016095
 11
338.41376551535865
 21
272.56731209016095
  0
LINE
  8
_0-f_
  6
CONTINUOUS
 62
    7
 10
338.96731718879067
 20
272.47870089016089
 11
338.4712982333042
 21
272.47870089016089
  0
LINE
  8
_0-f_
  6
CONTINUOUS
 62
    7
 10
339.04281211488046
 20
272.39008969016095
 11
338.52883095124969
 21
272.39008969016095
  0
LINE
  8
_0-f_
  6
CONTINUOUS
 62
    7
 10
339.11830704097025
 20
272.30147849016095
 11
338.58636366919518
 21
272.30147849016095
  0
LINE
  8
_0-f_
  6
CONTINUOUS
 62
    7
 10
339.23860843993305
 20
272.21286729016094
 11
338.64389638714073
 21
272.21286729016094
  0
LINE
  8
_0-f_
  6
CONTINUOUS
 62
    7
 10
339.35992791633458
 20
272.12425609016088
 11
338.72808590962472
 21
272.12425609016088
  0
TEXT
  8
_0-f_
 62
    7
 10
329.68593500518534
 20
224.73942467813129
 40
3
 41
1
 50
0
  1
②扉　　ｽﾁｰﾙ　t2.0　ﾎﾟﾘｯｼｭﾎﾜｲﾄ　焼付塗装
  0
TEXT
  8
_0-f_
 62
    7
 10
375.68593500518534
 20
21.989424678131371
 40
2.5
 41
1
 50
0
  1
2020.02.15
  0
ENDSEC
  0
EOF
