  0
SECTION
  2
HEADER
  9
$ACADVER
  1
AC1009
  9
$INSBASE
 10
0
 20
0
 30
0
  9
$EXTMIN
 10
0
 20
0
  9
$EXTMAX
 10
420
 20
297
  9
$LIMMIN
 10
0
 20
0
  9
$LIMMAX
 10
420
 20
297
  9
$LTSCALE
 40
1
  0
ENDSEC
  0
SECTION
  2
TABLES
  0
TABLE
  2
LTYPE
 70
     9
  0
LTYPE
  2
CONTINUOUS
 70
    64
  3
実線
 72
    65
 73
     0
 40
0.0
  0
LTYPE
  2
DASHED1
 70
    64
  3
--  --  --  --  --  --  --  --  
 72
    65
 73
     2
 40
2.5
 49
1.25
 49
-1.25
  0
LTYPE
  2
DASHED2
 70
    64
  3
----    ----    ----    ----    
 72
    65
 73
     2
 40
5.0
 49
2.5
 49
-2.5
  0
LTYPE
  2
DASHED3
 70
    64
  3
------  ------  ------  ------  
 72
    65
 73
     2
 40
5.0
 49
3.75
 49
-1.25
  0
LTYPE
  2
CENTER1
 70
    64
  3
----- - ----- - ----- - ----- - 
 72
    65
 73
     4
 40
10.0
 49
6.25
 49
-1.25
 49
1.25
 49
-1.25
  0
LTYPE
  2
CENTER2
 70
    64
  3
----------  --  ----------  --  
 72
    65
 73
     4
 40
20.0
 49
12.5
 49
-2.5
 49
2.5
 49
-2.5
  0
LTYPE
  2
PHANTOM1
 70
    64
  3
--- - - --- - - --- - - --- - - 
 72
    65
 73
     6
 40
10.0
 49
3.25
 49
-1.25
 49
1.25
 49
-1.25
 49
1.25
 49
-1.25
  0
LTYPE
  2
PHANTOM2
 70
    64
  3
--------  -  -  --------  -  -  
 72
    65
 73
     6
 40
20.0
 49
10.0
 49
-2.5
 49
1.25
 49
-2.5
 49
1.25
 49
-2.5
  0
LTYPE
  2
DOT
 70
    64
  3
-   -   -   -   -   -   -   -   
 72
    65
 73
     2
 40
2.5
 49
0.625
 49
-1.875
  0
LTYPE
  2
DUMMY
 70
    64
  3
ダミー
 72
    65
 73
     0
 40
0.0
  0
LTYPE
  2
RAND1
 70
    64
  3
ランダム線1
 72
    65
 73
     4
 40
10.0
 49
1.0
 49
-2.0
 49
3.0
 49
-4.0
  0
LTYPE
  2
RAND2
 70
    64
  3
ランダム線2
 72
    65
 73
     4
 40
14.0
 49
2.0
 49
-3.0
 49
4.0
 49
-5.0
  0
LTYPE
  2
RAND3
 70
    64
  3
ランダム線3
 72
    65
 73
     4
 40
18.0
 49
3.0
 49
-4.0
 49
5.0
 49
-6.0
  0
LTYPE
  2
RAND4
 70
    64
  3
ランダム線4
 72
    65
 73
     4
 40
22.0
 49
4.0
 49
-5.0
 49
6.0
 49
-7.0
  0
LTYPE
  2
RAND5
 70
    64
  3
ランダム線5
 72
    65
 73
     4
 40
26.0
 49
5.0
 49
-6.0
 49
7.0
 49
-8.0
  0
LTYPE
  2
LONG1
 70
    64
  3
----------  --  ----------  --  
 72
    65
 73
     4
 40
40.0
 49
32.5
 49
-2.5
 49
2.5
 49
-2.5
  0
LTYPE
  2
LONG2
 70
    64
  3
--------  -  -  --------  -  -  
 72
    65
 73
     6
 40
40.0
 49
30.0
 49
-2.5
 49
1.25
 49
-2.5
 49
1.25
 49
-2.5
  0
LTYPE
  2
LONG3
 70
    64
  3
+++++++++++++++..+++++++++++++++
 72
    65
 73
     2
 40
40.0
 49
37.5
 49
-2.5
  0
LTYPE
  2
LONG4
 70
    64
  3
+++++++++++++++..+++++++++++++++
 72
    65
 73
     2
 40
80.0
 49
75.0
 49
-5.0
  0
LTYPE
  2
LONG5
 70
    64
  3
----------  --  ----------  --  
 72
    65
 73
     4
 40
60.0
 49
37.5
 49
-7.5
 49
7.5
 49
-7.5
  0
LTYPE
  2
dashed
 70
   64
  3
-------   -------------   ------
 72
   65
 73
    2
 40
7.5
 49
6
 49
-1.5
  0
LTYPE
  2
dashed_spaced
 70
   64
  3
----        --------        ----
 72
   65
 73
    2
 40
12
 49
6
 49
-6
  0
LTYPE
  2
long_dashed_dotted
 70
   64
  3
------------- --- --------------
 72
   65
 73
    4
 40
15.25
 49
12
 49
-1.5
 49
0.25
 49
-1.5
  0
LTYPE
  2
long_dashed_double-dotted
 70
   64
  3
----------- --- --- ------------
 72
   65
 73
    6
 40
17
 49
12
 49
-1.5
 49
0.25
 49
-1.5
 49
0.25
 49
-1.5
  0
LTYPE
  2
long_dashed_triplicate-dotted
 70
   64
  3
--------- --- --- --- ----------
 72
   65
 73
    8
 40
18.75
 49
12
 49
-1.5
 49
0.25
 49
-1.5
 49
0.25
 49
-1.5
 49
0.25
 49
-1.5
  0
LTYPE
  2
dotted
 70
   64
  3
   -       -       -       -    
 72
   65
 73
    2
 40
1.75
 49
0.25
 49
-1.5
  0
LTYPE
  2
chain
 70
   64
  3
-------------- -- --------------
 72
   65
 73
    4
 40
18.5
 49
12
 49
-1.5
 49
3.5
 49
-1.5
  0
LTYPE
  2
chain_double_dash
 70
   64
  3
------------ -- -- -------------
 72
   65
 73
    6
 40
23.5
 49
12
 49
-1.5
 49
3.5
 49
-1.5
 49
3.5
 49
-1.5
  0
LTYPE
  2
dashed_dotted
 70
   64
  3
-----------     -     ----------
 72
   65
 73
    4
 40
9.25
 49
6
 49
-1.5
 49
0.25
 49
-1.5
  0
LTYPE
  2
double-dashed_dotted
 70
   64
  3
------   -----------   -   -----
 72
   65
 73
    6
 40
16.75
 49
6
 49
-1.5
 49
6
 49
-1.5
 49
0.25
 49
-1.5
  0
LTYPE
  2
dashed_double-dotted
 70
   64
  3
---------    -    -    ---------
 72
   65
 73
    6
 40
11
 49
6
 49
-1.5
 49
0.25
 49
-1.5
 49
0.25
 49
-1.5
  0
LTYPE
  2
double-dashed_double-dotted
 70
   64
  3
-----   ---------   -   -   ----
 72
   65
 73
    8
 40
18.5
 49
6
 49
-1.5
 49
6
 49
-1.5
 49
0.25
 49
-1.5
 49
0.25
 49
-1.5
  0
LTYPE
  2
dashed_triplicate-dotted
 70
   64
  3
-------    -    -    -    ------
 72
   65
 73
    8
 40
12.75
 49
6
 49
-1.5
 49
0.25
 49
-1.5
 49
0.25
 49
-1.5
 49
0.25
 49
-1.5
  0
LTYPE
  2
double-dashed_triplicate-dotted
 70
   64
  3
-----  ---------  -  -  -  -----
 72
   65
 73
   10
 40
20.25
 49
6
 49
-1.5
 49
6
 49
-1.5
 49
0.25
 49
-1.5
 49
0.25
 49
-1.5
 49
0.25
 49
-1.5
  0
LTYPE
  2
undefined
 70
   64
  3
--------------------------------
 72
   65
 73
    0
 40
0
  0
LTYPE
  2
_
 70
   64
  3
                                
 72
   65
 73
    0
 40
0
  0
LTYPE
  2
__18
 70
   64
  3
                                
 72
   65
 73
    0
 40
0
  0
LTYPE
  2
__19
 70
   64
  3
                                
 72
   65
 73
    0
 40
0
  0
LTYPE
  2
__20
 70
   64
  3
                                
 72
   65
 73
    0
 40
0
  0
LTYPE
  2
__21
 70
   64
  3
                                
 72
   65
 73
    0
 40
0
  0
LTYPE
  2
__22
 70
   64
  3
                                
 72
   65
 73
    0
 40
0
  0
LTYPE
  2
__23
 70
   64
  3
                                
 72
   65
 73
    0
 40
0
  0
LTYPE
  2
__24
 70
   64
  3
                                
 72
   65
 73
    0
 40
0
  0
LTYPE
  2
__25
 70
   64
  3
                                
 72
   65
 73
    0
 40
0
  0
LTYPE
  2
__26
 70
   64
  3
                                
 72
   65
 73
    0
 40
0
  0
LTYPE
  2
__27
 70
   64
  3
                                
 72
   65
 73
    0
 40
0
  0
LTYPE
  2
__28
 70
   64
  3
                                
 72
   65
 73
    0
 40
0
  0
LTYPE
  2
__29
 70
   64
  3
                                
 72
   65
 73
    0
 40
0
  0
LTYPE
  2
__30
 70
   64
  3
                                
 72
   65
 73
    0
 40
0
  0
LTYPE
  2
__31
 70
   64
  3
                                
 72
   65
 73
    0
 40
0
  0
LTYPE
  2
__32
 70
   64
  3
                                
 72
   65
 73
    0
 40
0
  0
ENDTAB
  0
TABLE
  2
STYLE
  5
3
100
AcDbSymbolTable
 70
     1
  0
STYLE
  5
10
100
AcDbSymbolTableRecord
100
AcDbTextStyleTableRecord
  2
STANDARD
 70
     0
 40
0.0
 41
1.0
 50
0.0
 71
     0
 42
0.2
  3
txt
  4
bigfont.shx
  0
STYLE
  5
26
100
AcDbSymbolTableRecord
100
AcDbTextStyleTableRecord
  2
TATEGAKI
 70
    68
 40
0.0
 41
1.0
 50
0.0
 71
     0
 42
1.0
  3
txt
  4
bigfont.shx
  0
ENDTAB
  0
TABLE
  2
LAYER
 70
    5
  0
LAYER
  2
_0-0_
 70
   64
 62
    7
  6
CONTINUOUS
  0
LAYER
  2
_0-1_
 70
   64
 62
    7
  6
CONTINUOUS
  0
LAYER
  2
_0-2_
 70
   64
 62
    7
  6
CONTINUOUS
  0
LAYER
  2
_0-f_
 70
   64
 62
    7
  6
CONTINUOUS
  0
LAYER
  2
ADD_LINE
 70
   64
 62
    7
  6
CONTINUOUS
  0
ENDTAB
  0
ENDSEC
  0
SECTION
  2
BLOCKS
  0
ENDSEC
  0
SECTION
  2
ENTITIES
  0
LINE
  8
_0-f_
  6
CONTINUOUS
 62
    7
 10
382.29188337580177
 20
36.310031211528354
 11
382.29188337580177
 21
10.31006434153025
  0
LINE
  8
_0-f_
  6
CONTINUOUS
 62
    7
 10
417.79188337580177
 20
10.310031211528297
 11
417.79188337580177
 21
287.31003121152833
  0
LINE
  8
_0-f_
  6
CONTINUOUS
 62
    7
 10
346.79188337580177
 20
287.31003121152833
 11
346.79188337580177
 21
10.310031211528297
  0
LINE
  8
_0-f_
  6
CONTINUOUS
 62
    7
 10
346.79188337580177
 20
272.31003121152821
 11
417.79188337580177
 21
272.31003121152821
  0
LINE
  8
_0-f_
  6
CONTINUOUS
 62
    7
 10
346.79188337580177
 20
257.31003121152821
 11
417.79188337580177
 21
257.31003121152821
  0
LINE
  8
_0-f_
  6
CONTINUOUS
 62
    7
 10
346.79188337580177
 20
242.31003121152827
 11
417.79188337580177
 21
242.31003121152827
  0
LINE
  8
_0-f_
  6
CONTINUOUS
 62
    7
 10
346.79188337580177
 20
23.310031211528354
 11
417.79188337580177
 21
23.310031211528354
  0
LINE
  8
_0-f_
  6
CONTINUOUS
 62
    7
 10
346.79188337580177
 20
36.310031211528354
 11
417.79188337580177
 21
36.310031211528354
  0
LINE
  8
_0-f_
  6
CONTINUOUS
 62
    7
 10
346.79188337580177
 20
56.310031211528354
 11
417.79188337580177
 21
56.310031211528354
  0
TEXT
  8
_0-f_
 62
    7
 10
347.79188337580177
 20
269.31003121152821
 40
2
 41
1
 50
0
  1
品　名　：
  0
TEXT
  8
_0-f_
 62
    7
 10
347.79188337580177
 20
254.31003121152821
 40
2
 41
1
 50
0
  1
形　式　：
  0
TEXT
  8
_0-f_
 62
    7
 10
347.79188337580177
 20
239.31003121152827
 40
2
 41
1
 50
0
  1
仕　様　：
  0
TEXT
  8
_0-f_
 62
    7
 10
347.79188337580177
 20
53.310031211528354
 40
2
 41
1
 50
0
  1
図面名称　：
  0
TEXT
  8
_0-f_
 62
    7
 10
347.79188337580177
 20
33.310031211528354
 40
2
 41
1
 50
0
  1
尺　度　：
  0
TEXT
  8
_0-f_
 62
    7
 10
347.79188337580177
 20
20.310031211528297
 40
2
 41
1
 50
0
  1
サイズ　：
  0
TEXT
  8
_0-f_
 62
    7
 10
383.29188337580177
 20
33.310031211528354
 40
2
 41
1
 50
0
  1
作成日
  0
TEXT
  8
_0-f_
 62
    7
 10
383.29188337580177
 20
20.310031211528297
 40
2
 41
1
 50
0
  1
File Name ：
  0
TEXT
  8
_0-f_
 62
    7
 10
363.29188337580177
 20
15.560031211528297
 40
2.5
 41
1
 50
0
  1
A3
  0
TEXT
  8
_0-f_
 62
    7
 10
362.66688337580177
 20
28.560031211528354
 40
2.5
 41
1
 50
0
  1
1/5
  0
LINE
  8
_0-f_
  6
CONTINUOUS
 62
    7
 10
17.791883375801774
 20
10.310031211528297
 11
417.79188337580177
 21
10.310031211528297
  0
LINE
  8
_0-f_
  6
CONTINUOUS
 62
    7
 10
417.79188337580177
 20
287.31003121152833
 11
17.791883375801774
 21
287.31003121152833
  0
LINE
  8
_0-f_
  6
CONTINUOUS
 62
    7
 10
17.791883375801774
 20
287.31003121152833
 11
17.791883375801774
 21
10.310031211528297
  0
TEXT
  8
_0-f_
 62
    7
 10
347.79188337580177
 20
235.31003121152827
 40
3
 41
1
 50
0
  1
①本体　ｽﾁｰﾙ　t1.2　ﾎﾟﾘｯｼｭﾎﾜｲﾄ　焼付塗装
  0
TEXT
  8
_0-f_
 62
    7
 10
359.41417042962786
 20
261.70272660473313
 40
5
 41
1
 50
0
  1
NDX-220
  0
LINE
  8
_0-0_
  6
CONTINUOUS
 62
    7
 10
115.06891989609079
 20
137.9466420667884
 11
115.06891989609079
 21
101.94662680799937
  0
LINE
  8
_0-0_
  6
CONTINUOUS
 62
    7
 10
115.06891989609079
 20
137.9466420667884
 11
151.06893515487985
 21
137.9466420667884
  0
LINE
  8
_0-0_
  6
CONTINUOUS
 62
    7
 10
151.06893515487985
 20
137.9466420667884
 11
151.06893515487985
 21
101.94662680799937
  0
LINE
  8
_0-0_
  6
CONTINUOUS
 62
    7
 10
96.068904637301728
 20
156.9466420667884
 11
170.06894278427438
 21
156.9466420667884
  0
LINE
  8
_0-0_
  6
CONTINUOUS
 62
    7
 10
170.06894278427438
 20
156.9466420667884
 11
170.06894278427438
 21
82.946634437393868
  0
LINE
  8
_0-0_
  6
CONTINUOUS
 62
    7
 10
96.068904637301728
 20
156.9466420667884
 11
96.068904637301728
 21
82.946634437393868
  0
LINE
  8
_0-0_
  6
CONTINUOUS
 62
    7
 10
96.068904637301728
 20
82.946634437393868
 11
170.06894278427438
 21
82.946634437393868
  0
LINE
  8
_0-0_
  6
CONTINUOUS
 62
    7
 10
99.06885886093454
 20
153.94662680799934
 11
167.06888937851267
 21
153.94662680799934
  0
LINE
  8
_0-0_
  6
CONTINUOUS
 62
    7
 10
167.06888937851267
 20
153.94662680799934
 11
167.06888937851267
 21
85.946619178604806
  0
LINE
  8
_0-0_
  6
CONTINUOUS
 62
    7
 10
99.06885886093454
 20
153.94662680799934
 11
99.06885886093454
 21
85.946619178604806
  0
LINE
  8
_0-0_
  6
CONTINUOUS
 62
    7
 10
99.06885886093454
 20
85.946619178604806
 11
167.06888937851267
 21
85.946619178604806
  0
LINE
  8
_0-0_
  6
CONTINUOUS
 62
    7
 10
99.668849705661103
 20
86.346635963272774
 11
166.46889090439157
 21
86.346635963272774
  0
LINE
  8
_0-0_
  6
CONTINUOUS
 62
    7
 10
99.668849705661103
 20
153.54664817030402
 11
99.668849705661103
 21
86.346635963272774
  0
LINE
  8
_0-0_
  6
CONTINUOUS
 62
    7
 10
99.668849705661103
 20
153.54664817030402
 11
166.46889090439157
 21
153.54664817030402
  0
LINE
  8
_0-0_
  6
CONTINUOUS
 62
    7
 10
166.46889090439157
 20
153.54664817030402
 11
166.46889090439157
 21
86.346635963272774
  0
LINE
  8
_0-0_
  6
CENTER2
 62
    7
 10
164.46889090439157
 20
155.47917380506965
 11
164.46889090439157
 21
150.14662375624152
  0
LINE
  8
_0-0_
  6
LONG3
 62
    7
 10
165.06888174911813
 20
154.14663901503059
 11
165.01889395614938
 21
153.94662680799934
  0
LINE
  8
_0-0_
  6
LONG3
 62
    7
 10
163.86889243027048
 20
154.14663901503059
 11
165.06888174911813
 21
154.14663901503059
  0
LINE
  8
_0-0_
  6
LONG3
 62
    7
 10
163.86889243027048
 20
154.14663901503059
 11
163.91888022323923
 21
153.94662680799934
  0
LINE
  8
_0-0_
  6
LONG3
 62
    7
 10
164.14889883896188
 20
150.14662375624152
 11
164.78887534042673
 21
150.14662375624152
  0
LINE
  8
_0-0_
  6
LONG3
 62
    7
 10
164.78887534042673
 20
150.14662375624152
 11
164.8689458360322
 21
150.22662558729621
  0
LINE
  8
_0-0_
  6
LONG3
 62
    7
 10
164.06892752548532
 20
150.22662558729621
 11
164.14889883896188
 21
150.14662375624152
  0
LINE
  8
_0-0_
  6
CONTINUOUS
 62
    7
 10
164.06892752548532
 20
153.54664817030402
 11
164.06892752548532
 21
153.94662680799934
  0
LINE
  8
_0-0_
  6
CONTINUOUS
 62
    7
 10
164.8689458360322
 20
153.54664817030402
 11
164.8689458360322
 21
153.94662680799934
  0
LINE
  8
_0-0_
  6
LONG3
 62
    7
 10
164.8689458360322
 20
153.54664817030402
 11
164.8689458360322
 21
150.22662558729621
  0
LINE
  8
_0-0_
  6
LONG3
 62
    7
 10
164.06892752548532
 20
153.54664817030402
 11
164.06892752548532
 21
150.22662558729621
  0
LINE
  8
_0-0_
  6
CENTER2
 62
    7
 10
164.46889090439157
 20
84.414079810929024
 11
164.46889090439157
 21
88.546617652725899
  0
LINE
  8
_0-0_
  6
LONG3
 62
    7
 10
164.8689458360322
 20
84.746637489151681
 11
164.8689458360322
 21
85.946619178604806
  0
LINE
  8
_0-0_
  6
LONG3
 62
    7
 10
164.06892752548532
 20
84.746637489151681
 11
164.06892752548532
 21
85.946619178604806
  0
LINE
  8
_0-0_
  6
LONG3
 62
    7
 10
164.06892752548532
 20
84.746637489151681
 11
164.8689458360322
 21
84.746637489151681
  0
LINE
  8
_0-0_
  6
CONTINUOUS
 62
    7
 10
165.06888174911813
 20
85.946619178604806
 11
165.06888174911813
 21
86.346605445694649
  0
LINE
  8
_0-0_
  6
CONTINUOUS
 62
    7
 10
163.86889243027048
 20
85.946619178604806
 11
163.86889243027048
 21
86.346605445694649
  0
LINE
  8
_0-0_
  6
LONG3
 62
    7
 10
164.06892752548532
 20
86.346605445694649
 11
164.06892752548532
 21
88.446634437393868
  0
LINE
  8
_0-0_
  6
LONG3
 62
    7
 10
164.8689458360322
 20
86.346605445694649
 11
164.8689458360322
 21
88.446634437393868
  0
LINE
  8
_0-0_
  6
CONTINUOUS
 62
    7
 10
102.76887106796579
 20
130.44661917860481
 11
109.56881308456735
 21
130.44661917860481
  0
LINE
  8
_0-0_
  6
CONTINUOUS
 62
    7
 10
104.26885580917673
 20
128.84662833387824
 11
108.06884360214548
 21
128.84662833387824
  0
LINE
  8
_0-0_
  6
CONTINUOUS
 62
    7
 10
108.26887106796579
 20
128.64662375624152
 11
108.26887106796579
 21
111.24662985975718
  0
LINE
  8
_0-0_
  6
CONTINUOUS
 62
    7
 10
110.16891074081735
 20
110.04661765272593
 11
110.16891074081735
 21
129.84662833387824
  0
LINE
  8
_0-0_
  6
CONTINUOUS
 62
    7
 10
109.56881308456735
 20
109.44662680799937
 11
102.76887106796579
 21
109.44662680799937
  0
LINE
  8
_0-0_
  6
CONTINUOUS
 62
    7
 10
104.26717734237985
 20
111.04661765272593
 11
108.06884360214548
 21
111.04661765272593
  0
LINE
  8
_0-0_
  6
CONTINUOUS
 62
    7
 10
104.06882834335642
 20
111.24662985975718
 11
104.06882834335642
 21
128.64882102186652
  0
LINE
  8
_0-0_
  6
CONTINUOUS
 62
    7
 10
102.16888022323923
 20
110.04661765272593
 11
102.16888022323923
 21
129.85272422010871
  0
ARC
  8
_0-0_
  6
CONTINUOUS
 62
    7
 10
104.26885580917673
 20
111.24662985975718
 40
0.1999999880790709
 50
180
 51
270
  0
ARC
  8
_0-0_
  6
LONG3
 62
    7
 10
164.46889090439157
 20
87.696642066788399
 40
0.8500000834465023
 50
61.927505493164055
 51
118.07247924804687
  0
ARC
  8
_0-0_
  6
CONTINUOUS
 62
    7
 10
109.56881308456735
 20
110.04661765272593
 40
0.5999999046325681
 50
270
 51
0
  0
ARC
  8
_0-0_
  6
CONTINUOUS
 62
    7
 10
102.76887106796579
 20
110.04661765272593
 40
0.5999999046325681
 50
180
 51
270
  0
ARC
  8
_0-0_
  6
CONTINUOUS
 62
    7
 10
108.06884360214548
 20
111.24662985975718
 40
0.1999999880790709
 50
270
 51
0
  0
ARC
  8
_0-0_
  6
CONTINUOUS
 62
    7
 10
104.26885580917673
 20
128.64662375624152
 40
0.1999999880790709
 50
90
 51
180
  0
ARC
  8
_0-0_
  6
CONTINUOUS
 62
    7
 10
109.56881308456735
 20
129.84662833387824
 40
0.5999999046325681
 50
0
 51
90
  0
ARC
  8
_0-0_
  6
CONTINUOUS
 62
    7
 10
102.76887106796579
 20
129.84662833387824
 40
0.5999999046325681
 50
90
 51
179.41761779785156
  0
ARC
  8
_0-0_
  6
CONTINUOUS
 62
    7
 10
108.06884360214548
 20
128.64662375624152
 40
0.1999999880790709
 50
0
 51
90
  0
LINE
  8
_0-0_
  6
CONTINUOUS
 62
    7
 10
98.829005955661103
 20
240.42058290397978
 11
98.829005955661103
 21
209.42062105095243
  0
LINE
  8
_0-0_
  6
CONTINUOUS
 62
    7
 10
96.068904637301728
 20
207.66063417351103
 11
96.068904637301728
 21
209.42062105095243
  0
LINE
  8
_0-0_
  6
CONTINUOUS
 62
    7
 10
167.30889487167673
 20
209.42062105095243
 11
167.30889487167673
 21
240.42058290397978
  0
LINE
  8
_0-0_
  6
CONTINUOUS
 62
    7
 10
170.06888174911813
 20
209.42062105095243
 11
170.06888174911813
 21
207.66063417351103
  0
LINE
  8
_0-0_
  6
CONTINUOUS
 62
    7
 10
170.06891226669626
 20
209.42062105095243
 11
96.068904637301728
 21
209.42062105095243
  0
LINE
  8
_0-0_
  6
CONTINUOUS
 62
    7
 10
167.30889487167673
 20
240.42058290397978
 11
98.829005955661103
 21
240.42058290397978
  0
LINE
  8
_0-0_
  6
CONTINUOUS
 62
    7
 10
96.308925389254853
 20
207.42062105095243
 11
169.82889151474313
 21
207.42062105095243
  0
ARC
  8
_0-0_
  6
CONTINUOUS
 62
    7
 10
96.308925389254853
 20
207.66063417351103
 40
0.240000009536743
 50
180
 51
270
  0
ARC
  8
_0-0_
  6
CONTINUOUS
 62
    7
 10
169.82889151474313
 20
207.66063417351103
 40
0.240000009536743
 50
270
 51
0
  0
LINE
  8
_0-0_
  6
CONTINUOUS
 62
    7
 10
275.41841194316731
 20
154.18654074842902
 11
244.41845009013997
 21
154.18654074842902
  0
LINE
  8
_0-0_
  6
CONTINUOUS
 62
    7
 10
242.65846321269856
 20
156.9466420667884
 11
244.41845009013997
 21
156.9466420667884
  0
LINE
  8
_0-0_
  6
CONTINUOUS
 62
    7
 10
244.41845009013997
 20
85.706651832413399
 11
275.41841194316731
 21
85.706651832413399
  0
LINE
  8
_0-0_
  6
CONTINUOUS
 62
    7
 10
244.41845009013997
 20
82.946664954971993
 11
242.65846321269856
 21
82.946664954971993
  0
LINE
  8
_0-0_
  6
CONTINUOUS
 62
    7
 10
244.41845009013997
 20
82.946634437393868
 11
244.41845009013997
 21
156.9466420667884
  0
LINE
  8
_0-0_
  6
CONTINUOUS
 62
    7
 10
242.41845009013997
 20
156.70662131483527
 11
242.41845009013997
 21
83.186655189346993
  0
ARC
  8
_0-0_
  6
CONTINUOUS
 62
    7
 10
242.65846321269856
 20
156.70662131483527
 40
0.240000009536743
 50
90
 51
180
  0
ARC
  8
_0-0_
  6
CONTINUOUS
 62
    7
 10
242.65846321269856
 20
83.186655189346993
 40
0.240000009536743
 50
180
 51
270
  0
LINE
  8
_0-0_
  6
CONTINUOUS
 62
    7
 10
275.41841194316731
 20
85.706651832413399
 11
275.41841194316731
 21
142.49586226996513
  0
LINE
  8
_0-0_
  6
CONTINUOUS
 62
    7
 10
275.41841194316731
 20
142.49586226996513
 11
275.41841194316731
 21
154.18654074842902
  0
LINE
  8
_0-0_
  6
CONTINUOUS
 62
    7
 10
115.06891989609079
 20
101.94662680799937
 11
151.06893515487985
 21
101.94662680799937
  0
LINE
  8
_0-0_
  6
CENTER1
 62
    7
 10
133.06889311972361
 20
239.54881526155327
 11
133.06889311972361
 21
241.74797209738284
  0
LINE
  8
_0-0_
  6
CENTER1
 62
    7
 10
274.48504944316738
 20
143.94654074842902
 11
276.35177444316736
 21
143.94654074842902
  0
LINE
  8
_0-0_
  6
CENTER1
 62
    7
 10
274.48504944316738
 20
95.946540748429015
 11
276.35177444316736
 21
95.946540748429015
  0
LINE
  8
_0-0_
  6
CONTINUOUS
 62
    2
 10
132.56888401972361
 20
144.24654774842907
 11
132.56888401972361
 21
143.64652774842904
  0
LINE
  8
_0-0_
  6
CONTINUOUS
 62
    2
 10
133.56890401972362
 20
143.64657774842902
 11
133.56890401972362
 21
144.24654774842907
  0
ARC
  8
_0-0_
  6
CONTINUOUS
 62
    2
 10
133.06887501972363
 20
144.24654774842907
 40
0.4999953999999999
 50
0.0014189999999996
 51
179.99858
  0
ARC
  8
_0-0_
  6
CONTINUOUS
 62
    2
 10
133.0689130197236
 20
143.64652774842904
 40
0.4999892
 50
179.99857999999998
 51
0.0014190000001121
  0
LINE
  8
_0-0_
  6
CENTER2
 62
    7
 10
131.56886301972361
 20
143.94652774842905
 11
134.56891601972364
 21
143.94652774842905
  0
LINE
  8
_0-0_
  6
CONTINUOUS
 62
    2
 10
133.0688741197236
 20
95.146570748429014
 11
133.06891211972362
 21
95.146570748429014
  0
ARC
  8
_0-0_
  6
CONTINUOUS
 62
    2
 10
133.06891211972362
 20
95.646540748429032
 40
0.4999892
 50
179.99857999999998
 51
0.0014190000001121
  0
LINE
  8
_0-0_
  6
CONTINUOUS
 62
    2
 10
132.56888311972364
 20
96.246560748429033
 11
132.56888311972364
 21
95.646540748429032
  0
LINE
  8
_0-0_
  6
CONTINUOUS
 62
    2
 10
133.56890311972364
 20
95.64659074842902
 11
133.56890311972364
 21
96.246560748429033
  0
ARC
  8
_0-0_
  6
CONTINUOUS
 62
    2
 10
133.0688741197236
 20
96.246560748429033
 40
0.4999953999999999
 50
0.0014189999999996
 51
179.99858
  0
LINE
  8
_0-0_
  6
CENTER2
 62
    7
 10
131.56886211972363
 20
95.946540748429015
 11
134.56891511972361
 21
95.946540748429015
  0
LINE
  8
_0-1_
  6
CONTINUOUS
 62
    7
 10
98.829005955661103
 20
246.71911008185424
 11
133.06889311972361
 21
246.71911008185424
  0
POINT
  8
_0-1_
 62
    7
 10
98.829005955661103
 20
246.71911008185424
  0
POINT
  8
_0-1_
 62
    7
 10
133.06889311972361
 20
246.71911008185424
  0
LINE
  8
_0-1_
  6
CONTINUOUS
 62
    7
 10
98.829005955661103
 20
246.71911008185424
 11
98.829005955661103
 21
243.42064393913603
  0
LINE
  8
_0-1_
  6
CONTINUOUS
 62
    7
 10
133.06889311972361
 20
246.71911008185424
 11
133.06889311972361
 21
243.42064393913603
  0
LINE
  8
_0-1_
  6
CONTINUOUS
 62
    7
 10
133.06889311972361
 20
246.71911008185424
 11
167.30889487167673
 21
246.71911008185424
  0
POINT
  8
_0-1_
 62
    7
 10
167.30889487167673
 20
246.71911008185424
  0
LINE
  8
_0-1_
  6
CONTINUOUS
 62
    7
 10
167.30889487167673
 20
246.71911008185424
 11
167.30889487167673
 21
243.42064393913603
  0
LINE
  8
_0-1_
  6
CONTINUOUS
 62
    7
 10
96.068904637301728
 20
252.67514708317992
 11
98.828975438082978
 21
252.67514708317992
  0
LINE
  8
_0-1_
  6
CONTINUOUS
 62
    7
 10
167.30889487167673
 20
252.67514708317992
 11
170.06888174911813
 21
252.67514708317992
  0
LINE
  8
_0-1_
  6
CONTINUOUS
 62
    7
 10
99.068965672457978
 20
252.67514708317992
 11
170.06888174911813
 21
252.67514708317992
  0
POINT
  8
_0-1_
 62
    7
 10
98.828975438082978
 20
252.67514708317992
  0
POINT
  8
_0-1_
 62
    7
 10
96.068904637301728
 20
252.67514708317992
  0
POINT
  8
_0-1_
 62
    7
 10
167.30889487167673
 20
252.67514708317992
  0
POINT
  8
_0-1_
 62
    7
 10
167.30889487167673
 20
252.67514708317992
  0
POINT
  8
_0-1_
 62
    7
 10
170.06888174911813
 20
252.67514708317992
  0
TEXT
  8
_0-1_
 62
    7
 10
88.532419171663435
 20
253.58711767935051
 40
5
 41
1
 50
0
  1
13.8
  0
TEXT
  8
_0-1_
 62
    7
 10
128.66364136691561
 20
252.62010027705526
 40
5
 41
1
 50
0
  1
342.4
  0
TEXT
  8
_0-1_
 62
    7
 10
166.86082875757728
 20
253.10360897820294
 40
5
 41
1
 50
0
  1
13.8
  0
LINE
  8
_0-1_
  6
CONTINUOUS
 62
    7
 10
98.829005955661103
 20
243.42064393913603
 11
98.829005955661103
 21
252.39259792895461
  0
LINE
  8
_0-1_
  6
CONTINUOUS
 62
    7
 10
96.068904637301728
 20
243.42064393913603
 11
96.068904637301728
 21
252.67514708317992
  0
LINE
  8
_0-1_
  6
CONTINUOUS
 62
    7
 10
170.06888174911813
 20
243.42064393913603
 11
170.06888174911813
 21
252.67514708317992
  0
LINE
  8
_0-1_
  6
CONTINUOUS
 62
    7
 10
167.30889487167673
 20
243.42064393913603
 11
167.30889487167673
 21
252.67514708317992
  0
TEXT
  8
_0-1_
 62
    7
 10
109.15211216286349
 20
247.00066555160186
 40
5
 41
1
 50
0
  1
171.2
  0
TEXT
  8
_0-1_
 62
    7
 10
142.40236182320558
 20
247.10051615118249
 40
5
 41
1
 50
0
  1
171.2
  0
LINE
  8
_0-1_
  6
CONTINUOUS
 62
    7
 10
83.99250388046579
 20
207.42062105095243
 11
83.99250388046579
 21
209.42062105095243
  0
LINE
  8
_0-1_
  6
CONTINUOUS
 62
    7
 10
83.99250388046579
 20
207.42062105095243
 11
90.99250388046579
 21
207.42062105095243
  0
LINE
  8
_0-1_
  6
CONTINUOUS
 62
    7
 10
83.99250388046579
 20
209.42062105095243
 11
90.99250388046579
 21
209.42062105095243
  0
LINE
  8
_0-1_
  6
CONTINUOUS
 62
    7
 10
83.99250388046579
 20
209.42062105095243
 11
83.99250388046579
 21
240.42058290397978
  0
LINE
  8
_0-1_
  6
CONTINUOUS
 62
    7
 10
83.99250388046579
 20
240.42058290397978
 11
90.99250388046579
 21
240.42058290397978
  0
LINE
  8
_0-1_
  6
CONTINUOUS
 62
    7
 10
76.766521214450165
 20
207.42062105095243
 11
76.766521214450165
 21
240.42058290397978
  0
LINE
  8
_0-1_
  6
CONTINUOUS
 62
    7
 10
76.766521214450165
 20
207.42062105095243
 11
90.99250388046579
 21
207.42062105095243
  0
LINE
  8
_0-1_
  6
CONTINUOUS
 62
    7
 10
76.766521214450165
 20
240.42058290397978
 11
90.99250388046579
 21
240.42058290397978
  0
POINT
  8
_0-1_
 62
    7
 10
83.99250388046579
 20
207.42062105095243
  0
POINT
  8
_0-1_
 62
    7
 10
83.99250388046579
 20
209.42062105095243
  0
POINT
  8
_0-1_
 62
    7
 10
83.99250388046579
 20
240.42058290397978
  0
POINT
  8
_0-1_
 62
    7
 10
76.766521214450165
 20
207.42062105095243
  0
POINT
  8
_0-1_
 62
    7
 10
76.766521214450165
 20
240.42058290397978
  0
TEXT
  8
_0-1_
 62
    7
 10
76.542669684503664
 20
220.42287040122301
 40
5
 41
1
 50
90
  1
165
  0
TEXT
  8
_0-1_
 62
    7
 10
83.879999525860683
 20
220.13513197607176
 40
5
 41
1
 50
90
  1
155
  0
TEXT
  8
_0-1_
 62
    7
 10
83.879999525860683
 20
201.71987276639152
 40
5
 41
1
 50
90
  1
10
  0
LINE
  8
_0-1_
  6
CONTINUOUS
 62
    7
 10
83.186588047946259
 20
156.94664206678843
 11
91.616271733248993
 21
156.94664206678843
  0
LINE
  8
_0-1_
  6
CONTINUOUS
 62
    7
 10
83.186588047946259
 20
153.94662680799937
 11
83.186588047946259
 21
156.94664206678843
  0
LINE
  8
_0-1_
  6
CONTINUOUS
 62
    7
 10
83.186588047946259
 20
153.94662680799937
 11
91.616271733248993
 21
153.94662680799937
  0
LINE
  8
_0-1_
  6
CONTINUOUS
 62
    7
 10
83.186588047946259
 20
82.946634437393868
 11
83.186588047946259
 21
85.946619178604806
  0
LINE
  8
_0-1_
  6
CONTINUOUS
 62
    7
 10
83.186588047946259
 20
85.946619178604806
 11
91.616271733248993
 21
85.946619178604806
  0
LINE
  8
_0-1_
  6
CONTINUOUS
 62
    7
 10
83.186588047946259
 20
82.946634437393868
 11
91.616271733248993
 21
82.946634437393868
  0
LINE
  8
_0-1_
  6
CONTINUOUS
 62
    7
 10
83.186588047946259
 20
82.946634437393868
 11
83.186588047946259
 21
85.946619178604806
  0
LINE
  8
_0-1_
  6
CONTINUOUS
 62
    7
 10
74.347743748629853
 20
156.94664206678843
 11
91.616271733248993
 21
156.94664206678843
  0
LINE
  8
_0-1_
  6
CONTINUOUS
 62
    7
 10
74.347743748629853
 20
156.94664206678843
 11
74.347743748629853
 21
82.946634437393868
  0
LINE
  8
_0-1_
  6
CONTINUOUS
 62
    7
 10
74.347743748629853
 20
82.946634437393868
 11
91.616271733248993
 21
82.946634437393868
  0
LINE
  8
_0-1_
  6
CONTINUOUS
 62
    7
 10
83.186588047946259
 20
86.946626807999337
 11
83.186588047946259
 21
153.94662680799937
  0
POINT
  8
_0-1_
 62
    7
 10
83.186588047946259
 20
156.94664206678843
  0
POINT
  8
_0-1_
 62
    7
 10
83.186588047946259
 20
153.94662680799937
  0
POINT
  8
_0-1_
 62
    7
 10
74.347743748629853
 20
156.94664206678843
  0
POINT
  8
_0-1_
 62
    7
 10
83.186588047946259
 20
85.946619178604806
  0
POINT
  8
_0-1_
 62
    7
 10
83.186588047946259
 20
82.946634437393868
  0
POINT
  8
_0-1_
 62
    7
 10
74.347743748629853
 20
82.946634437393868
  0
TEXT
  8
_0-1_
 62
    7
 10
82.350517501367619
 20
157.77969423718039
 40
5
 41
1
 50
90
  1
15
  0
TEXT
  8
_0-1_
 62
    7
 10
73.788008210450414
 20
116.96506661714173
 40
5
 41
1
 50
90
  1
370
  0
TEXT
  8
_0-1_
 62
    7
 10
82.921351454095372
 20
116.67964964077782
 40
5
 41
1
 50
90
  1
340
  0
TEXT
  8
_0-1_
 62
    7
 10
83.206768430459249
 20
76.721272949830905
 40
5
 41
1
 50
90
  1
15
  0
LINE
  8
_0-1_
  6
CONTINUOUS
 62
    7
 10
96.068904637301728
 20
204.42065919792509
 11
96.068904637301728
 21
197.42068208610868
  0
LINE
  8
_0-1_
  6
CONTINUOUS
 62
    7
 10
170.06888174911813
 20
204.42065919792509
 11
170.06888174911813
 21
197.42068208610868
  0
LINE
  8
_0-1_
  6
CONTINUOUS
 62
    7
 10
96.068904637301728
 20
197.42068208610868
 11
170.06891226669626
 21
197.42068208610868
  0
POINT
  8
_0-1_
 62
    7
 10
96.068904637301728
 20
197.42068208610868
  0
POINT
  8
_0-1_
 62
    7
 10
170.06891226669626
 20
197.42068208610868
  0
TEXT
  8
_0-1_
 62
    7
 10
130.11416747035844
 20
197.90487254091681
 40
5
 41
1
 50
0
  1
370
  0
LINE
  8
_0-1_
  6
CONTINUOUS
 62
    7
 10
96.068900822604462
 20
172.40692343885871
 11
96.068900822604462
 21
159.7899953382728
  0
LINE
  8
_0-1_
  6
CONTINUOUS
 62
    7
 10
99.068959950412079
 20
164.8367787855384
 11
99.068959950412079
 21
159.7899953382728
  0
LINE
  8
_0-1_
  6
CONTINUOUS
 62
    7
 10
96.068900822604462
 20
164.8367787855384
 11
96.068900822604462
 21
159.7899953382728
  0
LINE
  8
_0-1_
  6
CONTINUOUS
 62
    7
 10
96.068900822604462
 20
164.8367787855384
 11
99.068959950412079
 21
164.8367787855384
  0
LINE
  8
_0-1_
  6
CONTINUOUS
 62
    7
 10
170.06894659897165
 20
172.40692343885871
 11
170.06894659897165
 21
159.7899953382728
  0
LINE
  8
_0-1_
  6
CONTINUOUS
 62
    7
 10
170.06894659897165
 20
164.8367787855384
 11
170.06894659897165
 21
159.7899953382728
  0
LINE
  8
_0-1_
  6
CONTINUOUS
 62
    7
 10
167.06888937851267
 20
164.8367787855384
 11
170.06894659897165
 21
164.8367787855384
  0
LINE
  8
_0-1_
  6
CONTINUOUS
 62
    7
 10
167.06888937851267
 20
164.8367787855384
 11
167.06888937851267
 21
159.7899953382728
  0
LINE
  8
_0-1_
  6
CONTINUOUS
 62
    7
 10
99.068959950412079
 20
164.8367787855384
 11
167.06888937851267
 21
164.8367787855384
  0
LINE
  8
_0-1_
  6
CONTINUOUS
 62
    7
 10
96.068900822604462
 20
172.40692343885871
 11
170.06894659897165
 21
172.40692343885871
  0
POINT
  8
_0-1_
 62
    7
 10
96.068900822604462
 20
172.40692343885871
  0
POINT
  8
_0-1_
 62
    7
 10
99.068959950412079
 20
164.8367787855384
  0
POINT
  8
_0-1_
 62
    7
 10
96.068900822604462
 20
164.8367787855384
  0
POINT
  8
_0-1_
 62
    7
 10
170.06894659897165
 20
172.40692343885871
  0
POINT
  8
_0-1_
 62
    7
 10
170.06894659897165
 20
164.8367787855384
  0
POINT
  8
_0-1_
 62
    7
 10
167.06888937851267
 20
164.8367787855384
  0
TEXT
  8
_0-1_
 62
    7
 10
170.44177092059641
 20
165.27024575972621
 40
5
 41
1
 50
0
  1
15
  0
TEXT
  8
_0-1_
 62
    7
 10
129.05762463343524
 20
165.02823320833932
 40
5
 41
1
 50
0
  1
340
  0
TEXT
  8
_0-1_
 62
    7
 10
129.29963718482219
 20
172.53062230133344
 40
5
 41
1
 50
0
  1
370
  0
TEXT
  8
_0-1_
 62
    7
 10
90.627609815920835
 20
166.05678655173364
 40
5
 41
1
 50
0
  1
15
  0
LINE
  8
_0-1_
  6
CONTINUOUS
 62
    7
 10
242.41845009013997
 20
166.94662680799934
 11
244.41845009013997
 21
166.94662680799934
  0
LINE
  8
_0-1_
  6
CONTINUOUS
 62
    7
 10
242.41845009013997
 20
166.94662680799934
 11
242.41845009013997
 21
159.94662680799937
  0
LINE
  8
_0-1_
  6
CONTINUOUS
 62
    7
 10
244.41845009013997
 20
166.94662680799934
 11
244.41845009013997
 21
159.94662680799937
  0
LINE
  8
_0-1_
  6
CONTINUOUS
 62
    7
 10
244.41845009013997
 20
166.94662680799934
 11
275.41841194316731
 21
166.94662680799934
  0
LINE
  8
_0-1_
  6
CONTINUOUS
 62
    7
 10
275.41841194316731
 20
166.94662680799934
 11
275.41841194316731
 21
159.94662680799937
  0
LINE
  8
_0-1_
  6
CONTINUOUS
 62
    7
 10
242.41845009013997
 20
174.17260947401496
 11
275.41841194316731
 21
174.17260947401496
  0
LINE
  8
_0-1_
  6
CONTINUOUS
 62
    7
 10
242.41845009013997
 20
174.17260947401496
 11
242.41845009013997
 21
159.94662680799937
  0
LINE
  8
_0-1_
  6
CONTINUOUS
 62
    7
 10
275.41841194316731
 20
174.17260947401496
 11
275.41841194316731
 21
159.94662680799937
  0
POINT
  8
_0-1_
 62
    7
 10
242.41845009013997
 20
166.94662680799934
  0
POINT
  8
_0-1_
 62
    7
 10
244.41845009013997
 20
166.94662680799934
  0
POINT
  8
_0-1_
 62
    7
 10
275.41841194316731
 20
166.94662680799934
  0
POINT
  8
_0-1_
 62
    7
 10
242.41845009013997
 20
174.17260947401496
  0
POINT
  8
_0-1_
 62
    7
 10
275.41841194316731
 20
174.17260947401496
  0
TEXT
  8
_0-1_
 62
    7
 10
255.4206994404106
 20
174.39646100396152
 40
5
 41
1
 50
0
  1
165
  0
TEXT
  8
_0-1_
 62
    7
 10
255.13296101525935
 20
167.05913116260456
 40
5
 41
1
 50
0
  1
155
  0
TEXT
  8
_0-1_
 62
    7
 10
236.71770180557911
 20
167.05913116260456
 40
5
 41
1
 50
0
  1
10
  0
LINE
  8
_0-1_
  6
CONTINUOUS
 62
    7
 10
239.41848823711263
 20
156.94664206678843
 11
232.41851112529622
 21
156.94664206678843
  0
LINE
  8
_0-1_
  6
CONTINUOUS
 62
    7
 10
239.41848823711263
 20
82.946664954971993
 11
232.41851112529622
 21
82.946664954971993
  0
LINE
  8
_0-1_
  6
CONTINUOUS
 62
    7
 10
232.41851112529622
 20
156.94664206678843
 11
232.41851112529622
 21
82.946634437393868
  0
POINT
  8
_0-1_
 62
    7
 10
232.41851112529622
 20
156.94664206678843
  0
POINT
  8
_0-1_
 62
    7
 10
232.41851112529622
 20
82.946634437393868
  0
TEXT
  8
_0-1_
 62
    7
 10
232.11388700315905
 20
114.69073778507641
 40
5
 41
1
 50
90
  1
370
  0
LINE
  8
_0-1_
  6
CONTINUOUS
 62
    7
 10
295.74425009408111
 20
156.94664206678843
 11
295.74425009408111
 21
154.18657126600718
  0
LINE
  8
_0-1_
  6
CONTINUOUS
 62
    7
 10
288.74428061165924
 20
154.18654074842905
 11
295.74425009408111
 21
154.18654074842905
  0
LINE
  8
_0-1_
  6
CONTINUOUS
 62
    7
 10
288.74428061165924
 20
85.706651832413399
 11
295.74425009408111
 21
85.706651832413399
  0
LINE
  8
_0-1_
  6
CONTINUOUS
 62
    7
 10
295.74425009408111
 20
85.706651832413399
 11
295.74425009408111
 21
82.946664954971993
  0
LINE
  8
_0-1_
  6
CONTINUOUS
 62
    7
 10
295.74425009408111
 20
153.94658103163218
 11
295.74425009408111
 21
82.946664954971993
  0
POINT
  8
_0-1_
 62
    7
 10
295.74425009408111
 20
154.18657126600718
  0
POINT
  8
_0-1_
 62
    7
 10
295.74425009408111
 20
156.94664206678843
  0
POINT
  8
_0-1_
 62
    7
 10
295.74425009408111
 20
85.706651832413399
  0
POINT
  8
_0-1_
 62
    7
 10
295.74425009408111
 20
85.706651832413399
  0
POINT
  8
_0-1_
 62
    7
 10
295.74425009408111
 20
82.946664954971993
  0
TEXT
  8
_0-1_
 62
    7
 10
295.67130328947661
 20
112.10109195871513
 40
5
 41
1
 50
90
  1
342.4
  0
TEXT
  8
_0-1_
 62
    7
 10
295.23969565174974
 20
157.13215549488632
 40
5
 41
1
 50
90
  1
13.8
  0
POINT
  8
_0-1_
 62
    7
 10
288.74428061165924
 20
85.706651832413399
  0
LINE
  8
_0-1_
  6
CONTINUOUS
 62
    7
 10
288.74428061165924
 20
85.706651832413399
 11
282.27767106622917
 21
85.706651832413399
  0
POINT
  8
_0-1_
 62
    7
 10
288.74428061165924
 20
154.18654074842905
  0
LINE
  8
_0-1_
  6
CONTINUOUS
 62
    7
 10
288.74428061165924
 20
154.18654074842905
 11
282.27767106622917
 21
154.18654074842905
  0
TEXT
  8
_0-1_
 62
    7
 10
295.09582643917412
 20
71.529974012388379
 40
5
 41
1
 50
90
  1
13.8
  0
LINE
  8
_0-1_
  6
CONTINUOUS
 62
    7
 10
282.27767106622917
 20
156.94664206678843
 11
295.74425009408111
 21
156.94664206678843
  0
LINE
  8
_0-1_
  6
CONTINUOUS
 62
    7
 10
282.27767106622917
 20
82.946664954971993
 11
295.74425009408111
 21
82.946664954971993
  0
LINE
  8
_0-1_
  6
CONTINUOUS
 62
    7
 10
115.06891989609079
 20
130.6315785902259
 11
151.06893515487985
 21
130.6315785902259
  0
LINE
  8
_0-1_
  6
CONTINUOUS
 62
    7
 10
115.06891989609079
 20
130.6315785902259
 11
115.06891989609079
 21
133.72210898573374
  0
LINE
  8
_0-1_
  6
CONTINUOUS
 62
    7
 10
151.06893515487985
 20
130.6315785902259
 11
151.06893515487985
 21
133.72210898573374
  0
POINT
  8
_0-1_
 62
    7
 10
115.06891989609079
 20
130.6315785902259
  0
POINT
  8
_0-1_
 62
    7
 10
151.06893515487985
 20
130.6315785902259
  0
TEXT
  8
_0-1_
 62
    7
 10
131.18510307594562
 20
130.95049845897313
 40
5
 41
1
 50
0
  1
180
  0
LINE
  8
_0-1_
  6
CONTINUOUS
 62
    7
 10
156.76093649765329
 20
137.94664206678843
 11
156.76093649765329
 21
101.94662680799934
  0
LINE
  8
_0-1_
  6
CONTINUOUS
 62
    7
 10
156.76093649765329
 20
137.94664206678843
 11
152.96461844345407
 21
137.94664206678843
  0
LINE
  8
_0-1_
  6
CONTINUOUS
 62
    7
 10
156.76093649765329
 20
101.94662680799934
 11
152.96461844345407
 21
101.94662680799934
  0
POINT
  8
_0-1_
 62
    7
 10
156.76093649765329
 20
137.94664206678843
  0
POINT
  8
_0-1_
 62
    7
 10
156.76093649765329
 20
101.94662680799934
  0
TEXT
  8
_0-1_
 62
    7
 10
162.29555349961146
 20
116.67964964077782
 40
5
 41
1
 50
90
  1
180
  0
POINT
  8
_0-1_
 62
    7
 10
288.74428061165924
 20
143.94654074842904
  0
LINE
  8
_0-1_
  6
CONTINUOUS
 62
    7
 10
288.74428061165924
 20
143.94654074842904
 11
282.27767106622917
 21
143.94654074842904
  0
LINE
  8
_0-1_
  6
CONTINUOUS
 62
    7
 10
288.74428061165924
 20
143.94654074842904
 11
288.74428061165924
 21
154.18654074842905
  0
POINT
  8
_0-1_
 62
    7
 10
288.74428061165924
 20
95.946540748429015
  0
LINE
  8
_0-1_
  6
CONTINUOUS
 62
    7
 10
288.74428061165924
 20
95.946540748429015
 11
282.27767106622917
 21
95.946540748429015
  0
LINE
  8
_0-1_
  6
CONTINUOUS
 62
    7
 10
288.74428061165924
 20
85.706651832413399
 11
288.74428061165924
 21
95.946540748429015
  0
LINE
  8
_0-1_
  6
CONTINUOUS
 62
    7
 10
288.74428061165924
 20
95.946540748429015
 11
288.74428061165924
 21
143.94654074842904
  0
TEXT
  8
_0-1_
 62
    7
 10
288.30138516909216
 20
143.99760669337152
 40
5
 41
1
 50
90
  1
51.2
  0
TEXT
  8
_0-1_
 62
    7
 10
287.62971036879281
 20
86.040957990261859
 40
5
 41
1
 50
90
  1
51.2
  0
TEXT
  8
_0-1_
 62
    7
 10
288.13105968090503
 20
114.53129723699834
 40
5
 41
1
 50
90
  1
240
  0
LINE
  8
_0-2_
  6
CONTINUOUS
 62
    7
 10
108.40923189263412
 20
140.25037892822513
 11
104.33172618971395
 21
144.47275968825292
  0
LINE
  8
_0-2_
  6
CONTINUOUS
 62
    7
 10
108.50676192784653
 20
140.25037892822513
 11
112.58426763076682
 21
144.47275968825292
  0
ARC
  8
_0-2_
  6
CONTINUOUS
 62
    7
 10
108.45799691024035
 20
140.33767050697961
 40
0.0999892327382626
 50
240.81030254096703
 51
299.18969745903297
  0
ARC
  8
_0-2_
  6
CONTINUOUS
 62
    7
 10
106.39486154997718
 20
145.98132048124714
 40
2.5558331676632902
 50
36.174202920704083
 51
216.17420292070403
  0
LINE
  8
_0-2_
  6
CONTINUOUS
 62
    7
 10
108.46006570108437
 20
144.89844361909408
 11
108.46006570108437
 21
146.35644361909408
  0
LINE
  8
_0-2_
  6
CONTINUOUS
 62
    7
 10
108.46006570108437
 20
144.89844361909408
 11
109.83013754219024
 21
145.39710898806291
  0
LINE
  8
_0-2_
  6
CONTINUOUS
 62
    7
 10
109.16532720529437
 20
145.7809374150298
 11
110.28099093919144
 21
147.11053367802867
  0
LINE
  8
_0-2_
  6
CONTINUOUS
 62
    7
 10
109.83013754219024
 20
145.39710898806291
 11
109.16532720529437
 21
145.7809374150298
  0
LINE
  8
_0-2_
  6
CONTINUOUS
 62
    7
 10
110.28099093919144
 20
147.11053367802867
 11
110.9482018213991
 21
146.65126290967555
  0
LINE
  8
_0-2_
  6
CONTINUOUS
 62
    7
 10
110.9482018213991
 20
146.65126290967555
 11
113.13990863057148
 21
148.65558854754661
  0
LINE
  8
_0-2_
  6
CONTINUOUS
 62
    7
 10
109.01957590565155
 20
145.87862529949385
 11
110.43561722302644
 21
148.71070793424354
  0
LINE
  8
_0-2_
  6
CONTINUOUS
 62
    7
 10
110.43561722302644
 20
148.71070793424354
 11
111.41491753626525
 21
147.94689216930084
  0
LINE
  8
_0-2_
  6
CONTINUOUS
 62
    7
 10
111.41491753626525
 20
147.94689216930084
 11
112.01134798244215
 21
149.42834843883705
  0
LINE
  8
_0-2_
  6
CONTINUOUS
 62
    7
 10
112.01134798244215
 20
149.42834843883705
 11
113.13990863057148
 21
148.65558854754661
  0
LINE
  8
_0-2_
  6
CONTINUOUS
 62
    7
 10
109.01978837118168
 20
145.8790502305541
 11
108.46006570108437
 21
146.35644361909408
  0
ARC
  8
_0-2_
  6
CONTINUOUS
 62
    7
 10
110.52113227050359
 20
145.98132048124714
 40
2.5558331676632893
 50
93.932939704953412
 51
143.82579707929585
  0
ARC
  8
_0-2_
  6
CONTINUOUS
 62
    7
 10
110.52113227050359
 20
145.98132048124714
 40
2.5558331676632893
 50
323.82579707929591
 51
47.069975771820232
  0
ARC
  8
_0-2_
  6
CONTINUOUS
 62
    7
 10
110.52113227050359
 20
145.98132048124714
 40
2.5558331676632893
 50
65.93938761805704
 51
86.813527032339678
  0
TEXT
  8
_0-2_
 62
    7
 10
120.91415363744488
 20
139.47593746118631
 40
10
 41
1
 50
0
  1
Ｅ
  0
TEXT
  8
_0-2_
 62
    7
 10
113.50047071417617
 20
139.42779666298327
 40
10
 41
1
 50
0
  1
Ａ
  0
TEXT
  8
_0-2_
 62
    7
 10
128.32783656071354
 20
139.3796558647802
 40
10
 41
1
 50
0
  1
Ｄ
  0
LINE
  8
_0-2_
  6
CONTINUOUS
 62
    7
 10
269.95182163950875
 20
146.43230121429318
 11
249.76196093669824
 21
146.43230121429318
  0
TEXT
  8
_0-2_
 62
    7
 10
249.16458548032114
 20
146.65421904772359
 40
3
 41
1
 50
0
  1
５ｘ８取付穴
  0
LINE
  8
_0-2_
  6
CONTINUOUS
 62
    7
 10
275.41841194316731
 20
143.79577621039485
 11
269.95182163950875
 21
146.43230121429318
  0
LINE
  8
_0-2_
  6
CONTINUOUS
 62
    7
 10
269.95182163950875
 20
98.583065752327343
 11
249.76196093669824
 21
98.583065752327343
  0
TEXT
  8
_0-2_
 62
    7
 10
249.16458548032114
 20
98.804983585757782
 40
3
 41
1
 50
0
  1
５ｘ８取付穴
  0
LINE
  8
_0-2_
  6
CONTINUOUS
 62
    7
 10
275.41841194316731
 20
95.946540748429015
 11
269.95182163950875
 21
98.583065752327343
  0
CIRCLE
  8
_0-2_
  6
CONTINUOUS
 62
    7
 10
184.56017323958793
 20
239.57087470045639
 40
3.4095973463431131
  0
TEXT
  8
_0-2_
 62
    7
 10
182.5805963691048
 20
237.81298396948057
 40
4
 41
1
 50
0
  1
１
  0
LINE
  8
_0-2_
  6
CONTINUOUS
 62
    7
 10
181.61615228376962
 20
237.8509634597545
 11
165.43279622321023
 21
221.66760739919511
  0
CIRCLE
  8
_0-2_
  6
CONTINUOUS
 62
    7
 10
182.38267356549073
 20
131.1095517006469
 40
3.4095973463431131
  0
LINE
  8
_0-2_
  6
CONTINUOUS
 62
    7
 10
179.43865260967249
 20
129.38964045994501
 11
163.2552965491131
 21
113.20628439938559
  0
TEXT
  8
_0-2_
 62
    7
 10
180.4030966950076
 20
129.35166096967109
 40
4
 41
1
 50
0
  1
２
  0
CIRCLE
  8
_0-2_
  6
CONTINUOUS
 62
    7
 10
182.32228303506696
 20
149.73556791897093
 40
3.4095973463431131
  0
LINE
  8
_0-2_
  6
CONTINUOUS
 62
    7
 10
179.37826207924866
 20
148.01565667826904
 11
148.44444293136468
 21
122.00194009923115
  0
TEXT
  8
_0-2_
 62
    7
 10
180.34270616458383
 20
147.97767718799511
 40
4
 41
1
 50
0
  1
３
  0
TEXT
  8
_0-2_
 62
    7
 10
200.94827586206895
 20
27.465517241379303
 40
5
 41
1
 50
0
  1
※ご発注前にご収納されますＡＥＤ機器寸法をご確認下さい
  0
LINE
  8
_0-f_
  6
CONTINUOUS
 62
    7
 10
382.71751761180235
 20
279.77881233534748
 11
382.71751761180235
 21
280.15478833534746
  0
LINE
  8
_0-f_
  6
CONTINUOUS
 62
    7
 10
382.71751761180235
 20
280.15478833534746
 11
384.39751761180241
 21
280.15478833534746
  0
LINE
  8
_0-f_
  6
CONTINUOUS
 62
    7
 10
384.39751761180241
 20
280.15478833534746
 11
384.39751761180241
 21
280.46690033534742
  0
LINE
  8
_0-f_
  6
CONTINUOUS
 62
    7
 10
384.39751761180241
 20
280.46690033534742
 11
383.59034931350374
 21
280.46690033534742
  0
LINE
  8
_0-f_
  6
CONTINUOUS
 62
    7
 10
383.59034931350374
 20
280.46690033534742
 11
383.68148268863547
 21
280.83486393044643
  0
LINE
  8
_0-f_
  6
CONTINUOUS
 62
    7
 10
383.68148268863547
 20
280.83486393044643
 11
384.71751761180235
 21
280.83486833534744
  0
LINE
  8
_0-f_
  6
CONTINUOUS
 62
    7
 10
384.71751761180235
 20
280.83486833534744
 11
384.71751761180235
 21
281.23486833534741
  0
LINE
  8
_0-f_
  6
CONTINUOUS
 62
    7
 10
384.71751761180235
 20
281.23486833534741
 11
384.08066467927938
 21
281.23486833534741
  0
LINE
  8
_0-f_
  6
CONTINUOUS
 62
    7
 10
384.08066467927938
 20
281.23486833534741
 11
384.24551761180248
 21
281.5205403353475
  0
LINE
  8
_0-f_
  6
CONTINUOUS
 62
    7
 10
384.24551761180248
 20
281.5205403353475
 11
383.71510161180231
 21
281.82688433534747
  0
LINE
  8
_0-f_
  6
CONTINUOUS
 62
    7
 10
383.71510161180231
 20
281.82688433534747
 11
383.37271298505419
 21
281.23486833534741
  0
LINE
  8
_0-f_
  6
CONTINUOUS
 62
    7
 10
383.37271298505419
 20
281.23486833534741
 11
383.2775256118025
 21
281.23486833534741
  0
LINE
  8
_0-f_
  6
CONTINUOUS
 62
    7
 10
383.2775256118025
 20
281.23486833534741
 11
383.2775256118025
 21
281.82686033534748
  0
LINE
  8
_0-f_
  6
CONTINUOUS
 62
    7
 10
383.2775256118025
 20
281.82686033534748
 11
382.55750961180229
 21
281.82686033534748
  0
LINE
  8
_0-f_
  6
CONTINUOUS
 62
    7
 10
382.55750961180229
 20
281.82686033534748
 11
382.55750961180229
 21
281.23486833534741
  0
LINE
  8
_0-f_
  6
CONTINUOUS
 62
    7
 10
382.55750961180229
 20
281.23486833534741
 11
382.07750161180229
 21
281.23486833534741
  0
LINE
  8
_0-f_
  6
CONTINUOUS
 62
    7
 10
382.07750161180229
 20
281.23486833534741
 11
382.07750161180229
 21
281.82686033534748
  0
LINE
  8
_0-f_
  6
CONTINUOUS
 62
    7
 10
382.07750161180229
 20
281.82686033534748
 11
381.3575096118023
 21
281.82686033534748
  0
LINE
  8
_0-f_
  6
CONTINUOUS
 62
    7
 10
381.3575096118023
 20
281.82686033534748
 11
381.3575096118023
 21
281.23486833534741
  0
LINE
  8
_0-f_
  6
CONTINUOUS
 62
    7
 10
381.3575096118023
 20
281.23486833534741
 11
381.26228991293351
 21
281.23486833534741
  0
LINE
  8
_0-f_
  6
CONTINUOUS
 62
    7
 10
381.26228991293351
 20
281.23486833534741
 11
380.92069361180228
 21
281.8268283353475
  0
LINE
  8
_0-f_
  6
CONTINUOUS
 62
    7
 10
380.92069361180228
 20
281.8268283353475
 11
380.39031761180235
 21
281.52047633534744
  0
LINE
  8
_0-f_
  6
CONTINUOUS
 62
    7
 10
380.39031761180235
 20
281.52047633534744
 11
380.55517302383407
 21
281.23486833534741
  0
LINE
  8
_0-f_
  6
CONTINUOUS
 62
    7
 10
380.55517302383407
 20
281.23486833534741
 11
379.91751761180234
 21
281.23486833534741
  0
LINE
  8
_0-f_
  6
CONTINUOUS
 62
    7
 10
379.91751761180234
 20
281.23486833534741
 11
379.91751761180234
 21
280.83486833534744
  0
LINE
  8
_0-f_
  6
CONTINUOUS
 62
    7
 10
379.91751761180234
 20
280.83486833534744
 11
380.95430568215477
 21
280.83486833534744
  0
LINE
  8
_0-f_
  6
CONTINUOUS
 62
    7
 10
380.95430568215477
 20
280.83486833534744
 11
381.04467971733106
 21
280.46690033534742
  0
LINE
  8
_0-f_
  6
CONTINUOUS
 62
    7
 10
381.04467971733106
 20
280.46690033534742
 11
380.23750961180235
 21
280.46690033534742
  0
LINE
  8
_0-f_
  6
CONTINUOUS
 62
    7
 10
380.23750961180235
 20
280.46690033534742
 11
380.23750961180235
 21
280.15478833534746
  0
LINE
  8
_0-f_
  6
CONTINUOUS
 62
    7
 10
380.23750961180235
 20
280.15478833534746
 11
381.91749361180234
 21
280.15478833534746
  0
LINE
  8
_0-f_
  6
CONTINUOUS
 62
    7
 10
381.91749361180234
 20
280.15478833534746
 11
381.91749361180229
 21
279.77881233534748
  0
LINE
  8
_0-f_
  6
CONTINUOUS
 62
    7
 10
381.91749361180229
 20
279.77881233534748
 11
380.23750961180235
 21
279.77881233534748
  0
LINE
  8
_0-f_
  6
CONTINUOUS
 62
    7
 10
380.23750961180235
 20
279.77881233534748
 11
380.2375096118023
 21
279.4588923353474
  0
LINE
  8
_0-f_
  6
CONTINUOUS
 62
    7
 10
380.2375096118023
 20
279.4588923353474
 11
381.91749361180229
 21
279.4588923353474
  0
LINE
  8
_0-f_
  6
CONTINUOUS
 62
    7
 10
381.91749361180229
 20
279.4588923353474
 11
381.91749361180234
 21
279.08291633534748
  0
LINE
  8
_0-f_
  6
CONTINUOUS
 62
    7
 10
381.91749361180234
 20
279.08291633534748
 11
379.91751761180234
 21
279.08291633534748
  0
LINE
  8
_0-f_
  6
CONTINUOUS
 62
    7
 10
379.91751761180234
 20
279.08291633534748
 11
379.91751761180234
 21
278.68290033534743
  0
LINE
  8
_0-f_
  6
CONTINUOUS
 62
    7
 10
379.91751761180234
 20
278.68290033534743
 11
381.04718961180237
 21
278.68290033534743
  0
LINE
  8
_0-f_
  6
CONTINUOUS
 62
    7
 10
381.04718961180237
 20
278.68290033534743
 11
380.55110961180225
 21
278.18682033534748
  0
LINE
  8
_0-f_
  6
CONTINUOUS
 62
    7
 10
380.55110961180225
 20
278.18682033534748
 11
379.91751761180234
 21
278.18682033534748
  0
LINE
  8
_0-f_
  6
CONTINUOUS
 62
    7
 10
379.91751761180234
 20
278.18682033534748
 11
379.91751761180234
 21
277.82682033534746
  0
LINE
  8
_0-f_
  6
CONTINUOUS
 62
    7
 10
379.91751761180234
 20
277.82682033534746
 11
380.74903214555513
 21
277.82682033534746
  0
ARC
  8
_0-f_
  6
CONTINUOUS
 62
    7
 10
380.74903214555513
 20
278.22682033534744
 40
0.3999999999999995
 50
270
 51
314.98511379092588
  0
LINE
  8
_0-f_
  6
CONTINUOUS
 62
    7
 10
381.03180136216838
 20
277.94390414610416
 11
381.77118165338328
 21
278.68290033534743
  0
LINE
  8
_0-f_
  6
CONTINUOUS
 62
    7
 10
381.77118165338328
 20
278.68290033534743
 11
381.91749361180234
 21
278.68290033534743
  0
LINE
  8
_0-f_
  6
CONTINUOUS
 62
    7
 10
381.91749361180234
 20
278.68290033534743
 11
381.91749361180229
 21
277.82682033534746
  0
LINE
  8
_0-f_
  6
CONTINUOUS
 62
    7
 10
381.91749361180229
 20
277.82682033534746
 11
382.71751761180235
 21
277.82682033534746
  0
LINE
  8
_0-f_
  6
CONTINUOUS
 62
    7
 10
382.71751761180235
 20
277.82682033534746
 11
382.71751761180235
 21
278.68290033534743
  0
LINE
  8
_0-f_
  6
CONTINUOUS
 62
    7
 10
382.71751761180235
 20
278.68290033534743
 11
382.86462964905593
 21
278.68290033534743
  0
LINE
  8
_0-f_
  6
CONTINUOUS
 62
    7
 10
382.86462964905593
 20
278.68290033534743
 11
383.60314241907338
 21
277.94404350161074
  0
ARC
  8
_0-f_
  6
CONTINUOUS
 62
    7
 10
383.88605099494526
 20
278.22682033534744
 40
0.3999999999999968
 50
224.98665642058054
 51
270
  0
LINE
  8
_0-f_
  6
CONTINUOUS
 62
    7
 10
383.88605099494526
 20
277.82682033534746
 11
384.71751761180229
 21
277.82682033534746
  0
LINE
  8
_0-f_
  6
CONTINUOUS
 62
    7
 10
384.71751761180229
 20
277.82682033534746
 11
384.71751761180235
 21
278.18682033534748
  0
LINE
  8
_0-f_
  6
CONTINUOUS
 62
    7
 10
384.71751761180235
 20
278.18682033534748
 11
384.08478162341709
 21
278.18682033534748
  0
LINE
  8
_0-f_
  6
CONTINUOUS
 62
    7
 10
384.08478162341709
 20
278.18682033534748
 11
383.58862960018769
 21
278.68290033534743
  0
LINE
  8
_0-f_
  6
CONTINUOUS
 62
    7
 10
383.58862960018769
 20
278.68290033534743
 11
384.71751761180235
 21
278.68290033534743
  0
LINE
  8
_0-f_
  6
CONTINUOUS
 62
    7
 10
384.71751761180235
 20
278.68290033534743
 11
384.71751761180235
 21
279.08291633534748
  0
LINE
  8
_0-f_
  6
CONTINUOUS
 62
    7
 10
384.71751761180235
 20
279.08291633534748
 11
382.71751761180235
 21
279.08291633534748
  0
LINE
  8
_0-f_
  6
CONTINUOUS
 62
    7
 10
382.71751761180235
 20
279.08291633534748
 11
382.71751761180235
 21
279.4588923353474
  0
LINE
  8
_0-f_
  6
CONTINUOUS
 62
    7
 10
382.71751761180235
 20
279.4588923353474
 11
384.39751761180241
 21
279.4588923353474
  0
LINE
  8
_0-f_
  6
CONTINUOUS
 62
    7
 10
384.39751761180241
 20
279.4588923353474
 11
384.39751761180241
 21
279.77881233534748
  0
LINE
  8
_0-f_
  6
CONTINUOUS
 62
    7
 10
384.39751761180241
 20
279.77881233534748
 11
382.71751761180235
 21
279.77881233534748
  0
LINE
  8
_0-f_
  6
CONTINUOUS
 62
    7
 10
381.7615040285018
 20
280.46690033534742
 11
381.67590387036967
 21
280.83485540334368
  0
LINE
  8
_0-f_
  6
CONTINUOUS
 62
    7
 10
381.67590387036967
 20
280.83485540334368
 11
382.95991829097864
 21
280.8348608625771
  0
LINE
  8
_0-f_
  6
CONTINUOUS
 62
    7
 10
382.95991829097864
 20
280.8348608625771
 11
382.87432766391817
 21
280.46690033534742
  0
LINE
  8
_0-f_
  6
CONTINUOUS
 62
    7
 10
382.87432766391817
 20
280.46690033534742
 11
381.7615040285018
 21
280.46690033534742
  0
LINE
  8
_0-f_
  6
CONTINUOUS
 62
    7
 10
382.71751761180218
 20
279.78682033534744
 11
381.91749361180212
 21
279.78682033534744
  0
LINE
  8
_0-f_
  6
CONTINUOUS
 62
    7
 10
382.71751761180218
 20
279.86682033534748
 11
381.91749361180212
 21
279.86682033534748
  0
LINE
  8
_0-f_
  6
CONTINUOUS
 62
    7
 10
382.71751761180218
 20
279.94682033534741
 11
381.91749361180212
 21
279.94682033534741
  0
LINE
  8
_0-f_
  6
CONTINUOUS
 62
    7
 10
382.71751761180218
 20
280.02682033534745
 11
381.91749361180212
 21
280.02682033534745
  0
LINE
  8
_0-f_
  6
CONTINUOUS
 62
    7
 10
382.71751761180218
 20
280.10682033534744
 11
381.91749361180212
 21
280.10682033534744
  0
LINE
  8
_0-f_
  6
CONTINUOUS
 62
    7
 10
384.39751761180258
 20
280.18682033534742
 11
380.2375096118023
 21
280.18682033534742
  0
LINE
  8
_0-f_
  6
CONTINUOUS
 62
    7
 10
384.39751761180258
 20
280.26682033534746
 11
380.2375096118023
 21
280.26682033534746
  0
LINE
  8
_0-f_
  6
CONTINUOUS
 62
    7
 10
384.39751761180258
 20
280.3468203353475
 11
380.2375096118023
 21
280.3468203353475
  0
LINE
  8
_0-f_
  6
CONTINUOUS
 62
    7
 10
384.39751761180258
 20
280.42682033534749
 11
380.2375096118023
 21
280.42682033534749
  0
LINE
  8
_0-f_
  6
CONTINUOUS
 62
    7
 10
383.60023628162685
 20
280.50682033534747
 11
382.88361338230209
 21
280.50682033534747
  0
LINE
  8
_0-f_
  6
CONTINUOUS
 62
    7
 10
381.75221713830854
 20
280.50682033534747
 11
381.03487524660443
 21
280.50682033534747
  0
LINE
  8
_0-f_
  6
CONTINUOUS
 62
    7
 10
383.6200498450001
 20
280.58682033534751
 11
382.90222203637802
 21
280.58682033534751
  0
LINE
  8
_0-f_
  6
CONTINUOUS
 62
    7
 10
381.73360613591672
 20
280.58682033534751
 11
381.01522700867588
 21
280.58682033534751
  0
LINE
  8
_0-f_
  6
CONTINUOUS
 62
    7
 10
383.63986340837334
 20
280.66682033534744
 11
382.92083069045401
 21
280.66682033534744
  0
LINE
  8
_0-f_
  6
CONTINUOUS
 62
    7
 10
381.71499513352489
 20
280.66682033534744
 11
380.99557877074733
 21
280.66682033534744
  0
LINE
  8
_0-f_
  6
CONTINUOUS
 62
    7
 10
383.65967697174653
 20
280.74682033534748
 11
382.93943934453
 21
280.74682033534748
  0
LINE
  8
_0-f_
  6
CONTINUOUS
 62
    7
 10
381.69638413113307
 20
280.74682033534748
 11
380.97593053281872
 21
280.74682033534748
  0
LINE
  8
_0-f_
  6
CONTINUOUS
 62
    7
 10
383.67949053511984
 20
280.82682033534746
 11
382.95804799860605
 21
280.82682033534746
  0
LINE
  8
_0-f_
  6
CONTINUOUS
 62
    7
 10
381.67777312874114
 20
280.82682033534746
 11
380.95628229489012
 21
280.82682033534746
  0
LINE
  8
_0-f_
  6
CONTINUOUS
 62
    7
 10
384.71751761180246
 20
280.90682033534745
 11
379.91751761180223
 21
280.90682033534745
  0
LINE
  8
_0-f_
  6
CONTINUOUS
 62
    7
 10
384.71751761180246
 20
280.98682033534749
 11
379.91751761180223
 21
280.98682033534749
  0
LINE
  8
_0-f_
  6
CONTINUOUS
 62
    7
 10
384.71751761180246
 20
281.06682033534742
 11
379.91751761180223
 21
281.06682033534742
  0
LINE
  8
_0-f_
  6
CONTINUOUS
 62
    7
 10
384.71751761180246
 20
281.14682033534746
 11
379.91751761180223
 21
281.14682033534746
  0
LINE
  8
_0-f_
  6
CONTINUOUS
 62
    7
 10
384.71751761180246
 20
281.2268203353475
 11
379.91751761180223
 21
281.2268203353475
  0
LINE
  8
_0-f_
  6
CONTINUOUS
 62
    7
 10
384.12218606814804
 20
281.30682033534742
 11
383.4143259591491
 21
281.30682033534742
  0
LINE
  8
_0-f_
  6
CONTINUOUS
 62
    7
 10
383.27752561180239
 20
281.30682033534742
 11
382.55750961180206
 21
281.30682033534742
  0
LINE
  8
_0-f_
  6
CONTINUOUS
 62
    7
 10
382.07750161180218
 20
281.30682033534742
 11
381.35750961180241
 21
281.30682033534742
  0
LINE
  8
_0-f_
  6
CONTINUOUS
 62
    7
 10
381.22076930840126
 20
281.30682033534742
 11
380.51364170606132
 21
281.30682033534742
  0
LINE
  8
_0-f_
  6
CONTINUOUS
 62
    7
 10
384.16835172177122
 20
281.38682033534747
 11
383.46059344202098
 21
281.38682033534747
  0
LINE
  8
_0-f_
  6
CONTINUOUS
 62
    7
 10
383.27752561180239
 20
281.38682033534747
 11
382.55750961180206
 21
281.38682033534747
  0
LINE
  8
_0-f_
  6
CONTINUOUS
 62
    7
 10
382.07750161180218
 20
281.38682033534747
 11
381.35750961180241
 21
281.38682033534747
  0
LINE
  8
_0-f_
  6
CONTINUOUS
 62
    7
 10
381.17460452684418
 20
281.38682033534747
 11
380.46746501296263
 21
281.38682033534747
  0
LINE
  8
_0-f_
  6
CONTINUOUS
 62
    7
 10
384.21451737539439
 20
281.46682033534751
 11
383.50686092489281
 21
281.46682033534751
  0
LINE
  8
_0-f_
  6
CONTINUOUS
 62
    7
 10
383.27752561180239
 20
281.46682033534751
 11
382.55750961180206
 21
281.46682033534751
  0
LINE
  8
_0-f_
  6
CONTINUOUS
 62
    7
 10
382.07750161180218
 20
281.46682033534751
 11
381.35750961180241
 21
281.46682033534751
  0
LINE
  8
_0-f_
  6
CONTINUOUS
 62
    7
 10
381.12843974528715
 20
281.46682033534751
 11
380.42128831986389
 21
281.46682033534751
  0
LINE
  8
_0-f_
  6
CONTINUOUS
 62
    7
 10
384.20001539050833
 20
281.54682033534749
 11
383.55312840776469
 21
281.54682033534749
  0
LINE
  8
_0-f_
  6
CONTINUOUS
 62
    7
 10
383.27752561180239
 20
281.54682033534749
 11
382.55750961180206
 21
281.54682033534749
  0
LINE
  8
_0-f_
  6
CONTINUOUS
 62
    7
 10
382.07750161180218
 20
281.54682033534749
 11
381.35750961180241
 21
281.54682033534749
  0
LINE
  8
_0-f_
  6
CONTINUOUS
 62
    7
 10
381.08227496373013
 20
281.54682033534749
 11
380.43592601437194
 21
281.54682033534749
  0
LINE
  8
_0-f_
  6
CONTINUOUS
 62
    7
 10
384.0615002571941
 20
281.62682033534747
 11
383.59939589063652
 21
281.62682033534747
  0
LINE
  8
_0-f_
  6
CONTINUOUS
 62
    7
 10
383.27752561180239
 20
281.62682033534747
 11
382.55750961180206
 21
281.62682033534747
  0
LINE
  8
_0-f_
  6
CONTINUOUS
 62
    7
 10
382.07750161180218
 20
281.62682033534747
 11
381.35750961180241
 21
281.62682033534747
  0
LINE
  8
_0-f_
  6
CONTINUOUS
 62
    7
 10
381.03611018217305
 20
281.62682033534747
 11
380.57442708503567
 21
281.62682033534747
  0
LINE
  8
_0-f_
  6
CONTINUOUS
 62
    7
 10
383.92298512387993
 20
281.70682033534752
 11
383.64566337350834
 21
281.70682033534752
  0
LINE
  8
_0-f_
  6
CONTINUOUS
 62
    7
 10
383.27752561180239
 20
281.70682033534752
 11
382.55750961180206
 21
281.70682033534752
  0
LINE
  8
_0-f_
  6
CONTINUOUS
 62
    7
 10
382.07750161180218
 20
281.70682033534752
 11
381.35750961180241
 21
281.70682033534752
  0
LINE
  8
_0-f_
  6
CONTINUOUS
 62
    7
 10
380.98994540061608
 20
281.70682033534752
 11
380.7129281556995
 21
281.70682033534752
  0
LINE
  8
_0-f_
  6
CONTINUOUS
 62
    7
 10
383.7844699905657
 20
281.78682033534744
 11
383.69193085638017
 21
281.78682033534744
  0
LINE
  8
_0-f_
  6
CONTINUOUS
 62
    7
 10
383.27752561180239
 20
281.78682033534744
 11
382.55750961180206
 21
281.78682033534744
  0
LINE
  8
_0-f_
  6
CONTINUOUS
 62
    7
 10
382.07750161180218
 20
281.78682033534744
 11
381.35750961180241
 21
281.78682033534744
  0
LINE
  8
_0-f_
  6
CONTINUOUS
 62
    7
 10
380.94378061905905
 20
281.78682033534744
 11
380.85142922636328
 21
281.78682033534744
  0
LINE
  8
_0-f_
  6
CONTINUOUS
 62
    7
 10
384.39751761180241
 20
279.70682033534746
 11
380.23750961180201
 21
279.70682033534746
  0
LINE
  8
_0-f_
  6
CONTINUOUS
 62
    7
 10
384.39751761180241
 20
279.62682033534747
 11
380.23750961180201
 21
279.62682033534747
  0
LINE
  8
_0-f_
  6
CONTINUOUS
 62
    7
 10
384.39751761180241
 20
279.54682033534743
 11
380.23750961180201
 21
279.54682033534743
  0
LINE
  8
_0-f_
  6
CONTINUOUS
 62
    7
 10
384.39751761180241
 20
279.46682033534739
 11
380.23750961180201
 21
279.46682033534739
  0
LINE
  8
_0-f_
  6
CONTINUOUS
 62
    7
 10
382.71751761180218
 20
279.38682033534747
 11
381.91749361180223
 21
279.38682033534747
  0
LINE
  8
_0-f_
  6
CONTINUOUS
 62
    7
 10
382.71751761180218
 20
279.30682033534742
 11
381.91749361180223
 21
279.30682033534742
  0
LINE
  8
_0-f_
  6
CONTINUOUS
 62
    7
 10
382.71751761180218
 20
279.22682033534738
 11
381.91749361180223
 21
279.22682033534738
  0
LINE
  8
_0-f_
  6
CONTINUOUS
 62
    7
 10
382.71751761180218
 20
279.14682033534746
 11
381.91749361180229
 21
279.14682033534746
  0
LINE
  8
_0-f_
  6
CONTINUOUS
 62
    7
 10
384.71751761180224
 20
279.06682033534742
 11
379.91751761180251
 21
279.06682033534742
  0
LINE
  8
_0-f_
  6
CONTINUOUS
 62
    7
 10
384.71751761180224
 20
278.98682033534743
 11
379.91751761180251
 21
278.98682033534743
  0
LINE
  8
_0-f_
  6
CONTINUOUS
 62
    7
 10
384.71751761180224
 20
278.90682033534745
 11
379.91751761180251
 21
278.90682033534745
  0
LINE
  8
_0-f_
  6
CONTINUOUS
 62
    7
 10
384.71751761180224
 20
278.82682033534741
 11
379.91751761180251
 21
278.82682033534741
  0
LINE
  8
_0-f_
  6
CONTINUOUS
 62
    7
 10
384.71751761180224
 20
278.74682033534748
 11
379.91751761180251
 21
278.74682033534748
  0
LINE
  8
_0-f_
  6
CONTINUOUS
 62
    7
 10
383.6047119347578
 20
278.66682033534744
 11
382.88070216107667
 21
278.66682033534744
  0
LINE
  8
_0-f_
  6
CONTINUOUS
 62
    7
 10
382.71751761180224
 20
278.66682033534744
 11
381.91749361180229
 21
278.66682033534744
  0
LINE
  8
_0-f_
  6
CONTINUOUS
 62
    7
 10
381.75509329561407
 20
278.66682033534744
 11
381.03110961180232
 21
278.66682033534744
  0
LINE
  8
_0-f_
  6
CONTINUOUS
 62
    7
 10
383.68472354953434
 20
278.58682033534745
 11
382.9606649074488
 21
278.58682033534745
  0
LINE
  8
_0-f_
  6
CONTINUOUS
 62
    7
 10
382.71751761180224
 20
278.58682033534745
 11
381.91749361180229
 21
278.58682033534745
  0
LINE
  8
_0-f_
  6
CONTINUOUS
 62
    7
 10
381.67505171467201
 20
278.58682033534745
 11
380.95110961180228
 21
278.58682033534745
  0
LINE
  8
_0-f_
  6
CONTINUOUS
 62
    7
 10
383.76473516431088
 20
278.50682033534747
 11
383.04062765382093
 21
278.50682033534747
  0
LINE
  8
_0-f_
  6
CONTINUOUS
 62
    7
 10
382.71751761180224
 20
278.50682033534747
 11
381.91749361180229
 21
278.50682033534747
  0
LINE
  8
_0-f_
  6
CONTINUOUS
 62
    7
 10
381.59501013372994
 20
278.50682033534747
 11
380.87110961180224
 21
278.50682033534747
  0
LINE
  8
_0-f_
  6
CONTINUOUS
 62
    7
 10
383.84474677908747
 20
278.42682033534743
 11
383.12059040019301
 21
278.42682033534743
  0
LINE
  8
_0-f_
  6
CONTINUOUS
 62
    7
 10
382.71751761180224
 20
278.42682033534743
 11
381.91749361180229
 21
278.42682033534743
  0
LINE
  8
_0-f_
  6
CONTINUOUS
 62
    7
 10
381.51496855278788
 20
278.42682033534743
 11
380.79110961180226
 21
278.42682033534743
  0
LINE
  8
_0-f_
  6
CONTINUOUS
 62
    7
 10
383.92475839386395
 20
278.34682033534739
 11
383.2005531465652
 21
278.34682033534739
  0
LINE
  8
_0-f_
  6
CONTINUOUS
 62
    7
 10
382.71751761180224
 20
278.34682033534739
 11
381.91749361180229
 21
278.34682033534739
  0
LINE
  8
_0-f_
  6
CONTINUOUS
 62
    7
 10
381.43492697184581
 20
278.34682033534739
 11
380.71110961180227
 21
278.34682033534739
  0
LINE
  8
_0-f_
  6
CONTINUOUS
 62
    7
 10
384.00477000864055
 20
278.2668203353474
 11
383.28051589293727
 21
278.2668203353474
  0
LINE
  8
_0-f_
  6
CONTINUOUS
 62
    7
 10
382.71751761180224
 20
278.2668203353474
 11
381.91749361180229
 21
278.2668203353474
  0
LINE
  8
_0-f_
  6
CONTINUOUS
 62
    7
 10
381.35488539090375
 20
278.2668203353474
 11
380.63110961180223
 21
278.2668203353474
  0
LINE
  8
_0-f_
  6
CONTINUOUS
 62
    7
 10
384.71751761180235
 20
278.18682033534742
 11
384.08478162341709
 21
278.18682033534742
  0
LINE
  8
_0-f_
  6
CONTINUOUS
 62
    7
 10
380.55110961180219
 20
278.18682033534742
 11
379.91751761180234
 21
278.18682033534742
  0
LINE
  8
_0-f_
  6
CONTINUOUS
 62
    7
 10
384.71751761180235
 20
278.10682033534738
 11
383.44044138568154
 21
278.10682033534738
  0
LINE
  8
_0-f_
  6
CONTINUOUS
 62
    7
 10
382.71751761180224
 20
278.10682033534738
 11
381.91749361180229
 21
278.10682033534738
  0
LINE
  8
_0-f_
  6
CONTINUOUS
 62
    7
 10
381.19480222901967
 20
278.10682033534738
 11
379.91751761180234
 21
278.10682033534738
  0
LINE
  8
_0-f_
  6
CONTINUOUS
 62
    7
 10
384.71751761180235
 20
278.02682033534745
 11
383.52040413205367
 21
278.02682033534745
  0
LINE
  8
_0-f_
  6
CONTINUOUS
 62
    7
 10
382.71751761180224
 20
278.02682033534745
 11
381.91749361180229
 21
278.02682033534745
  0
LINE
  8
_0-f_
  6
CONTINUOUS
 62
    7
 10
381.11476064807761
 20
278.02682033534745
 11
379.91751761180234
 21
278.02682033534745
  0
LINE
  8
_0-f_
  6
CONTINUOUS
 62
    7
 10
384.71751761180235
 20
277.94682033534741
 11
383.6003668784258
 21
277.94682033534741
  0
LINE
  8
_0-f_
  6
CONTINUOUS
 62
    7
 10
382.71751761180224
 20
277.94682033534741
 11
381.91749361180229
 21
277.94682033534741
  0
LINE
  8
_0-f_
  6
CONTINUOUS
 62
    7
 10
381.03471906713548
 20
277.94682033534741
 11
379.91751761180234
 21
277.94682033534741
  0
LINE
  8
_0-f_
  6
CONTINUOUS
 62
    7
 10
384.71751761180235
 20
277.86682033534743
 11
383.71315414021615
 21
277.86682033534743
  0
LINE
  8
_0-f_
  6
CONTINUOUS
 62
    7
 10
382.71751761180224
 20
277.86682033534743
 11
381.91749361180223
 21
277.86682033534743
  0
LINE
  8
_0-f_
  6
CONTINUOUS
 62
    7
 10
380.92194280226249
 20
277.86682033534743
 11
379.91751761180234
 21
277.86682033534743
  0
LINE
  8
_0-f_
  6
CONTINUOUS
 62
    7
 10
381.26231761180247
 20
281.23482033534742
 11
380.92069361180228
 21
281.8268283353475
  0
LINE
  8
_0-f_
  6
CONTINUOUS
 62
    7
 10
380.23750961180235
 20
280.15478833534746
 11
381.91749361180234
 21
280.15478833534746
  0
LINE
  8
_0-f_
  6
CONTINUOUS
 62
    7
 10
380.23750961180235
 20
279.77881233534748
 11
381.91749361180234
 21
279.77881233534748
  0
LINE
  8
_0-f_
  6
CONTINUOUS
 62
    7
 10
380.23750961180235
 20
279.4588923353474
 11
381.91749361180234
 21
279.4588923353474
  0
LINE
  8
_0-f_
  6
CONTINUOUS
 62
    7
 10
379.91751761180234
 20
279.08291633534748
 11
381.91749361180234
 21
279.08291633534748
  0
LINE
  8
_0-f_
  6
CONTINUOUS
 62
    7
 10
381.03180136216838
 20
277.94390414610416
 11
381.77118165338328
 21
278.68290033534743
  0
LINE
  8
_0-f_
  6
CONTINUOUS
 62
    7
 10
379.91751761180234
 20
278.68290033534743
 11
381.04718961180231
 21
278.68290033534743
  0
LINE
  8
_0-f_
  6
CONTINUOUS
 62
    7
 10
379.91751761180234
 20
278.18682033534748
 11
380.55110961180225
 21
278.18682033534748
  0
LINE
  8
_0-f_
  6
CONTINUOUS
 62
    7
 10
379.91751761180234
 20
277.82682033534746
 11
380.74903214555513
 21
277.82682033534746
  0
LINE
  8
_0-f_
  6
CONTINUOUS
 62
    7
 10
379.91751761180234
 20
279.08291633534748
 11
379.91751761180234
 21
278.68290033534743
  0
LINE
  8
_0-f_
  6
CONTINUOUS
 62
    7
 10
379.91751761180234
 20
278.18682033534748
 11
379.91751761180234
 21
277.82682033534746
  0
LINE
  8
_0-f_
  6
CONTINUOUS
 62
    7
 10
380.55110961180225
 20
278.18682033534748
 11
381.04718961180231
 21
278.68290033534743
  0
ARC
  8
_0-f_
  6
CONTINUOUS
 62
    7
 10
380.74903214555513
 20
278.22682033534744
 40
0.4
 50
270.0000000000004
 51
314.98511379092611
  0
LINE
  8
_0-f_
  6
CONTINUOUS
 62
    7
 10
381.04710961180234
 20
278.68290033534743
 11
381.04718961180231
 21
278.68290033534743
  0
LINE
  8
_0-f_
  6
CONTINUOUS
 62
    7
 10
380.23750961180235
 20
279.77881233534748
 11
380.2375096118023
 21
279.4588923353474
  0
LINE
  8
_0-f_
  6
CONTINUOUS
 62
    7
 10
379.91751761180234
 20
281.23486833534741
 11
380.55517302383407
 21
281.23486833534741
  0
LINE
  8
_0-f_
  6
CONTINUOUS
 62
    7
 10
379.91751761180234
 20
280.83486833534744
 11
380.95430961180239
 21
280.83486833534744
  0
LINE
  8
_0-f_
  6
CONTINUOUS
 62
    7
 10
379.91751761180234
 20
281.23486833534741
 11
379.91751761180234
 21
280.83486833534744
  0
LINE
  8
_0-f_
  6
CONTINUOUS
 62
    7
 10
380.55517302383407
 20
281.23486833534741
 11
380.39031761180235
 21
281.52047633534744
  0
LINE
  8
_0-f_
  6
CONTINUOUS
 62
    7
 10
380.23750961180235
 20
280.46690033534742
 11
381.04468561180238
 21
280.46690033534742
  0
LINE
  8
_0-f_
  6
CONTINUOUS
 62
    7
 10
380.23750961180235
 20
280.46690033534742
 11
380.23750961180235
 21
280.15478833534746
  0
LINE
  8
_0-f_
  6
CONTINUOUS
 62
    7
 10
380.95430961180239
 20
280.83485233534748
 11
381.04468561180238
 21
280.46687633534748
  0
LINE
  8
_0-f_
  6
CONTINUOUS
 62
    7
 10
380.39031761180235
 20
281.52047633534744
 11
380.92069361180228
 21
281.8268283353475
  0
LINE
  8
_0-f_
  6
CONTINUOUS
 62
    7
 10
382.71751761180235
 20
280.15478833534746
 11
382.71751761180235
 21
279.77881233534748
  0
LINE
  8
_0-f_
  6
CONTINUOUS
 62
    7
 10
381.91749361180234
 20
280.15478833534746
 11
381.91749361180229
 21
279.77881233534748
  0
LINE
  8
_0-f_
  6
CONTINUOUS
 62
    7
 10
382.71751761180235
 20
279.77881233534748
 11
384.39751761180241
 21
279.77881233534748
  0
LINE
  8
_0-f_
  6
CONTINUOUS
 62
    7
 10
383.60314241907338
 20
277.94404350161074
 11
382.86462964905593
 21
278.68290033534743
  0
LINE
  8
_0-f_
  6
CONTINUOUS
 62
    7
 10
382.71751761180235
 20
279.08291633534748
 11
384.71751761180235
 21
279.08291633534748
  0
LINE
  8
_0-f_
  6
CONTINUOUS
 62
    7
 10
382.71751761180235
 20
279.4588923353474
 11
384.39751761180241
 21
279.4588923353474
  0
LINE
  8
_0-f_
  6
CONTINUOUS
 62
    7
 10
381.91749361180234
 20
277.82682033534746
 11
382.71751761180235
 21
277.82682033534746
  0
LINE
  8
_0-f_
  6
CONTINUOUS
 62
    7
 10
381.77118165338328
 20
278.68290033534743
 11
381.91749361180234
 21
278.68290033534743
  0
LINE
  8
_0-f_
  6
CONTINUOUS
 62
    7
 10
381.91749361180234
 20
278.68290033534743
 11
381.91749361180234
 21
277.82682033534746
  0
LINE
  8
_0-f_
  6
CONTINUOUS
 62
    7
 10
381.91749361180229
 20
279.4588923353474
 11
381.91749361180234
 21
279.08291633534748
  0
LINE
  8
_0-f_
  6
CONTINUOUS
 62
    7
 10
382.71751761180235
 20
278.68290033534743
 11
382.86462964905593
 21
278.68290033534743
  0
LINE
  8
_0-f_
  6
CONTINUOUS
 62
    7
 10
382.71751761180235
 20
278.68290033534743
 11
382.71751761180235
 21
277.82682033534746
  0
LINE
  8
_0-f_
  6
CONTINUOUS
 62
    7
 10
382.71751761180235
 20
279.4588923353474
 11
382.71751761180235
 21
279.08291633534748
  0
LINE
  8
_0-f_
  6
CONTINUOUS
 62
    7
 10
383.88605099494526
 20
277.82682033534746
 11
384.71751761180235
 21
277.82682033534746
  0
LINE
  8
_0-f_
  6
CONTINUOUS
 62
    7
 10
384.08478162341709
 20
278.18682033534748
 11
384.71751761180235
 21
278.18682033534748
  0
LINE
  8
_0-f_
  6
CONTINUOUS
 62
    7
 10
383.58862960018769
 20
278.68290033534743
 11
384.71751761180235
 21
278.68290033534743
  0
LINE
  8
_0-f_
  6
CONTINUOUS
 62
    7
 10
384.08478162341709
 20
278.18682033534748
 11
383.58862960018769
 21
278.68290033534743
  0
ARC
  8
_0-f_
  6
CONTINUOUS
 62
    7
 10
383.88605099494526
 20
278.22682033534744
 40
0.4
 50
224.98665642058006
 51
269.9999999999996
  0
LINE
  8
_0-f_
  6
CONTINUOUS
 62
    7
 10
384.39751761180241
 20
279.77881233534742
 11
384.39751761180241
 21
279.4588923353474
  0
LINE
  8
_0-f_
  6
CONTINUOUS
 62
    7
 10
384.71751761180235
 20
279.08291633534748
 11
384.71751761180235
 21
278.68290033534743
  0
LINE
  8
_0-f_
  6
CONTINUOUS
 62
    7
 10
384.71751761180235
 20
278.18682033534748
 11
384.71751761180229
 21
277.82682033534746
  0
LINE
  8
_0-f_
  6
CONTINUOUS
 62
    7
 10
382.71751761180235
 20
280.15478833534746
 11
384.39751761180241
 21
280.15478833534746
  0
LINE
  8
_0-f_
  6
CONTINUOUS
 62
    7
 10
383.2775256118025
 20
281.23486833534741
 11
383.37271298505419
 21
281.23486833534741
  0
LINE
  8
_0-f_
  6
CONTINUOUS
 62
    7
 10
382.07750161180229
 20
281.23486833534741
 11
382.55750961180229
 21
281.23486833534741
  0
LINE
  8
_0-f_
  6
CONTINUOUS
 62
    7
 10
381.67590387036967
 20
280.83485540334368
 11
382.95991829097864
 21
280.8348608625771
  0
LINE
  8
_0-f_
  6
CONTINUOUS
 62
    7
 10
381.7615040285018
 20
280.46690033534742
 11
382.87432766391817
 21
280.46690033534742
  0
LINE
  8
_0-f_
  6
CONTINUOUS
 62
    7
 10
382.07750161180229
 20
281.82686033534748
 11
382.07750161180229
 21
281.23486833534741
  0
LINE
  8
_0-f_
  6
CONTINUOUS
 62
    7
 10
381.3575096118023
 20
281.82686033534748
 11
381.3575096118023
 21
281.23486833534741
  0
LINE
  8
_0-f_
  6
CONTINUOUS
 62
    7
 10
381.67590387036967
 20
280.83485540334368
 11
381.76150961180247
 21
280.46687633534748
  0
LINE
  8
_0-f_
  6
CONTINUOUS
 62
    7
 10
381.26228991293351
 20
281.23486833534741
 11
381.3575096118023
 21
281.23486833534741
  0
LINE
  8
_0-f_
  6
CONTINUOUS
 62
    7
 10
381.3575096118023
 20
281.82686033534748
 11
382.07750161180229
 21
281.82686033534748
  0
LINE
  8
_0-f_
  6
CONTINUOUS
 62
    7
 10
383.2775256118025
 20
281.82686033534748
 11
383.2775256118025
 21
281.23486833534741
  0
LINE
  8
_0-f_
  6
CONTINUOUS
 62
    7
 10
382.55750961180229
 20
281.82686033534748
 11
382.55750961180229
 21
281.23486833534741
  0
LINE
  8
_0-f_
  6
CONTINUOUS
 62
    7
 10
382.95992561180236
 20
280.83489233534749
 11
382.87430161180248
 21
280.46678833534747
  0
LINE
  8
_0-f_
  6
CONTINUOUS
 62
    7
 10
382.55750961180229
 20
281.82686033534748
 11
383.2775256118025
 21
281.82686033534748
  0
LINE
  8
_0-f_
  6
CONTINUOUS
 62
    7
 10
383.68148268863547
 20
280.83486393044643
 11
384.71751761180229
 21
280.83486833534744
  0
LINE
  8
_0-f_
  6
CONTINUOUS
 62
    7
 10
384.08066467927938
 20
281.23486833534741
 11
384.71751761180235
 21
281.23486833534741
  0
LINE
  8
_0-f_
  6
CONTINUOUS
 62
    7
 10
384.08066467927938
 20
281.23486833534741
 11
384.24551761180248
 21
281.5205403353475
  0
LINE
  8
_0-f_
  6
CONTINUOUS
 62
    7
 10
383.37271298505419
 20
281.23486833534741
 11
383.71510161180242
 21
281.82688433534747
  0
LINE
  8
_0-f_
  6
CONTINUOUS
 62
    7
 10
383.59034931350374
 20
280.46690033534742
 11
384.39751761180241
 21
280.46690033534742
  0
LINE
  8
_0-f_
  6
CONTINUOUS
 62
    7
 10
383.68150161180233
 20
280.83494033534748
 11
383.59031761180233
 21
280.4667723353474
  0
LINE
  8
_0-f_
  6
CONTINUOUS
 62
    7
 10
384.39751761180241
 20
280.46690033534742
 11
384.39751761180241
 21
280.15478833534746
  0
LINE
  8
_0-f_
  6
CONTINUOUS
 62
    7
 10
384.24551761180248
 20
281.5205403353475
 11
383.71510161180242
 21
281.82688433534747
  0
LINE
  8
_0-f_
  6
CONTINUOUS
 62
    7
 10
384.71751761180235
 20
281.23486833534741
 11
384.71751761180235
 21
280.83486833534744
  0
LINE
  8
_0-f_
  6
CONTINUOUS
 62
    7
 10
384.08478162341714
 20
278.18682033534742
 11
383.36047863930946
 21
278.18682033534742
  0
LINE
  8
_0-f_
  6
CONTINUOUS
 62
    7
 10
382.71751761180235
 20
278.18682033534742
 11
381.91749361180229
 21
278.18682033534742
  0
LINE
  8
_0-f_
  6
CONTINUOUS
 62
    7
 10
381.27484380996157
 20
278.18682033534742
 11
380.55110961180219
 21
278.18682033534742
  0
LINE
  8
_0-f_
  6
CONTINUOUS
 62
    7
 10
387.06944666712343
 20
280.70694033534744
 11
387.06944666712343
 21
281.14698033534745
  0
LINE
  8
_0-f_
  6
CONTINUOUS
 62
    7
 10
387.06944666712343
 20
281.14698033534745
 11
386.40145466712352
 21
281.14698033534745
  0
LINE
  8
_0-f_
  6
CONTINUOUS
 62
    7
 10
386.40145466712352
 20
281.14698033534745
 11
386.40145466712352
 21
281.82686033534748
  0
LINE
  8
_0-f_
  6
CONTINUOUS
 62
    7
 10
386.40145466712352
 20
281.82686033534748
 11
385.88143866712346
 21
281.82686033534748
  0
LINE
  8
_0-f_
  6
CONTINUOUS
 62
    7
 10
385.88143866712346
 20
281.82686033534748
 11
385.88143866712346
 21
281.14698033534745
  0
LINE
  8
_0-f_
  6
CONTINUOUS
 62
    7
 10
385.88143866712346
 20
281.14698033534745
 11
385.20546266712347
 21
281.14698033534745
  0
LINE
  8
_0-f_
  6
CONTINUOUS
 62
    7
 10
385.20546266712347
 20
281.14698033534745
 11
385.20546266712347
 21
280.70694033534744
  0
LINE
  8
_0-f_
  6
CONTINUOUS
 62
    7
 10
385.20546266712347
 20
280.70694033534744
 11
385.88479624272645
 21
280.70694033534744
  0
LINE
  8
_0-f_
  6
CONTINUOUS
 62
    7
 10
385.88479624272645
 20
280.70694033534744
 11
385.18373113249629
 21
279.01982833534748
  0
LINE
  8
_0-f_
  6
CONTINUOUS
 62
    7
 10
385.18373113249629
 20
279.01982833534748
 11
385.12545466712345
 21
279.01982833534748
  0
LINE
  8
_0-f_
  6
CONTINUOUS
 62
    7
 10
385.12545466712345
 20
279.01982833534748
 11
385.12545466712345
 21
278.53994033534747
  0
LINE
  8
_0-f_
  6
CONTINUOUS
 62
    7
 10
385.12545466712345
 20
278.53994033534747
 11
385.32364874935786
 21
278.53994033534747
  0
ARC
  8
_0-f_
  6
CONTINUOUS
 62
    7
 10
385.32364874935786
 20
278.73994033534746
 40
0.2
 50
270
 51
338.12209204226002
  0
LINE
  8
_0-f_
  6
CONTINUOUS
 62
    7
 10
385.5092447495847
 20
278.66541433518773
 11
385.88143866712346
 21
279.59230833534741
  0
LINE
  8
_0-f_
  6
CONTINUOUS
 62
    7
 10
385.88143866712346
 20
279.59230833534741
 11
385.88143866712346
 21
277.82682033534746
  0
LINE
  8
_0-f_
  6
CONTINUOUS
 62
    7
 10
385.88143866712346
 20
277.82682033534746
 11
386.40145466712352
 21
277.82682033534746
  0
LINE
  8
_0-f_
  6
CONTINUOUS
 62
    7
 10
386.40145466712352
 20
277.82682033534746
 11
386.40145466712352
 21
279.59762033534741
  0
LINE
  8
_0-f_
  6
CONTINUOUS
 62
    7
 10
386.40145466712352
 20
279.59762033534741
 11
386.67945063454886
 21
278.86867366625256
  0
ARC
  8
_0-f_
  6
CONTINUOUS
 62
    7
 10
386.86632241378834
 20
278.93994033534744
 40
0.200000000000003
 50
200.87518418962418
 51
270
  0
LINE
  8
_0-f_
  6
CONTINUOUS
 62
    7
 10
386.86632241378834
 20
278.73994033534746
 11
387.14945466712345
 21
278.73994033534746
  0
LINE
  8
_0-f_
  6
CONTINUOUS
 62
    7
 10
387.14945466712345
 20
278.73994033534746
 11
387.14945466712345
 21
279.21982833534747
  0
LINE
  8
_0-f_
  6
CONTINUOUS
 62
    7
 10
387.14945466712345
 20
279.21982833534747
 11
387.00520281675438
 21
279.21982833534747
  0
LINE
  8
_0-f_
  6
CONTINUOUS
 62
    7
 10
387.00520281675438
 20
279.21982833534747
 11
386.39817607155203
 21
280.70694033534744
  0
LINE
  8
_0-f_
  6
CONTINUOUS
 62
    7
 10
386.39817607155203
 20
280.70694033534744
 11
387.06944666712343
 21
280.70694033534744
  0
LINE
  8
_0-f_
  6
CONTINUOUS
 62
    7
 10
388.90546266712352
 20
280.03506033534745
 11
388.90546266712352
 21
280.70694033534744
  0
LINE
  8
_0-f_
  6
CONTINUOUS
 62
    7
 10
388.90546266712352
 20
280.70694033534744
 11
389.92545466712352
 21
280.70694033534744
  0
LINE
  8
_0-f_
  6
CONTINUOUS
 62
    7
 10
389.92545466712352
 20
280.70694033534744
 11
389.92545466712352
 21
281.14698033534745
  0
LINE
  8
_0-f_
  6
CONTINUOUS
 62
    7
 10
389.92545466712352
 20
281.14698033534745
 11
388.90546266712352
 21
281.14698033534745
  0
LINE
  8
_0-f_
  6
CONTINUOUS
 62
    7
 10
388.90546266712352
 20
281.14698033534745
 11
388.90546266712352
 21
281.82686033534748
  0
LINE
  8
_0-f_
  6
CONTINUOUS
 62
    7
 10
388.90546266712352
 20
281.82686033534748
 11
388.38546266712353
 21
281.82686033534748
  0
LINE
  8
_0-f_
  6
CONTINUOUS
 62
    7
 10
388.38546266712353
 20
281.82686033534748
 11
388.38546266712353
 21
281.14698033534745
  0
LINE
  8
_0-f_
  6
CONTINUOUS
 62
    7
 10
388.38546266712353
 20
281.14698033534745
 11
387.9214466671234
 21
281.14698033534745
  0
LINE
  8
_0-f_
  6
CONTINUOUS
 62
    7
 10
387.9214466671234
 20
281.14698033534745
 11
387.9214466671234
 21
281.82686033534748
  0
LINE
  8
_0-f_
  6
CONTINUOUS
 62
    7
 10
387.9214466671234
 20
281.82686033534748
 11
387.4214466671234
 21
281.82686033534748
  0
LINE
  8
_0-f_
  6
CONTINUOUS
 62
    7
 10
387.4214466671234
 20
281.82686033534748
 11
387.4214466671234
 21
280.70694033534744
  0
LINE
  8
_0-f_
  6
CONTINUOUS
 62
    7
 10
387.4214466671234
 20
280.70694033534744
 11
388.38546266712353
 21
280.70694033534744
  0
LINE
  8
_0-f_
  6
CONTINUOUS
 62
    7
 10
388.38546266712353
 20
280.70694033534744
 11
388.38546266712353
 21
280.03506033534745
  0
LINE
  8
_0-f_
  6
CONTINUOUS
 62
    7
 10
388.38546266712353
 20
280.03506033534745
 11
387.4214466671234
 21
280.03506033534745
  0
LINE
  8
_0-f_
  6
CONTINUOUS
 62
    7
 10
387.4214466671234
 20
280.03506033534745
 11
387.4214466671234
 21
279.5950203353475
  0
LINE
  8
_0-f_
  6
CONTINUOUS
 62
    7
 10
387.4214466671234
 20
279.5950203353475
 11
388.09422829060509
 21
279.5950203353475
  0
LINE
  8
_0-f_
  6
CONTINUOUS
 62
    7
 10
388.09422829060509
 20
279.5950203353475
 11
387.56095900277666
 21
278.30109541411377
  0
ARC
  8
_0-f_
  6
CONTINUOUS
 62
    7
 10
387.45001202635018
 20
278.3468203353475
 40
0.1199999999999984
 50
270
 51
337.60181985621841
  0
LINE
  8
_0-f_
  6
CONTINUOUS
 62
    7
 10
387.45001202635018
 20
278.22682033534744
 11
387.38947066712353
 21
278.22682033534744
  0
LINE
  8
_0-f_
  6
CONTINUOUS
 62
    7
 10
387.38947066712353
 20
278.22682033534744
 11
387.38947066712353
 21
277.82682033534746
  0
LINE
  8
_0-f_
  6
CONTINUOUS
 62
    7
 10
387.38947066712353
 20
277.82682033534746
 11
387.69714045057037
 21
277.82682033534746
  0
ARC
  8
_0-f_
  6
CONTINUOUS
 62
    7
 10
387.69714045057037
 20
278.06682033534742
 40
0.2399999999999966
 50
270
 51
337.13773188217931
  0
LINE
  8
_0-f_
  6
CONTINUOUS
 62
    7
 10
387.91828640136703
 20
277.97357620177183
 11
388.38546266712353
 21
279.08157233534746
  0
LINE
  8
_0-f_
  6
CONTINUOUS
 62
    7
 10
388.38546266712353
 20
279.08157233534746
 11
388.38546266712353
 21
277.82682033534746
  0
LINE
  8
_0-f_
  6
CONTINUOUS
 62
    7
 10
388.38546266712353
 20
277.82682033534746
 11
388.90546266712352
 21
277.82682033534746
  0
LINE
  8
_0-f_
  6
CONTINUOUS
 62
    7
 10
388.90546266712352
 20
277.82682033534746
 11
388.90546266712352
 21
279.08163633534747
  0
LINE
  8
_0-f_
  6
CONTINUOUS
 62
    7
 10
388.90546266712352
 20
279.08163633534747
 11
389.38136556702847
 21
277.97220695495901
  0
ARC
  8
_0-f_
  6
CONTINUOUS
 62
    7
 10
389.60192918200494
 20
278.06682033534742
 40
0.2399999999999991
 50
203.21748710460054
 51
270
  0
LINE
  8
_0-f_
  6
CONTINUOUS
 62
    7
 10
389.60192918200494
 20
277.82682033534746
 11
389.92545466712352
 21
277.82682033534746
  0
LINE
  8
_0-f_
  6
CONTINUOUS
 62
    7
 10
389.92545466712352
 20
277.82682033534746
 11
389.92545466712352
 21
278.22682033534744
  0
LINE
  8
_0-f_
  6
CONTINUOUS
 62
    7
 10
389.92545466712352
 20
278.22682033534744
 11
389.84879645366863
 21
278.22682033534744
  0
ARC
  8
_0-f_
  6
CONTINUOUS
 62
    7
 10
389.84879645366863
 20
278.3468203353475
 40
0.1200000000000003
 50
202.69813627100072
 51
270
  0
LINE
  8
_0-f_
  6
CONTINUOUS
 62
    7
 10
389.73809037665262
 20
278.30051521131429
 11
389.19663662862325
 21
279.5950203353475
  0
LINE
  8
_0-f_
  6
CONTINUOUS
 62
    7
 10
389.19663662862325
 20
279.5950203353475
 11
389.92545466712352
 21
279.5950203353475
  0
LINE
  8
_0-f_
  6
CONTINUOUS
 62
    7
 10
389.92545466712352
 20
279.5950203353475
 11
389.92545466712352
 21
280.03506033534745
  0
LINE
  8
_0-f_
  6
CONTINUOUS
 62
    7
 10
389.92545466712352
 20
280.03506033534745
 11
388.90546266712352
 21
280.03506033534745
  0
LINE
  8
_0-f_
  6
CONTINUOUS
 62
    7
 10
389.92545466712346
 20
279.78682033534744
 11
387.42144666712306
 21
279.78682033534744
  0
LINE
  8
_0-f_
  6
CONTINUOUS
 62
    7
 10
386.77376139989008
 20
279.78682033534744
 11
385.50244816552413
 21
279.78682033534744
  0
LINE
  8
_0-f_
  6
CONTINUOUS
 62
    7
 10
389.92545466712346
 20
279.86682033534748
 11
387.42144666712306
 21
279.86682033534748
  0
LINE
  8
_0-f_
  6
CONTINUOUS
 62
    7
 10
386.74110606551295
 20
279.86682033534748
 11
385.53569148832571
 21
279.86682033534748
  0
LINE
  8
_0-f_
  6
CONTINUOUS
 62
    7
 10
389.92545466712346
 20
279.94682033534741
 11
387.42144666712306
 21
279.94682033534741
  0
LINE
  8
_0-f_
  6
CONTINUOUS
 62
    7
 10
386.70845073113588
 20
279.94682033534741
 11
385.56893481112729
 21
279.94682033534741
  0
LINE
  8
_0-f_
  6
CONTINUOUS
 62
    7
 10
389.92545466712346
 20
280.02682033534745
 11
387.42144666712306
 21
280.02682033534745
  0
LINE
  8
_0-f_
  6
CONTINUOUS
 62
    7
 10
386.67579539675876
 20
280.02682033534745
 11
385.60217813392887
 21
280.02682033534745
  0
LINE
  8
_0-f_
  6
CONTINUOUS
 62
    7
 10
388.90546266712357
 20
280.10682033534744
 11
388.38546266712331
 21
280.10682033534744
  0
LINE
  8
_0-f_
  6
CONTINUOUS
 62
    7
 10
386.64314006238169
 20
280.10682033534744
 11
385.63542145673046
 21
280.10682033534744
  0
LINE
  8
_0-f_
  6
CONTINUOUS
 62
    7
 10
388.90546266712357
 20
280.18682033534742
 11
388.38546266712331
 21
280.18682033534742
  0
LINE
  8
_0-f_
  6
CONTINUOUS
 62
    7
 10
386.61048472800456
 20
280.18682033534742
 11
385.66866477953204
 21
280.18682033534742
  0
LINE
  8
_0-f_
  6
CONTINUOUS
 62
    7
 10
388.90546266712357
 20
280.26682033534746
 11
388.38546266712331
 21
280.26682033534746
  0
LINE
  8
_0-f_
  6
CONTINUOUS
 62
    7
 10
386.57782939362755
 20
280.26682033534746
 11
385.70190810233362
 21
280.26682033534746
  0
LINE
  8
_0-f_
  6
CONTINUOUS
 62
    7
 10
388.90546266712357
 20
280.3468203353475
 11
388.38546266712331
 21
280.3468203353475
  0
LINE
  8
_0-f_
  6
CONTINUOUS
 62
    7
 10
386.54517405925037
 20
280.3468203353475
 11
385.7351514251352
 21
280.3468203353475
  0
LINE
  8
_0-f_
  6
CONTINUOUS
 62
    7
 10
388.90546266712357
 20
280.42682033534749
 11
388.38546266712331
 21
280.42682033534749
  0
LINE
  8
_0-f_
  6
CONTINUOUS
 62
    7
 10
386.5125187248733
 20
280.42682033534749
 11
385.76839474793678
 21
280.42682033534749
  0
LINE
  8
_0-f_
  6
CONTINUOUS
 62
    7
 10
388.90546266712357
 20
280.50682033534747
 11
388.38546266712331
 21
280.50682033534747
  0
LINE
  8
_0-f_
  6
CONTINUOUS
 62
    7
 10
386.47986339049623
 20
280.50682033534747
 11
385.80163807073836
 21
280.50682033534747
  0
LINE
  8
_0-f_
  6
CONTINUOUS
 62
    7
 10
388.90546266712357
 20
280.58682033534751
 11
388.38546266712331
 21
280.58682033534751
  0
LINE
  8
_0-f_
  6
CONTINUOUS
 62
    7
 10
386.44720805611917
 20
280.58682033534751
 11
385.83488139353994
 21
280.58682033534751
  0
LINE
  8
_0-f_
  6
CONTINUOUS
 62
    7
 10
388.90546266712357
 20
280.66682033534744
 11
388.38546266712331
 21
280.66682033534744
  0
LINE
  8
_0-f_
  6
CONTINUOUS
 62
    7
 10
386.4145527217421
 20
280.66682033534744
 11
385.86812471634147
 21
280.66682033534744
  0
LINE
  8
_0-f_
  6
CONTINUOUS
 62
    7
 10
389.92545466712363
 20
280.74682033534748
 11
387.4214466671234
 21
280.74682033534748
  0
LINE
  8
_0-f_
  6
CONTINUOUS
 62
    7
 10
387.06944666712309
 20
280.74682033534748
 11
385.20546266712364
 21
280.74682033534748
  0
LINE
  8
_0-f_
  6
CONTINUOUS
 62
    7
 10
389.92545466712363
 20
280.82682033534746
 11
387.4214466671234
 21
280.82682033534746
  0
LINE
  8
_0-f_
  6
CONTINUOUS
 62
    7
 10
387.06944666712309
 20
280.82682033534746
 11
385.20546266712364
 21
280.82682033534746
  0
LINE
  8
_0-f_
  6
CONTINUOUS
 62
    7
 10
389.92545466712363
 20
280.90682033534745
 11
387.4214466671234
 21
280.90682033534745
  0
LINE
  8
_0-f_
  6
CONTINUOUS
 62
    7
 10
387.06944666712309
 20
280.90682033534745
 11
385.20546266712364
 21
280.90682033534745
  0
LINE
  8
_0-f_
  6
CONTINUOUS
 62
    7
 10
389.92545466712363
 20
280.98682033534749
 11
387.4214466671234
 21
280.98682033534749
  0
LINE
  8
_0-f_
  6
CONTINUOUS
 62
    7
 10
387.06944666712309
 20
280.98682033534749
 11
385.20546266712364
 21
280.98682033534749
  0
LINE
  8
_0-f_
  6
CONTINUOUS
 62
    7
 10
389.92545466712363
 20
281.06682033534742
 11
387.4214466671234
 21
281.06682033534742
  0
LINE
  8
_0-f_
  6
CONTINUOUS
 62
    7
 10
387.06944666712309
 20
281.06682033534742
 11
385.20546266712364
 21
281.06682033534742
  0
LINE
  8
_0-f_
  6
CONTINUOUS
 62
    7
 10
389.92545466712363
 20
281.14682033534746
 11
387.4214466671234
 21
281.14682033534746
  0
LINE
  8
_0-f_
  6
CONTINUOUS
 62
    7
 10
387.06944666712309
 20
281.14682033534746
 11
385.20546266712364
 21
281.14682033534746
  0
LINE
  8
_0-f_
  6
CONTINUOUS
 62
    7
 10
388.90546266712317
 20
281.22682033534744
 11
388.38546266712331
 21
281.2268203353475
  0
LINE
  8
_0-f_
  6
CONTINUOUS
 62
    7
 10
387.92144666712329
 20
281.2268203353475
 11
387.4214466671234
 21
281.2268203353475
  0
LINE
  8
_0-f_
  6
CONTINUOUS
 62
    7
 10
386.40145466712363
 20
281.2268203353475
 11
385.88143866712352
 21
281.2268203353475
  0
LINE
  8
_0-f_
  6
CONTINUOUS
 62
    7
 10
388.90546266712317
 20
281.30682033534742
 11
388.38546266712331
 21
281.30682033534742
  0
LINE
  8
_0-f_
  6
CONTINUOUS
 62
    7
 10
387.92144666712329
 20
281.30682033534742
 11
387.4214466671234
 21
281.30682033534742
  0
LINE
  8
_0-f_
  6
CONTINUOUS
 62
    7
 10
386.40145466712363
 20
281.30682033534742
 11
385.88143866712352
 21
281.30682033534742
  0
LINE
  8
_0-f_
  6
CONTINUOUS
 62
    7
 10
388.90546266712317
 20
281.38682033534747
 11
388.38546266712331
 21
281.38682033534747
  0
LINE
  8
_0-f_
  6
CONTINUOUS
 62
    7
 10
387.92144666712329
 20
281.38682033534747
 11
387.4214466671234
 21
281.38682033534747
  0
LINE
  8
_0-f_
  6
CONTINUOUS
 62
    7
 10
386.40145466712363
 20
281.38682033534747
 11
385.88143866712352
 21
281.38682033534747
  0
LINE
  8
_0-f_
  6
CONTINUOUS
 62
    7
 10
388.90546266712317
 20
281.46682033534751
 11
388.38546266712331
 21
281.46682033534751
  0
LINE
  8
_0-f_
  6
CONTINUOUS
 62
    7
 10
387.92144666712329
 20
281.46682033534751
 11
387.4214466671234
 21
281.46682033534751
  0
LINE
  8
_0-f_
  6
CONTINUOUS
 62
    7
 10
386.40145466712363
 20
281.46682033534751
 11
385.88143866712352
 21
281.46682033534751
  0
LINE
  8
_0-f_
  6
CONTINUOUS
 62
    7
 10
388.90546266712317
 20
281.54682033534749
 11
388.38546266712331
 21
281.54682033534749
  0
LINE
  8
_0-f_
  6
CONTINUOUS
 62
    7
 10
387.92144666712329
 20
281.54682033534749
 11
387.4214466671234
 21
281.54682033534749
  0
LINE
  8
_0-f_
  6
CONTINUOUS
 62
    7
 10
386.40145466712363
 20
281.54682033534749
 11
385.88143866712352
 21
281.54682033534749
  0
LINE
  8
_0-f_
  6
CONTINUOUS
 62
    7
 10
388.90546266712317
 20
281.62682033534747
 11
388.38546266712331
 21
281.62682033534747
  0
LINE
  8
_0-f_
  6
CONTINUOUS
 62
    7
 10
387.92144666712329
 20
281.62682033534747
 11
387.4214466671234
 21
281.62682033534747
  0
LINE
  8
_0-f_
  6
CONTINUOUS
 62
    7
 10
386.40145466712363
 20
281.62682033534747
 11
385.88143866712352
 21
281.62682033534747
  0
LINE
  8
_0-f_
  6
CONTINUOUS
 62
    7
 10
388.90546266712317
 20
281.70682033534752
 11
388.38546266712331
 21
281.70682033534752
  0
LINE
  8
_0-f_
  6
CONTINUOUS
 62
    7
 10
387.92144666712329
 20
281.70682033534752
 11
387.4214466671234
 21
281.70682033534752
  0
LINE
  8
_0-f_
  6
CONTINUOUS
 62
    7
 10
386.40145466712363
 20
281.70682033534752
 11
385.88143866712352
 21
281.70682033534752
  0
LINE
  8
_0-f_
  6
CONTINUOUS
 62
    7
 10
388.90546266712317
 20
281.78682033534744
 11
388.38546266712331
 21
281.78682033534744
  0
LINE
  8
_0-f_
  6
CONTINUOUS
 62
    7
 10
387.92144666712329
 20
281.78682033534744
 11
387.4214466671234
 21
281.78682033534744
  0
LINE
  8
_0-f_
  6
CONTINUOUS
 62
    7
 10
386.40145466712363
 20
281.78682033534744
 11
385.88143866712352
 21
281.78682033534744
  0
LINE
  8
_0-f_
  6
CONTINUOUS
 62
    7
 10
389.92545466712346
 20
279.70682033534746
 11
387.42144666712306
 21
279.70682033534746
  0
LINE
  8
_0-f_
  6
CONTINUOUS
 62
    7
 10
386.80641673426715
 20
279.70682033534746
 11
385.46920484272255
 21
279.70682033534746
  0
LINE
  8
_0-f_
  6
CONTINUOUS
 62
    7
 10
389.92545466712346
 20
279.62682033534747
 11
387.42144666712306
 21
279.62682033534747
  0
LINE
  8
_0-f_
  6
CONTINUOUS
 62
    7
 10
386.83907206864421
 20
279.62682033534747
 11
385.43596151992097
 21
279.62682033534747
  0
LINE
  8
_0-f_
  6
CONTINUOUS
 62
    7
 10
389.21679728320123
 20
279.54682033534743
 11
388.07436347522713
 21
279.54682033534743
  0
LINE
  8
_0-f_
  6
CONTINUOUS
 62
    7
 10
386.87172740302128
 20
279.54682033534743
 11
386.42082809421203
 21
279.54682033534743
  0
LINE
  8
_0-f_
  6
CONTINUOUS
 62
    7
 10
386.40145466712357
 20
279.54682033534743
 11
385.88143866712346
 21
279.54682033534743
  0
LINE
  8
_0-f_
  6
CONTINUOUS
 62
    7
 10
385.86317297879441
 20
279.54682033534743
 11
385.40271819711938
 21
279.54682033534743
  0
LINE
  8
_0-f_
  6
CONTINUOUS
 62
    7
 10
389.25025895055046
 20
279.46682033534739
 11
388.04139282729682
 21
279.46682033534739
  0
LINE
  8
_0-f_
  6
CONTINUOUS
 62
    7
 10
386.90438273739846
 20
279.46682033534739
 11
386.45133742820985
 21
279.46682033534739
  0
LINE
  8
_0-f_
  6
CONTINUOUS
 62
    7
 10
386.40145466712357
 20
279.46682033534739
 11
385.88143866712346
 21
279.46682033534739
  0
LINE
  8
_0-f_
  6
CONTINUOUS
 62
    7
 10
385.83104901057584
 20
279.46682033534739
 11
385.3694748743178
 21
279.46682033534739
  0
LINE
  8
_0-f_
  6
CONTINUOUS
 62
    7
 10
389.2837206178998
 20
279.38682033534747
 11
388.00842217936645
 21
279.38682033534747
  0
LINE
  8
_0-f_
  6
CONTINUOUS
 62
    7
 10
386.93703807177553
 20
279.38682033534747
 11
386.48184676220774
 21
279.38682033534747
  0
LINE
  8
_0-f_
  6
CONTINUOUS
 62
    7
 10
386.40145466712357
 20
279.38682033534747
 11
385.88143866712346
 21
279.38682033534747
  0
LINE
  8
_0-f_
  6
CONTINUOUS
 62
    7
 10
385.79892504235727
 20
279.38682033534747
 11
385.33623155151622
 21
279.38682033534747
  0
LINE
  8
_0-f_
  6
CONTINUOUS
 62
    7
 10
389.31718228524903
 20
279.30682033534742
 11
387.97545153143608
 21
279.30682033534742
  0
LINE
  8
_0-f_
  6
CONTINUOUS
 62
    7
 10
386.9696934061526
 20
279.30682033534742
 11
386.51235609620556
 21
279.30682033534742
  0
LINE
  8
_0-f_
  6
CONTINUOUS
 62
    7
 10
386.40145466712357
 20
279.30682033534742
 11
385.88143866712346
 21
279.30682033534742
  0
LINE
  8
_0-f_
  6
CONTINUOUS
 62
    7
 10
385.7668010741387
 20
279.30682033534742
 11
385.3029882287147
 21
279.30682033534742
  0
LINE
  8
_0-f_
  6
CONTINUOUS
 62
    7
 10
389.35064395259838
 20
279.2268203353475
 11
387.94248088350582
 21
279.22682033534738
  0
LINE
  8
_0-f_
  6
CONTINUOUS
 62
    7
 10
387.00234874052967
 20
279.22682033534738
 11
386.54286543020339
 21
279.22682033534738
  0
LINE
  8
_0-f_
  6
CONTINUOUS
 62
    7
 10
386.40145466712357
 20
279.22682033534738
 11
385.88143866712346
 21
279.22682033534738
  0
LINE
  8
_0-f_
  6
CONTINUOUS
 62
    7
 10
385.73467710592013
 20
279.2268203353475
 11
385.26974490591311
 21
279.22682033534738
  0
LINE
  8
_0-f_
  6
CONTINUOUS
 62
    7
 10
389.3841056199476
 20
279.14682033534746
 11
387.90951023557545
 21
279.14682033534746
  0
LINE
  8
_0-f_
  6
CONTINUOUS
 62
    7
 10
387.14945466712345
 20
279.14682033534746
 11
386.57337476420122
 21
279.14682033534746
  0
LINE
  8
_0-f_
  6
CONTINUOUS
 62
    7
 10
386.40145466712357
 20
279.14682033534746
 11
385.88143866712346
 21
279.14682033534746
  0
LINE
  8
_0-f_
  6
CONTINUOUS
 62
    7
 10
385.70255313770156
 20
279.14682033534746
 11
385.23650158311148
 21
279.14682033534746
  0
LINE
  8
_0-f_
  6
CONTINUOUS
 62
    7
 10
389.41756728729695
 20
279.06682033534742
 11
388.91181816616614
 21
279.06682033534742
  0
LINE
  8
_0-f_
  6
CONTINUOUS
 62
    7
 10
388.9054626671234
 20
279.06682033534742
 11
388.38546266712365
 21
279.06682033534742
  0
LINE
  8
_0-f_
  6
CONTINUOUS
 62
    7
 10
388.37924262351191
 20
279.06682033534742
 11
387.87653958764508
 21
279.06682033534742
  0
LINE
  8
_0-f_
  6
CONTINUOUS
 62
    7
 10
387.14945466712345
 20
279.06682033534742
 11
386.60388409819905
 21
279.06682033534742
  0
LINE
  8
_0-f_
  6
CONTINUOUS
 62
    7
 10
386.40145466712357
 20
279.06682033534742
 11
385.88143866712346
 21
279.06682033534742
  0
LINE
  8
_0-f_
  6
CONTINUOUS
 62
    7
 10
385.67042916948304
 20
279.06682033534742
 11
385.20325826030995
 21
279.06682033534742
  0
LINE
  8
_0-f_
  6
CONTINUOUS
 62
    7
 10
389.45102895464618
 20
278.98682033534743
 11
388.94613511564069
 21
278.98682033534743
  0
LINE
  8
_0-f_
  6
CONTINUOUS
 62
    7
 10
388.9054626671234
 20
278.98682033534743
 11
388.38546266712365
 21
278.98682033534743
  0
LINE
  8
_0-f_
  6
CONTINUOUS
 62
    7
 10
388.34551136748314
 20
278.98682033534743
 11
387.84356893971471
 21
278.98682033534743
  0
LINE
  8
_0-f_
  6
CONTINUOUS
 62
    7
 10
387.14945466712345
 20
278.98682033534743
 11
386.63439343219693
 21
278.98682033534743
  0
LINE
  8
_0-f_
  6
CONTINUOUS
 62
    7
 10
386.40145466712357
 20
278.98682033534743
 11
385.88143866712346
 21
278.98682033534743
  0
LINE
  8
_0-f_
  6
CONTINUOUS
 62
    7
 10
385.63830520126442
 20
278.98682033534743
 11
385.12545466712356
 21
278.98682033534743
  0
LINE
  8
_0-f_
  6
CONTINUOUS
 62
    7
 10
389.48449062199552
 20
278.90682033534745
 11
388.98045206511529
 21
278.90682033534745
  0
LINE
  8
_0-f_
  6
CONTINUOUS
 62
    7
 10
388.9054626671234
 20
278.90682033534745
 11
388.38546266712365
 21
278.90682033534745
  0
LINE
  8
_0-f_
  6
CONTINUOUS
 62
    7
 10
388.31178011145437
 20
278.90682033534745
 11
387.8105982917844
 21
278.90682033534745
  0
LINE
  8
_0-f_
  6
CONTINUOUS
 62
    7
 10
387.14945466712345
 20
278.90682033534745
 11
386.66490276619481
 21
278.90682033534745
  0
LINE
  8
_0-f_
  6
CONTINUOUS
 62
    7
 10
386.40145466712357
 20
278.90682033534745
 11
385.88143866712346
 21
278.90682033534745
  0
LINE
  8
_0-f_
  6
CONTINUOUS
 62
    7
 10
385.60618123304596
 20
278.90682033534745
 11
385.12545466712356
 21
278.90682033534745
  0
LINE
  8
_0-f_
  6
CONTINUOUS
 62
    7
 10
389.51795228934481
 20
278.82682033534741
 11
389.01476901458989
 21
278.82682033534741
  0
LINE
  8
_0-f_
  6
CONTINUOUS
 62
    7
 10
388.9054626671234
 20
278.82682033534741
 11
388.38546266712365
 21
278.82682033534741
  0
LINE
  8
_0-f_
  6
CONTINUOUS
 62
    7
 10
388.27804885542565
 20
278.82682033534741
 11
387.77762764385409
 21
278.82682033534741
  0
LINE
  8
_0-f_
  6
CONTINUOUS
 62
    7
 10
387.14945466712345
 20
278.82682033534741
 11
386.70213392374274
 21
278.82682033534741
  0
LINE
  8
_0-f_
  6
CONTINUOUS
 62
    7
 10
386.40145466712357
 20
278.82682033534741
 11
385.88143866712346
 21
278.82682033534741
  0
LINE
  8
_0-f_
  6
CONTINUOUS
 62
    7
 10
385.57405726482739
 20
278.82682033534741
 11
385.12545466712356
 21
278.82682033534741
  0
LINE
  8
_0-f_
  6
CONTINUOUS
 62
    7
 10
389.55141395669409
 20
278.74682033534748
 11
389.04908596406443
 21
278.74682033534748
  0
LINE
  8
_0-f_
  6
CONTINUOUS
 62
    7
 10
388.9054626671234
 20
278.74682033534748
 11
388.38546266712365
 21
278.74682033534748
  0
LINE
  8
_0-f_
  6
CONTINUOUS
 62
    7
 10
388.24431759939688
 20
278.74682033534748
 11
387.74465699592378
 21
278.74682033534748
  0
LINE
  8
_0-f_
  6
CONTINUOUS
 62
    7
 10
387.14945466712345
 20
278.74682033534748
 11
386.81439641999094
 21
278.74682033534748
  0
LINE
  8
_0-f_
  6
CONTINUOUS
 62
    7
 10
386.40145466712357
 20
278.74682033534748
 11
385.88143866712346
 21
278.74682033534748
  0
LINE
  8
_0-f_
  6
CONTINUOUS
 62
    7
 10
385.54193329660882
 20
278.74682033534748
 11
385.12545466712356
 21
278.74682033534748
  0
LINE
  8
_0-f_
  6
CONTINUOUS
 62
    7
 10
389.58487562404338
 20
278.66682033534744
 11
389.08340291353898
 21
278.66682033534744
  0
LINE
  8
_0-f_
  6
CONTINUOUS
 62
    7
 10
388.9054626671234
 20
278.66682033534744
 11
388.38546266712365
 21
278.66682033534744
  0
LINE
  8
_0-f_
  6
CONTINUOUS
 62
    7
 10
388.21058634336811
 20
278.66682033534744
 11
387.71168634799346
 21
278.66682033534744
  0
LINE
  8
_0-f_
  6
CONTINUOUS
 62
    7
 10
386.40145466712357
 20
278.66682033534744
 11
385.88143866712346
 21
278.66682033534744
  0
LINE
  8
_0-f_
  6
CONTINUOUS
 62
    7
 10
385.50980932839025
 20
278.66682033534744
 11
385.12545466712356
 21
278.66682033534744
  0
LINE
  8
_0-f_
  6
CONTINUOUS
 62
    7
 10
389.61833729139266
 20
278.58682033534745
 11
389.11771986301358
 21
278.58682033534745
  0
LINE
  8
_0-f_
  6
CONTINUOUS
 62
    7
 10
388.9054626671234
 20
278.58682033534745
 11
388.38546266712365
 21
278.58682033534745
  0
LINE
  8
_0-f_
  6
CONTINUOUS
 62
    7
 10
388.17685508733933
 20
278.58682033534745
 11
387.67871570006309
 21
278.58682033534745
  0
LINE
  8
_0-f_
  6
CONTINUOUS
 62
    7
 10
386.40145466712357
 20
278.58682033534745
 11
385.88143866712346
 21
278.58682033534745
  0
LINE
  8
_0-f_
  6
CONTINUOUS
 62
    7
 10
385.45137209297559
 20
278.58682033534745
 11
385.12545466712356
 21
278.58682033534745
  0
LINE
  8
_0-f_
  6
CONTINUOUS
 62
    7
 10
389.65179895874195
 20
278.50682033534747
 11
389.15203681248818
 21
278.50682033534747
  0
LINE
  8
_0-f_
  6
CONTINUOUS
 62
    7
 10
388.9054626671234
 20
278.50682033534747
 11
388.38546266712365
 21
278.50682033534747
  0
LINE
  8
_0-f_
  6
CONTINUOUS
 62
    7
 10
388.14312383131056
 20
278.50682033534747
 11
387.64574505213278
 21
278.50682033534747
  0
LINE
  8
_0-f_
  6
CONTINUOUS
 62
    7
 10
386.40145466712357
 20
278.50682033534747
 11
385.88143866712346
 21
278.50682033534747
  0
LINE
  8
_0-f_
  6
CONTINUOUS
 62
    7
 10
389.68526062609129
 20
278.42682033534743
 11
389.18635376196278
 21
278.42682033534743
  0
LINE
  8
_0-f_
  6
CONTINUOUS
 62
    7
 10
388.9054626671234
 20
278.42682033534743
 11
388.38546266712365
 21
278.42682033534743
  0
LINE
  8
_0-f_
  6
CONTINUOUS
 62
    7
 10
388.10939257528184
 20
278.42682033534743
 11
387.61277440420247
 21
278.42682033534743
  0
LINE
  8
_0-f_
  6
CONTINUOUS
 62
    7
 10
386.40145466712357
 20
278.42682033534743
 11
385.88143866712346
 21
278.42682033534743
  0
LINE
  8
_0-f_
  6
CONTINUOUS
 62
    7
 10
389.71872229344058
 20
278.34682033534739
 11
389.22067071143732
 21
278.34682033534739
  0
LINE
  8
_0-f_
  6
CONTINUOUS
 62
    7
 10
388.9054626671234
 20
278.34682033534739
 11
388.38546266712365
 21
278.34682033534739
  0
LINE
  8
_0-f_
  6
CONTINUOUS
 62
    7
 10
388.07566131925307
 20
278.34682033534739
 11
387.5798037562721
 21
278.34682033534739
  0
LINE
  8
_0-f_
  6
CONTINUOUS
 62
    7
 10
386.40145466712357
 20
278.34682033534739
 11
385.88143866712346
 21
278.34682033534739
  0
LINE
  8
_0-f_
  6
CONTINUOUS
 62
    7
 10
389.759581851284
 20
278.26682033534746
 11
389.25498766091187
 21
278.2668203353474
  0
LINE
  8
_0-f_
  6
CONTINUOUS
 62
    7
 10
388.9054626671234
 20
278.2668203353474
 11
388.38546266712365
 21
278.2668203353474
  0
LINE
  8
_0-f_
  6
CONTINUOUS
 62
    7
 10
388.0419300632243
 20
278.2668203353474
 11
387.53900921190296
 21
278.2668203353474
  0
LINE
  8
_0-f_
  6
CONTINUOUS
 62
    7
 10
386.40145466712357
 20
278.2668203353474
 11
385.88143866712346
 21
278.2668203353474
  0
LINE
  8
_0-f_
  6
CONTINUOUS
 62
    7
 10
389.92545466712295
 20
278.18682033534742
 11
389.28930461038647
 21
278.18682033534742
  0
LINE
  8
_0-f_
  6
CONTINUOUS
 62
    7
 10
388.9054626671234
 20
278.18682033534742
 11
388.38546266712365
 21
278.18682033534742
  0
LINE
  8
_0-f_
  6
CONTINUOUS
 62
    7
 10
388.00819880719553
 20
278.18682033534742
 11
387.38947066712387
 21
278.18682033534742
  0
LINE
  8
_0-f_
  6
CONTINUOUS
 62
    7
 10
386.40145466712357
 20
278.18682033534742
 11
385.88143866712346
 21
278.18682033534742
  0
LINE
  8
_0-f_
  6
CONTINUOUS
 62
    7
 10
389.92545466712295
 20
278.10682033534738
 11
389.32362155986107
 21
278.10682033534738
  0
LINE
  8
_0-f_
  6
CONTINUOUS
 62
    7
 10
388.9054626671234
 20
278.10682033534738
 11
388.38546266712365
 21
278.10682033534738
  0
LINE
  8
_0-f_
  6
CONTINUOUS
 62
    7
 10
387.97446755116675
 20
278.10682033534738
 11
387.38947066712387
 21
278.10682033534738
  0
LINE
  8
_0-f_
  6
CONTINUOUS
 62
    7
 10
386.40145466712357
 20
278.10682033534738
 11
385.88143866712346
 21
278.10682033534738
  0
LINE
  8
_0-f_
  6
CONTINUOUS
 62
    7
 10
389.92545466712295
 20
278.02682033534745
 11
389.35793850933567
 21
278.02682033534745
  0
LINE
  8
_0-f_
  6
CONTINUOUS
 62
    7
 10
388.9054626671234
 20
278.02682033534745
 11
388.38546266712365
 21
278.02682033534745
  0
LINE
  8
_0-f_
  6
CONTINUOUS
 62
    7
 10
387.94073629513798
 20
278.02682033534745
 11
387.38947066712387
 21
278.02682033534745
  0
LINE
  8
_0-f_
  6
CONTINUOUS
 62
    7
 10
386.40145466712357
 20
278.02682033534745
 11
385.88143866712346
 21
278.02682033534745
  0
LINE
  8
_0-f_
  6
CONTINUOUS
 62
    7
 10
389.92545466712295
 20
277.94682033534741
 11
389.39470440494858
 21
277.94682033534741
  0
LINE
  8
_0-f_
  6
CONTINUOUS
 62
    7
 10
388.9054626671234
 20
277.94682033534741
 11
388.38546266712365
 21
277.94682033534741
  0
LINE
  8
_0-f_
  6
CONTINUOUS
 62
    7
 10
387.90421498773196
 20
277.94682033534741
 11
387.38947066712387
 21
277.94682033534741
  0
LINE
  8
_0-f_
  6
CONTINUOUS
 62
    7
 10
386.40145466712357
 20
277.94682033534741
 11
385.88143866712346
 21
277.94682033534741
  0
LINE
  8
_0-f_
  6
CONTINUOUS
 62
    7
 10
389.92545466712295
 20
277.86682033534743
 11
389.47035773067512
 21
277.86682033534743
  0
LINE
  8
_0-f_
  6
CONTINUOUS
 62
    7
 10
388.9054626671234
 20
277.86682033534743
 11
388.38546266712365
 21
277.86682033534743
  0
LINE
  8
_0-f_
  6
CONTINUOUS
 62
    7
 10
387.82868474838108
 20
277.86682033534743
 11
387.38947066712387
 21
277.86682033534743
  0
LINE
  8
_0-f_
  6
CONTINUOUS
 62
    7
 10
386.40145466712357
 20
277.86682033534743
 11
385.88143866712346
 21
277.86682033534743
  0
LINE
  8
_0-f_
  6
CONTINUOUS
 62
    7
 10
387.4214466671234
 20
281.82686033534748
 11
387.9214466671234
 21
281.82686033534748
  0
LINE
  8
_0-f_
  6
CONTINUOUS
 62
    7
 10
388.38546266712353
 20
280.70694033534744
 11
387.4214466671234
 21
280.70694033534744
  0
LINE
  8
_0-f_
  6
CONTINUOUS
 62
    7
 10
388.38546266712353
 20
280.03506033534745
 11
387.4214466671234
 21
280.03506033534745
  0
LINE
  8
_0-f_
  6
CONTINUOUS
 62
    7
 10
387.4214466671234
 20
279.5950203353475
 11
388.09422829060514
 21
279.5950203353475
  0
LINE
  8
_0-f_
  6
CONTINUOUS
 62
    7
 10
388.09422829060514
 20
279.5950203353475
 11
387.56095900277666
 21
278.30109541411377
  0
ARC
  8
_0-f_
  6
CONTINUOUS
 62
    7
 10
387.69714045057037
 20
278.06682033534742
 40
0.2399999999999999
 50
270
 51
337.13773188217988
  0
LINE
  8
_0-f_
  6
CONTINUOUS
 62
    7
 10
385.88479624272645
 20
280.70694033534744
 11
385.2042179980981
 21
279.06912994270874
  0
LINE
  8
_0-f_
  6
CONTINUOUS
 62
    7
 10
386.39817607155203
 20
280.70694033534744
 11
386.98488857157315
 21
279.26959477153605
  0
LINE
  8
_0-f_
  6
CONTINUOUS
 62
    7
 10
385.88143866712346
 20
279.59230833534741
 11
385.5092447495847
 21
278.66541433518773
  0
LINE
  8
_0-f_
  6
CONTINUOUS
 62
    7
 10
385.12545466712345
 20
279.01982833534748
 11
385.12545466712345
 21
278.53994033534747
  0
LINE
  8
_0-f_
  6
CONTINUOUS
 62
    7
 10
385.12545466712345
 20
278.53994033534747
 11
385.32364874935786
 21
278.53994033534747
  0
ARC
  8
_0-f_
  6
CONTINUOUS
 62
    7
 10
385.32364874935786
 20
278.73994033534746
 40
0.2
 50
270
 51
338.12209204226036
  0
LINE
  8
_0-f_
  6
CONTINUOUS
 62
    7
 10
385.13034236822324
 20
279.01982833534748
 11
385.12545466712345
 21
279.01982833534748
  0
ARC
  8
_0-f_
  6
CONTINUOUS
 62
    7
 10
385.13034236822324
 20
279.09982833534741
 40
0.08
 50
270
 51
337.43508599410586
  0
ARC
  8
_0-f_
  6
CONTINUOUS
 62
    7
 10
386.86632241378834
 20
278.93994033534744
 40
0.2
 50
200.8751841896235
 51
270
  0
LINE
  8
_0-f_
  6
CONTINUOUS
 62
    7
 10
385.88143866712346
 20
277.82682033534746
 11
385.88143866712346
 21
279.59230833534741
  0
LINE
  8
_0-f_
  6
CONTINUOUS
 62
    7
 10
386.40145466712352
 20
277.82682033534746
 11
386.40145466712352
 21
279.59762033534741
  0
LINE
  8
_0-f_
  6
CONTINUOUS
 62
    7
 10
385.88143866712346
 20
277.82682033534746
 11
386.40145466712352
 21
277.82682033534746
  0
LINE
  8
_0-f_
  6
CONTINUOUS
 62
    7
 10
386.40145466712352
 20
279.59762033534741
 11
386.67945063454886
 21
278.86867366625256
  0
LINE
  8
_0-f_
  6
CONTINUOUS
 62
    7
 10
387.14945466712345
 20
278.73994033534746
 11
387.14945466712345
 21
279.21982833534747
  0
LINE
  8
_0-f_
  6
CONTINUOUS
 62
    7
 10
387.14945466712345
 20
278.73994033534746
 11
386.86632241378834
 21
278.73994033534746
  0
ARC
  8
_0-f_
  6
CONTINUOUS
 62
    7
 10
387.45001202635018
 20
278.3468203353475
 40
0.12
 50
270
 51
337.60181985621841
  0
LINE
  8
_0-f_
  6
CONTINUOUS
 62
    7
 10
387.38947066712353
 20
278.22682033534744
 11
387.45001202635018
 21
278.22682033534744
  0
LINE
  8
_0-f_
  6
CONTINUOUS
 62
    7
 10
387.38947066712353
 20
278.22682033534744
 11
387.38947066712353
 21
277.82682033534746
  0
LINE
  8
_0-f_
  6
CONTINUOUS
 62
    7
 10
387.38947066712353
 20
277.82682033534746
 11
387.69714045057037
 21
277.82682033534746
  0
LINE
  8
_0-f_
  6
CONTINUOUS
 62
    7
 10
387.14945466712345
 20
279.21982833534747
 11
387.05895564670959
 21
279.21982833534747
  0
ARC
  8
_0-f_
  6
CONTINUOUS
 62
    7
 10
387.05895564670959
 20
279.29982833534746
 40
0.08
 50
202.2048740517549
 51
270
  0
LINE
  8
_0-f_
  6
CONTINUOUS
 62
    7
 10
387.4214466671234
 20
279.5950203353475
 11
387.4214466671234
 21
280.03506033534745
  0
LINE
  8
_0-f_
  6
CONTINUOUS
 62
    7
 10
385.20546266712347
 20
281.14698033534745
 11
385.88143866712346
 21
281.14698033534745
  0
LINE
  8
_0-f_
  6
CONTINUOUS
 62
    7
 10
385.20546266712347
 20
280.70694033534744
 11
385.88479624272645
 21
280.70694033534744
  0
LINE
  8
_0-f_
  6
CONTINUOUS
 62
    7
 10
385.20546266712347
 20
281.14698033534745
 11
385.20546266712347
 21
280.70694033534744
  0
LINE
  8
_0-f_
  6
CONTINUOUS
 62
    7
 10
386.39817607155203
 20
280.70694033534744
 11
387.06944666712343
 21
280.70694033534744
  0
LINE
  8
_0-f_
  6
CONTINUOUS
 62
    7
 10
386.40145466712352
 20
281.14698033534745
 11
387.06944666712343
 21
281.14698033534745
  0
LINE
  8
_0-f_
  6
CONTINUOUS
 62
    7
 10
386.40145466712352
 20
281.14698033534745
 11
386.40145466712352
 21
281.82686033534748
  0
LINE
  8
_0-f_
  6
CONTINUOUS
 62
    7
 10
385.88143866712346
 20
281.14698033534745
 11
385.88143866712346
 21
281.82686033534748
  0
LINE
  8
_0-f_
  6
CONTINUOUS
 62
    7
 10
385.88143866712346
 20
280.69893233534742
 11
385.88143866712346
 21
280.70694033534744
  0
LINE
  8
_0-f_
  6
CONTINUOUS
 62
    7
 10
386.40145466712352
 20
280.69893233534742
 11
386.40145466712352
 21
280.70694033534744
  0
LINE
  8
_0-f_
  6
CONTINUOUS
 62
    7
 10
385.88143866712346
 20
281.82686033534748
 11
386.40145466712352
 21
281.82686033534748
  0
LINE
  8
_0-f_
  6
CONTINUOUS
 62
    7
 10
387.4214466671234
 20
280.70694033534744
 11
387.4214466671234
 21
281.82686033534748
  0
LINE
  8
_0-f_
  6
CONTINUOUS
 62
    7
 10
387.06944666712343
 20
280.70694033534744
 11
387.06944666712343
 21
281.14698033534745
  0
LINE
  8
_0-f_
  6
CONTINUOUS
 62
    7
 10
388.90546266712352
 20
280.70694033534744
 11
388.90546266712352
 21
280.03506033534745
  0
LINE
  8
_0-f_
  6
CONTINUOUS
 62
    7
 10
388.38546266712353
 20
280.70694033534744
 11
388.38546266712353
 21
280.03506033534745
  0
LINE
  8
_0-f_
  6
CONTINUOUS
 62
    7
 10
389.92545466712352
 20
280.03506033534745
 11
388.90546266712352
 21
280.03506033534745
  0
LINE
  8
_0-f_
  6
CONTINUOUS
 62
    7
 10
388.90546266712352
 20
279.08163633534747
 11
389.38136556702847
 21
277.97220695495901
  0
LINE
  8
_0-f_
  6
CONTINUOUS
 62
    7
 10
388.38546266712353
 20
279.08157233534746
 11
387.91828640136703
 21
277.97357620177183
  0
LINE
  8
_0-f_
  6
CONTINUOUS
 62
    7
 10
388.38546266712353
 20
279.08157233534746
 11
388.38546266712353
 21
277.82682033534746
  0
LINE
  8
_0-f_
  6
CONTINUOUS
 62
    7
 10
388.90546266712352
 20
279.08163633534747
 11
388.90546266712352
 21
277.82682033534746
  0
LINE
  8
_0-f_
  6
CONTINUOUS
 62
    7
 10
388.38546266712353
 20
277.82682033534746
 11
388.90546266712352
 21
277.82682033534746
  0
LINE
  8
_0-f_
  6
CONTINUOUS
 62
    7
 10
389.19663662862325
 20
279.5950203353475
 11
389.73809037665262
 21
278.30051521131429
  0
ARC
  8
_0-f_
  6
CONTINUOUS
 62
    7
 10
389.60192918200494
 20
278.06682033534742
 40
0.2399999999999999
 50
203.21748710460054
 51
270
  0
LINE
  8
_0-f_
  6
CONTINUOUS
 62
    7
 10
389.92545466712352
 20
277.82682033534746
 11
389.60192918200494
 21
277.82682033534746
  0
LINE
  8
_0-f_
  6
CONTINUOUS
 62
    7
 10
389.92545466712352
 20
278.22682033534744
 11
389.92545466712352
 21
277.82682033534746
  0
LINE
  8
_0-f_
  6
CONTINUOUS
 62
    7
 10
389.92545466712352
 20
278.22682033534744
 11
389.84879645366868
 21
278.22682033534744
  0
ARC
  8
_0-f_
  6
CONTINUOUS
 62
    7
 10
389.84879645366868
 20
278.3468203353475
 40
0.12
 50
202.6981362709997
 51
270
  0
LINE
  8
_0-f_
  6
CONTINUOUS
 62
    7
 10
389.19663662862325
 20
279.5950203353475
 11
389.92545466712352
 21
279.5950203353475
  0
LINE
  8
_0-f_
  6
CONTINUOUS
 62
    7
 10
389.92545466712352
 20
280.03506033534745
 11
389.92545466712352
 21
279.5950203353475
  0
LINE
  8
_0-f_
  6
CONTINUOUS
 62
    7
 10
389.92545466712352
 20
280.70694033534744
 11
388.90546266712352
 21
280.70694033534744
  0
LINE
  8
_0-f_
  6
CONTINUOUS
 62
    7
 10
389.92545466712352
 20
281.14698033534745
 11
388.90546266712352
 21
281.14698033534745
  0
LINE
  8
_0-f_
  6
CONTINUOUS
 62
    7
 10
388.90546266712352
 20
281.82686033534748
 11
388.90546266712352
 21
281.14698033534745
  0
LINE
  8
_0-f_
  6
CONTINUOUS
 62
    7
 10
388.38546266712353
 20
281.82686033534748
 11
388.38546266712353
 21
281.14698033534745
  0
LINE
  8
_0-f_
  6
CONTINUOUS
 62
    7
 10
387.9214466671234
 20
281.14698033534745
 11
387.9214466671234
 21
281.82686033534748
  0
LINE
  8
_0-f_
  6
CONTINUOUS
 62
    7
 10
388.38546266712353
 20
281.14698033534745
 11
387.9214466671234
 21
281.14698033534745
  0
LINE
  8
_0-f_
  6
CONTINUOUS
 62
    7
 10
388.38546266712353
 20
281.82686033534748
 11
388.90546266712352
 21
281.82686033534748
  0
LINE
  8
_0-f_
  6
CONTINUOUS
 62
    7
 10
389.92545466712352
 20
281.14698033534745
 11
389.92545466712352
 21
280.70694033534744
  0
LINE
  8
_0-f_
  6
CONTINUOUS
 62
    7
 10
393.10003291067181
 20
279.5950203353475
 11
393.10003291067181
 21
280.03506033534745
  0
LINE
  8
_0-f_
  6
CONTINUOUS
 62
    7
 10
393.10003291067181
 20
280.03506033534745
 11
390.70003291067189
 21
280.03506033534745
  0
LINE
  8
_0-f_
  6
CONTINUOUS
 62
    7
 10
390.70003291067189
 20
280.03506033534745
 11
390.70003291067189
 21
279.5950203353475
  0
LINE
  8
_0-f_
  6
CONTINUOUS
 62
    7
 10
390.70003291067189
 20
279.5950203353475
 11
391.46004091067192
 21
279.5950203353475
  0
LINE
  8
_0-f_
  6
CONTINUOUS
 62
    7
 10
391.46004091067192
 20
279.5950203353475
 11
391.46004091067192
 21
278.26690033534749
  0
LINE
  8
_0-f_
  6
CONTINUOUS
 62
    7
 10
391.46004091067192
 20
278.26690033534749
 11
390.70003291067189
 21
278.26690033534749
  0
LINE
  8
_0-f_
  6
CONTINUOUS
 62
    7
 10
390.70003291067189
 20
278.26690033534749
 11
390.70003291067189
 21
277.82682033534746
  0
LINE
  8
_0-f_
  6
CONTINUOUS
 62
    7
 10
390.70003291067189
 20
277.82682033534746
 11
392.1872409106719
 21
277.82682033534746
  0
ARC
  8
_0-f_
  6
CONTINUOUS
 62
    7
 10
392.1872409106719
 20
278.62682033534747
 40
0.8000000000000078
 50
270
 51
285.45094822953388
  0
LINE
  8
_0-f_
  6
CONTINUOUS
 62
    7
 10
392.40037155055791
 20
277.85573322590926
 11
393.10003291067181
 21
278.05770033534748
  0
LINE
  8
_0-f_
  6
CONTINUOUS
 62
    7
 10
393.10003291067181
 20
278.05770033534748
 11
393.10003291067181
 21
278.49778033534744
  0
LINE
  8
_0-f_
  6
CONTINUOUS
 62
    7
 10
393.10003291067181
 20
278.49778033534744
 11
392.30005691067197
 21
278.26690033534749
  0
LINE
  8
_0-f_
  6
CONTINUOUS
 62
    7
 10
392.30005691067197
 20
278.26690033534749
 11
392.20003291067178
 21
278.26690033534749
  0
LINE
  8
_0-f_
  6
CONTINUOUS
 62
    7
 10
392.20003291067178
 20
278.26690033534749
 11
392.20003291067178
 21
279.5950203353475
  0
LINE
  8
_0-f_
  6
CONTINUOUS
 62
    7
 10
392.20003291067178
 20
279.5950203353475
 11
393.10003291067181
 21
279.5950203353475
  0
LINE
  8
_0-f_
  6
CONTINUOUS
 62
    7
 10
394.1739996442335
 20
281.14698033534745
 11
394.01756151181166
 21
281.82686033534748
  0
LINE
  8
_0-f_
  6
CONTINUOUS
 62
    7
 10
394.01756151181166
 20
281.82686033534748
 11
393.17884325200464
 21
281.82686033534748
  0
LINE
  8
_0-f_
  6
CONTINUOUS
 62
    7
 10
393.17884325200464
 20
281.82686033534748
 11
393.33690264077569
 21
281.14698033534745
  0
LINE
  8
_0-f_
  6
CONTINUOUS
 62
    7
 10
393.33690264077569
 20
281.14698033534745
 11
390.70003291067189
 21
281.14698033534745
  0
LINE
  8
_0-f_
  6
CONTINUOUS
 62
    7
 10
390.70003291067189
 20
281.14698033534745
 11
390.70003291067189
 21
280.70694033534744
  0
LINE
  8
_0-f_
  6
CONTINUOUS
 62
    7
 10
390.70003291067189
 20
280.70694033534744
 11
393.43920371366323
 21
280.70694033534744
  0
LINE
  8
_0-f_
  6
CONTINUOUS
 62
    7
 10
393.43920371366323
 20
280.70694033534744
 11
394.02245569052729
 21
278.19812793822598
  0
ARC
  8
_0-f_
  6
CONTINUOUS
 62
    7
 10
394.48998746785151
 20
278.30682033534742
 40
0.4800000000000017
 50
193.0877165037698
 51
270
  0
LINE
  8
_0-f_
  6
CONTINUOUS
 62
    7
 10
394.48998746785151
 20
277.82682033534746
 11
395.50003291067191
 21
277.82682033534746
  0
LINE
  8
_0-f_
  6
CONTINUOUS
 62
    7
 10
395.50003291067191
 20
277.82682033534746
 11
395.50003291067191
 21
278.26690033534749
  0
LINE
  8
_0-f_
  6
CONTINUOUS
 62
    7
 10
395.50003291067191
 20
278.26690033534749
 11
394.90345008971224
 21
278.26690033534749
  0
ARC
  8
_0-f_
  6
CONTINUOUS
 62
    7
 10
394.90005691067188
 20
278.3468203353475
 40
0.0799919999999998
 50
267.56884201629123
 51
272.43115798371281
  0
LINE
  8
_0-f_
  6
CONTINUOUS
 62
    7
 10
394.89666373163163
 20
278.26690033534749
 11
394.83669649724538
 21
278.26690033534749
  0
LINE
  8
_0-f_
  6
CONTINUOUS
 62
    7
 10
394.83669649724538
 20
278.26690033534749
 11
394.82403065066353
 21
278.32194609459248
  0
ARC
  8
_0-f_
  6
CONTINUOUS
 62
    7
 10
394.90005691067188
 20
278.3468203353475
 40
0.0799919999999998
 50
187.79901102615551
 51
198.1170401314526
  0
LINE
  8
_0-f_
  6
CONTINUOUS
 62
    7
 10
394.82080482204219
 20
278.33596554323412
 11
394.27525138835148
 21
280.70694033534744
  0
LINE
  8
_0-f_
  6
CONTINUOUS
 62
    7
 10
394.27525138835148
 20
280.70694033534744
 11
395.50003291067191
 21
280.70694033534744
  0
LINE
  8
_0-f_
  6
CONTINUOUS
 62
    7
 10
395.50003291067191
 20
280.70694033534744
 11
395.50003291067191
 21
281.14698033534745
  0
LINE
  8
_0-f_
  6
CONTINUOUS
 62
    7
 10
395.50003291067191
 20
281.14698033534745
 11
394.1739996442335
 21
281.14698033534745
  0
LINE
  8
_0-f_
  6
CONTINUOUS
 62
    7
 10
395.18004091067189
 20
281.82686033534748
 11
394.66004091067191
 21
281.82686033534748
  0
LINE
  8
_0-f_
  6
CONTINUOUS
 62
    7
 10
394.66004091067191
 20
281.82686033534748
 11
394.66004091067191
 21
281.47080433534745
  0
LINE
  8
_0-f_
  6
CONTINUOUS
 62
    7
 10
394.66004091067191
 20
281.47080433534745
 11
395.18004091067189
 21
281.47080433534745
  0
LINE
  8
_0-f_
  6
CONTINUOUS
 62
    7
 10
395.18004091067189
 20
281.47080433534745
 11
395.18004091067189
 21
281.82686033534748
  0
LINE
  8
_0-f_
  6
CONTINUOUS
 62
    7
 10
394.48696794775026
 20
279.78682033534744
 11
393.65311441083929
 21
279.78682033534744
  0
LINE
  8
_0-f_
  6
CONTINUOUS
 62
    7
 10
393.10003291067153
 20
279.78682033534744
 11
390.70003291067201
 21
279.78682033534744
  0
LINE
  8
_0-f_
  6
CONTINUOUS
 62
    7
 10
394.46856021315921
 20
279.86682033534748
 11
393.63451590654199
 21
279.86682033534748
  0
LINE
  8
_0-f_
  6
CONTINUOUS
 62
    7
 10
393.10003291067153
 20
279.86682033534748
 11
390.70003291067201
 21
279.86682033534748
  0
LINE
  8
_0-f_
  6
CONTINUOUS
 62
    7
 10
394.45015247856816
 20
279.94682033534741
 11
393.61591740224463
 21
279.94682033534741
  0
LINE
  8
_0-f_
  6
CONTINUOUS
 62
    7
 10
393.10003291067153
 20
279.94682033534741
 11
390.70003291067201
 21
279.94682033534741
  0
LINE
  8
_0-f_
  6
CONTINUOUS
 62
    7
 10
394.43174474397711
 20
280.02682033534745
 11
393.59731889794728
 21
280.02682033534745
  0
LINE
  8
_0-f_
  6
CONTINUOUS
 62
    7
 10
393.10003291067153
 20
280.02682033534745
 11
390.70003291067201
 21
280.02682033534745
  0
LINE
  8
_0-f_
  6
CONTINUOUS
 62
    7
 10
394.41333700938605
 20
280.10682033534744
 11
393.57872039364986
 21
280.10682033534744
  0
LINE
  8
_0-f_
  6
CONTINUOUS
 62
    7
 10
394.39492927479506
 20
280.18682033534742
 11
393.56012188935256
 21
280.18682033534742
  0
LINE
  8
_0-f_
  6
CONTINUOUS
 62
    7
 10
394.37652154020401
 20
280.26682033534746
 11
393.5415233850552
 21
280.26682033534746
  0
LINE
  8
_0-f_
  6
CONTINUOUS
 62
    7
 10
394.35811380561302
 20
280.3468203353475
 11
393.52292488075784
 21
280.3468203353475
  0
LINE
  8
_0-f_
  6
CONTINUOUS
 62
    7
 10
394.33970607102196
 20
280.42682033534749
 11
393.50432637646054
 21
280.42682033534749
  0
LINE
  8
_0-f_
  6
CONTINUOUS
 62
    7
 10
394.32129833643091
 20
280.50682033534747
 11
393.48572787216312
 21
280.50682033534747
  0
LINE
  8
_0-f_
  6
CONTINUOUS
 62
    7
 10
394.30289060183986
 20
280.58682033534751
 11
393.46712936786577
 21
280.58682033534751
  0
LINE
  8
_0-f_
  6
CONTINUOUS
 62
    7
 10
394.28448286724887
 20
280.66682033534744
 11
393.44853086356841
 21
280.66682033534744
  0
LINE
  8
_0-f_
  6
CONTINUOUS
 62
    7
 10
395.50003291067196
 20
280.74682033534748
 11
390.70003291067167
 21
280.74682033534748
  0
LINE
  8
_0-f_
  6
CONTINUOUS
 62
    7
 10
395.50003291067196
 20
280.82682033534746
 11
390.70003291067167
 21
280.82682033534746
  0
LINE
  8
_0-f_
  6
CONTINUOUS
 62
    7
 10
395.50003291067196
 20
280.90682033534745
 11
390.70003291067167
 21
280.90682033534745
  0
LINE
  8
_0-f_
  6
CONTINUOUS
 62
    7
 10
395.50003291067196
 20
280.98682033534749
 11
390.70003291067167
 21
280.98682033534749
  0
LINE
  8
_0-f_
  6
CONTINUOUS
 62
    7
 10
395.50003291067196
 20
281.06682033534742
 11
390.70003291067167
 21
281.06682033534742
  0
LINE
  8
_0-f_
  6
CONTINUOUS
 62
    7
 10
395.50003291067196
 20
281.14682033534746
 11
390.70003291067167
 21
281.14682033534746
  0
LINE
  8
_0-f_
  6
CONTINUOUS
 62
    7
 10
394.15562872511146
 20
281.22682033534744
 11
393.31834133348707
 21
281.2268203353475
  0
LINE
  8
_0-f_
  6
CONTINUOUS
 62
    7
 10
394.1372209905204
 20
281.30682033534742
 11
393.29974282918965
 21
281.30682033534742
  0
LINE
  8
_0-f_
  6
CONTINUOUS
 62
    7
 10
394.11881325592935
 20
281.38682033534747
 11
393.28114432489235
 21
281.38682033534747
  0
LINE
  8
_0-f_
  6
CONTINUOUS
 62
    7
 10
394.10040552133836
 20
281.46682033534751
 11
393.26254582059505
 21
281.46682033534751
  0
LINE
  8
_0-f_
  6
CONTINUOUS
 62
    7
 10
395.18004091067189
 20
281.54682033534749
 11
394.66004091067117
 21
281.54682033534749
  0
LINE
  8
_0-f_
  6
CONTINUOUS
 62
    7
 10
394.08199778674731
 20
281.54682033534749
 11
393.24394731629764
 21
281.54682033534749
  0
LINE
  8
_0-f_
  6
CONTINUOUS
 62
    7
 10
395.18004091067189
 20
281.62682033534747
 11
394.66004091067117
 21
281.62682033534747
  0
LINE
  8
_0-f_
  6
CONTINUOUS
 62
    7
 10
394.06359005215631
 20
281.62682033534747
 11
393.22534881200033
 21
281.62682033534747
  0
LINE
  8
_0-f_
  6
CONTINUOUS
 62
    7
 10
395.18004091067189
 20
281.70682033534752
 11
394.66004091067117
 21
281.70682033534752
  0
LINE
  8
_0-f_
  6
CONTINUOUS
 62
    7
 10
394.04518231756526
 20
281.70682033534752
 11
393.20675030770292
 21
281.70682033534752
  0
LINE
  8
_0-f_
  6
CONTINUOUS
 62
    7
 10
395.18004091067189
 20
281.78682033534744
 11
394.66004091067117
 21
281.78682033534744
  0
LINE
  8
_0-f_
  6
CONTINUOUS
 62
    7
 10
394.02677458297421
 20
281.78682033534744
 11
393.18815180340556
 21
281.78682033534744
  0
LINE
  8
_0-f_
  6
CONTINUOUS
 62
    7
 10
394.50537568234131
 20
279.70682033534746
 11
393.67171291513671
 21
279.70682033534746
  0
LINE
  8
_0-f_
  6
CONTINUOUS
 62
    7
 10
393.10003291067153
 20
279.70682033534746
 11
390.70003291067201
 21
279.70682033534746
  0
LINE
  8
_0-f_
  6
CONTINUOUS
 62
    7
 10
394.52378341693236
 20
279.62682033534747
 11
393.69031141943401
 21
279.62682033534747
  0
LINE
  8
_0-f_
  6
CONTINUOUS
 62
    7
 10
393.10003291067153
 20
279.62682033534747
 11
390.70003291067201
 21
279.62682033534747
  0
LINE
  8
_0-f_
  6
CONTINUOUS
 62
    7
 10
394.54219115152335
 20
279.54682033534743
 11
393.70890992373137
 21
279.54682033534743
  0
LINE
  8
_0-f_
  6
CONTINUOUS
 62
    7
 10
392.20003291067167
 20
279.54682033534743
 11
391.46004091067203
 21
279.54682033534743
  0
LINE
  8
_0-f_
  6
CONTINUOUS
 62
    7
 10
394.56059888611435
 20
279.46682033534739
 11
393.72750842802873
 21
279.46682033534739
  0
LINE
  8
_0-f_
  6
CONTINUOUS
 62
    7
 10
392.20003291067167
 20
279.46682033534739
 11
391.46004091067203
 21
279.46682033534739
  0
LINE
  8
_0-f_
  6
CONTINUOUS
 62
    7
 10
394.5790066207054
 20
279.38682033534747
 11
393.74610693232614
 21
279.38682033534747
  0
LINE
  8
_0-f_
  6
CONTINUOUS
 62
    7
 10
392.20003291067167
 20
279.38682033534747
 11
391.46004091067203
 21
279.38682033534747
  0
LINE
  8
_0-f_
  6
CONTINUOUS
 62
    7
 10
394.59741435529645
 20
279.30682033534742
 11
393.76470543662344
 21
279.30682033534742
  0
LINE
  8
_0-f_
  6
CONTINUOUS
 62
    7
 10
392.20003291067167
 20
279.30682033534742
 11
391.46004091067203
 21
279.30682033534742
  0
LINE
  8
_0-f_
  6
CONTINUOUS
 62
    7
 10
394.6158220898875
 20
279.22682033534738
 11
393.78330394092086
 21
279.22682033534738
  0
LINE
  8
_0-f_
  6
CONTINUOUS
 62
    7
 10
392.20003291067167
 20
279.22682033534738
 11
391.46004091067203
 21
279.22682033534738
  0
LINE
  8
_0-f_
  6
CONTINUOUS
 62
    7
 10
394.63422982447855
 20
279.14682033534746
 11
393.80190244521816
 21
279.14682033534746
  0
LINE
  8
_0-f_
  6
CONTINUOUS
 62
    7
 10
392.20003291067167
 20
279.14682033534746
 11
391.46004091067203
 21
279.14682033534746
  0
LINE
  8
_0-f_
  6
CONTINUOUS
 62
    7
 10
394.65263755906955
 20
279.06682033534742
 11
393.82050094951552
 21
279.06682033534742
  0
LINE
  8
_0-f_
  6
CONTINUOUS
 62
    7
 10
392.20003291067167
 20
279.06682033534742
 11
391.46004091067203
 21
279.06682033534742
  0
LINE
  8
_0-f_
  6
CONTINUOUS
 62
    7
 10
394.6710452936606
 20
278.98682033534743
 11
393.83909945381288
 21
278.98682033534743
  0
LINE
  8
_0-f_
  6
CONTINUOUS
 62
    7
 10
392.20003291067167
 20
278.98682033534743
 11
391.46004091067203
 21
278.98682033534743
  0
LINE
  8
_0-f_
  6
CONTINUOUS
 62
    7
 10
394.68945302825159
 20
278.90682033534745
 11
393.85769795811024
 21
278.90682033534745
  0
LINE
  8
_0-f_
  6
CONTINUOUS
 62
    7
 10
392.20003291067167
 20
278.90682033534745
 11
391.46004091067203
 21
278.90682033534745
  0
LINE
  8
_0-f_
  6
CONTINUOUS
 62
    7
 10
394.70786076284264
 20
278.82682033534741
 11
393.87629646240759
 21
278.82682033534741
  0
LINE
  8
_0-f_
  6
CONTINUOUS
 62
    7
 10
392.20003291067167
 20
278.82682033534741
 11
391.46004091067203
 21
278.82682033534741
  0
LINE
  8
_0-f_
  6
CONTINUOUS
 62
    7
 10
394.72626849743369
 20
278.74682033534748
 11
393.89489496670495
 21
278.74682033534748
  0
LINE
  8
_0-f_
  6
CONTINUOUS
 62
    7
 10
392.20003291067167
 20
278.74682033534748
 11
391.46004091067203
 21
278.74682033534748
  0
LINE
  8
_0-f_
  6
CONTINUOUS
 62
    7
 10
394.74467623202469
 20
278.66682033534744
 11
393.91349347100231
 21
278.66682033534744
  0
LINE
  8
_0-f_
  6
CONTINUOUS
 62
    7
 10
392.20003291067167
 20
278.66682033534744
 11
391.46004091067203
 21
278.66682033534744
  0
LINE
  8
_0-f_
  6
CONTINUOUS
 62
    7
 10
394.76308396661574
 20
278.58682033534745
 11
393.93209197529961
 21
278.58682033534745
  0
LINE
  8
_0-f_
  6
CONTINUOUS
 62
    7
 10
392.20003291067167
 20
278.58682033534745
 11
391.46004091067203
 21
278.58682033534745
  0
LINE
  8
_0-f_
  6
CONTINUOUS
 62
    7
 10
394.78149170120673
 20
278.50682033534747
 11
393.95069047959697
 21
278.50682033534747
  0
LINE
  8
_0-f_
  6
CONTINUOUS
 62
    7
 10
392.20003291067167
 20
278.50682033534747
 11
391.46004091067203
 21
278.50682033534747
  0
LINE
  8
_0-f_
  6
CONTINUOUS
 62
    7
 10
394.79989943579778
 20
278.42682033534743
 11
393.96928898389433
 21
278.42682033534743
  0
LINE
  8
_0-f_
  6
CONTINUOUS
 62
    7
 10
393.1000329106721
 20
278.42682033534743
 11
392.85416364109506
 21
278.42682033534743
  0
LINE
  8
_0-f_
  6
CONTINUOUS
 62
    7
 10
392.20003291067167
 20
278.42682033534743
 11
391.46004091067203
 21
278.42682033534743
  0
LINE
  8
_0-f_
  6
CONTINUOUS
 62
    7
 10
394.81830717038883
 20
278.34682033534739
 11
393.98788748819175
 21
278.34682033534739
  0
LINE
  8
_0-f_
  6
CONTINUOUS
 62
    7
 10
393.1000329106721
 20
278.34682033534739
 11
392.57697167990318
 21
278.34682033534739
  0
LINE
  8
_0-f_
  6
CONTINUOUS
 62
    7
 10
392.20003291067167
 20
278.34682033534739
 11
391.46004091067203
 21
278.34682033534739
  0
LINE
  8
_0-f_
  6
CONTINUOUS
 62
    7
 10
395.50003291067191
 20
278.2668203353474
 11
394.00648599248905
 21
278.2668203353474
  0
LINE
  8
_0-f_
  6
CONTINUOUS
 62
    7
 10
393.1000329106721
 20
278.2668203353474
 11
390.70003291067189
 21
278.2668203353474
  0
LINE
  8
_0-f_
  6
CONTINUOUS
 62
    7
 10
395.50003291067191
 20
278.18682033534742
 11
394.02604068336052
 21
278.18682033534742
  0
LINE
  8
_0-f_
  6
CONTINUOUS
 62
    7
 10
393.1000329106721
 20
278.18682033534742
 11
390.70003291067189
 21
278.18682033534742
  0
LINE
  8
_0-f_
  6
CONTINUOUS
 62
    7
 10
395.50003291067191
 20
278.10682033534738
 11
394.05497914139278
 21
278.10682033534738
  0
LINE
  8
_0-f_
  6
CONTINUOUS
 62
    7
 10
393.1000329106721
 20
278.10682033534738
 11
390.70003291067189
 21
278.10682033534738
  0
LINE
  8
_0-f_
  6
CONTINUOUS
 62
    7
 10
395.50003291067191
 20
278.02682033534745
 11
394.10193508083307
 21
278.02682033534745
  0
LINE
  8
_0-f_
  6
CONTINUOUS
 62
    7
 10
392.99305735974929
 20
278.02682033534745
 11
390.70003291067189
 21
278.02682033534745
  0
LINE
  8
_0-f_
  6
CONTINUOUS
 62
    7
 10
395.50003291067191
 20
277.94682033534741
 11
394.17293184395544
 21
277.94682033534741
  0
LINE
  8
_0-f_
  6
CONTINUOUS
 62
    7
 10
392.7159186267902
 20
277.94682033534741
 11
390.70003291067189
 21
277.94682033534741
  0
LINE
  8
_0-f_
  6
CONTINUOUS
 62
    7
 10
395.50003291067191
 20
277.86682033534743
 11
394.29900952415107
 21
277.86682033534743
  0
LINE
  8
_0-f_
  6
CONTINUOUS
 62
    7
 10
392.43877989383111
 20
277.86682033534743
 11
390.70003291067189
 21
277.86682033534743
  0
LINE
  8
_0-f_
  6
CONTINUOUS
 62
    7
 10
394.1739996442335
 20
281.14698033534745
 11
395.50003291067191
 21
281.14698033534745
  0
LINE
  8
_0-f_
  6
CONTINUOUS
 62
    7
 10
394.48998746785151
 20
277.82682033534746
 11
395.50003291067191
 21
277.82682033534746
  0
LINE
  8
_0-f_
  6
CONTINUOUS
 62
    7
 10
394.83669649724538
 20
278.26690033534749
 11
395.50003291067191
 21
278.26690033534749
  0
LINE
  8
_0-f_
  6
CONTINUOUS
 62
    7
 10
394.27525138835148
 20
280.70694033534744
 11
395.50003291067191
 21
280.70694033534744
  0
LINE
  8
_0-f_
  6
CONTINUOUS
 62
    7
 10
394.66004091067191
 20
281.82686033534748
 11
395.18004091067189
 21
281.82686033534748
  0
LINE
  8
_0-f_
  6
CONTINUOUS
 62
    7
 10
395.18004091067189
 20
281.47080433534745
 11
394.66004091067191
 21
281.47080433534745
  0
LINE
  8
_0-f_
  6
CONTINUOUS
 62
    7
 10
393.43920371366323
 20
280.70694033534744
 11
394.02245569052729
 21
278.19812793822598
  0
LINE
  8
_0-f_
  6
CONTINUOUS
 62
    7
 10
394.27525138835148
 20
280.70694033534744
 11
394.83669649724538
 21
278.26690033534749
  0
LINE
  8
_0-f_
  6
CONTINUOUS
 62
    7
 10
392.20003291067178
 20
279.5950203353475
 11
393.10003291067181
 21
279.5950203353475
  0
LINE
  8
_0-f_
  6
CONTINUOUS
 62
    7
 10
393.10003291067181
 20
280.03506033534745
 11
390.70003291067189
 21
280.03506033534745
  0
LINE
  8
_0-f_
  6
CONTINUOUS
 62
    7
 10
392.40884891067196
 20
277.85818033534747
 11
393.10003291067181
 21
278.05770033534748
  0
LINE
  8
_0-f_
  6
CONTINUOUS
 62
    7
 10
392.30005691067203
 20
278.26690033534749
 11
393.10003291067181
 21
278.49778033534744
  0
LINE
  8
_0-f_
  6
CONTINUOUS
 62
    7
 10
390.70003291067189
 20
277.82682033534746
 11
392.1872409106719
 21
277.82682033534746
  0
LINE
  8
_0-f_
  6
CONTINUOUS
 62
    7
 10
391.46004091067192
 20
279.5950203353475
 11
391.46004091067192
 21
278.26690033534749
  0
LINE
  8
_0-f_
  6
CONTINUOUS
 62
    7
 10
391.46004091067192
 20
278.26690033534749
 11
390.70003291067189
 21
278.26690033534749
  0
LINE
  8
_0-f_
  6
CONTINUOUS
 62
    7
 10
390.70003291067189
 20
278.26690033534749
 11
390.70003291067189
 21
277.82682033534746
  0
LINE
  8
_0-f_
  6
CONTINUOUS
 62
    7
 10
390.70003291067189
 20
279.5950203353475
 11
391.46004091067192
 21
279.5950203353475
  0
LINE
  8
_0-f_
  6
CONTINUOUS
 62
    7
 10
390.70003291067189
 20
280.03506033534745
 11
390.70003291067189
 21
279.5950203353475
  0
LINE
  8
_0-f_
  6
CONTINUOUS
 62
    7
 10
392.20003291067178
 20
278.26690033534749
 11
392.20003291067178
 21
279.5950203353475
  0
ARC
  8
_0-f_
  6
CONTINUOUS
 62
    7
 10
392.1872409106719
 20
278.62682033534747
 40
0.8000000000000001
 50
270
 51
286.10199
  0
LINE
  8
_0-f_
  6
CONTINUOUS
 62
    7
 10
392.30005691067203
 20
278.26690033534749
 11
392.20003291067178
 21
278.26690033534749
  0
LINE
  8
_0-f_
  6
CONTINUOUS
 62
    7
 10
393.10003291067181
 20
278.49778033534744
 11
393.10003291067181
 21
278.05770033534748
  0
LINE
  8
_0-f_
  6
CONTINUOUS
 62
    7
 10
393.10003291067181
 20
279.5950203353475
 11
393.10003291067181
 21
280.03506033534745
  0
ARC
  8
_0-f_
  6
CONTINUOUS
 62
    7
 10
394.48998746785151
 20
278.30682033534742
 40
0.4799999999999999
 50
193.08771650376977
 51
269.99999999999972
  0
ARC
  8
_0-f_
  6
CONTINUOUS
 62
    7
 10
394.90005691067188
 20
278.3468203353475
 40
0.0799919999999998
 50
192.96201000000002
 51
270
  0
LINE
  8
_0-f_
  6
CONTINUOUS
 62
    7
 10
390.70003291067189
 20
281.14698033534745
 11
393.33690264077569
 21
281.14698033534745
  0
LINE
  8
_0-f_
  6
CONTINUOUS
 62
    7
 10
390.70003291067189
 20
280.70694033534744
 11
393.43920371366323
 21
280.70694033534744
  0
LINE
  8
_0-f_
  6
CONTINUOUS
 62
    7
 10
390.70003291067189
 20
281.14698033534745
 11
390.70003291067189
 21
280.70694033534744
  0
LINE
  8
_0-f_
  6
CONTINUOUS
 62
    7
 10
393.17884325200464
 20
281.82686033534748
 11
394.01756151181166
 21
281.82686033534748
  0
LINE
  8
_0-f_
  6
CONTINUOUS
 62
    7
 10
393.17884325200464
 20
281.82686033534748
 11
393.33690264077569
 21
281.14698033534745
  0
LINE
  8
_0-f_
  6
CONTINUOUS
 62
    7
 10
394.01756151181166
 20
281.82686033534748
 11
394.1739996442335
 21
281.14698033534745
  0
LINE
  8
_0-f_
  6
CONTINUOUS
 62
    7
 10
394.66004091067191
 20
281.82686033534748
 11
394.66004091067191
 21
281.47080433534745
  0
LINE
  8
_0-f_
  6
CONTINUOUS
 62
    7
 10
395.50003291067191
 20
278.26690033534749
 11
395.50003291067191
 21
277.82682033534746
  0
LINE
  8
_0-f_
  6
CONTINUOUS
 62
    7
 10
395.50003291067191
 20
278.26690033534749
 11
395.50003291067191
 21
277.82682033534746
  0
LINE
  8
_0-f_
  6
CONTINUOUS
 62
    7
 10
395.50003291067191
 20
281.14698033534745
 11
395.50003291067191
 21
280.70694033534744
  0
LINE
  8
_0-f_
  6
CONTINUOUS
 62
    7
 10
395.18004091067189
 20
281.82690033534743
 11
395.18004091067189
 21
281.47085233534744
  0
LINE
  8
_0-f_
  6
CONTINUOUS
 62
    7
 10
398.75410868019708
 20
281.38458537620136
 11
401.00651354785555
 21
280.82686833534751
  0
LINE
  8
_0-f_
  6
CONTINUOUS
 62
    7
 10
401.00651354785555
 20
280.82686833534751
 11
401.00651354785555
 21
281.26690033534749
  0
LINE
  8
_0-f_
  6
CONTINUOUS
 62
    7
 10
401.00651354785555
 20
281.26690033534749
 11
398.88185065737855
 21
281.79483989825184
  0
ARC
  8
_0-f_
  6
CONTINUOUS
 62
    7
 10
398.60648954785557
 20
280.62686033534749
 40
1.1999999999999964
 50
76.734271344360408
 51
103.26596249111499
  0
LINE
  8
_0-f_
  6
CONTINUOUS
 62
    7
 10
398.33112367157793
 20
281.79483877443863
 11
396.20648954785554
 21
281.26691633534745
  0
LINE
  8
_0-f_
  6
CONTINUOUS
 62
    7
 10
396.20648954785554
 20
281.26691633534745
 11
396.20648954785554
 21
280.82686033534742
  0
LINE
  8
_0-f_
  6
CONTINUOUS
 62
    7
 10
396.20648954785554
 20
280.82686033534742
 11
398.44670493916982
 21
281.38136117967429
  0
ARC
  8
_0-f_
  6
CONTINUOUS
 62
    7
 10
398.60648954785563
 20
280.80302833534745
 40
0.5999999999999982
 50
75.757176751039125
 51
105.44466990909265
  0
LINE
  8
_0-f_
  6
CONTINUOUS
 62
    7
 10
400.3120975478555
 20
280.65889233534745
 11
396.90089754785538
 21
280.65889233534745
  0
LINE
  8
_0-f_
  6
CONTINUOUS
 62
    7
 10
396.90089754785538
 20
280.65889233534745
 11
396.90089754785538
 21
280.21885233534749
  0
LINE
  8
_0-f_
  6
CONTINUOUS
 62
    7
 10
396.90089754785538
 20
280.21885233534749
 11
400.3120975478555
 21
280.21885233534749
  0
LINE
  8
_0-f_
  6
CONTINUOUS
 62
    7
 10
400.3120975478555
 20
280.21885233534749
 11
400.3120975478555
 21
280.65889233534745
  0
LINE
  8
_0-f_
  6
CONTINUOUS
 62
    7
 10
401.00651354785555
 20
279.73877233534745
 11
396.20648954785548
 21
279.73877233534745
  0
LINE
  8
_0-f_
  6
CONTINUOUS
 62
    7
 10
396.20648954785548
 20
279.73877233534745
 11
396.20648954785554
 21
279.29893233534744
  0
LINE
  8
_0-f_
  6
CONTINUOUS
 62
    7
 10
396.20648954785554
 20
279.29893233534744
 11
397.45617143409072
 21
279.29893233534744
  0
LINE
  8
_0-f_
  6
CONTINUOUS
 62
    7
 10
397.45617143409072
 20
279.29893233534744
 11
396.68810554785546
 21
277.96834033534742
  0
LINE
  8
_0-f_
  6
CONTINUOUS
 62
    7
 10
396.68810554785546
 20
277.96834033534742
 11
396.68810554785546
 21
277.82682033534746
  0
LINE
  8
_0-f_
  6
CONTINUOUS
 62
    7
 10
396.68810554785546
 20
277.82682033534746
 11
400.52489754785552
 21
277.82682033534746
  0
LINE
  8
_0-f_
  6
CONTINUOUS
 62
    7
 10
400.52489754785552
 20
277.82682033534746
 11
400.52489754785552
 21
277.96826033534745
  0
LINE
  8
_0-f_
  6
CONTINUOUS
 62
    7
 10
400.52489754785552
 20
277.96826033534745
 11
399.75680395672572
 21
279.29893233534744
  0
LINE
  8
_0-f_
  6
CONTINUOUS
 62
    7
 10
399.75680395672572
 20
279.29893233534744
 11
401.00651354785555
 21
279.29893233534744
  0
LINE
  8
_0-f_
  6
CONTINUOUS
 62
    7
 10
401.00651354785555
 20
279.29893233534744
 11
401.00651354785555
 21
279.73877233534745
  0
LINE
  8
_0-f_
  6
CONTINUOUS
 62
    7
 10
397.96418864162956
 20
279.29893233534744
 11
399.24889046880156
 21
279.29893233534744
  0
LINE
  8
_0-f_
  6
CONTINUOUS
 62
    7
 10
399.24889046880156
 20
279.29893233534744
 11
399.79209754785546
 21
278.35746033534747
  0
LINE
  8
_0-f_
  6
CONTINUOUS
 62
    7
 10
399.79209754785546
 20
278.35746033534747
 11
399.79209754785546
 21
278.29890033534741
  0
LINE
  8
_0-f_
  6
CONTINUOUS
 62
    7
 10
399.79209754785546
 20
278.29890033534741
 11
397.42092154785553
 21
278.29890033534741
  0
LINE
  8
_0-f_
  6
CONTINUOUS
 62
    7
 10
397.42092154785553
 20
278.29890033534741
 11
397.42092154785553
 21
278.35746033534747
  0
LINE
  8
_0-f_
  6
CONTINUOUS
 62
    7
 10
397.42092154785553
 20
278.35746033534747
 11
397.96418864162956
 21
279.29893233534744
  0
LINE
  8
_0-f_
  6
CONTINUOUS
 62
    7
 10
400.31209754785561
 20
280.26682033534746
 11
396.90089754785544
 21
280.26682033534746
  0
LINE
  8
_0-f_
  6
CONTINUOUS
 62
    7
 10
400.31209754785561
 20
280.3468203353475
 11
396.90089754785544
 21
280.3468203353475
  0
LINE
  8
_0-f_
  6
CONTINUOUS
 62
    7
 10
400.31209754785561
 20
280.42682033534749
 11
396.90089754785544
 21
280.42682033534749
  0
LINE
  8
_0-f_
  6
CONTINUOUS
 62
    7
 10
400.31209754785561
 20
280.50682033534747
 11
396.90089754785544
 21
280.50682033534747
  0
LINE
  8
_0-f_
  6
CONTINUOUS
 62
    7
 10
400.31209754785561
 20
280.58682033534751
 11
396.90089754785544
 21
280.58682033534751
  0
LINE
  8
_0-f_
  6
CONTINUOUS
 62
    7
 10
401.00651354785521
 20
280.90682033534745
 11
400.68361813532999
 21
280.90682033534745
  0
LINE
  8
_0-f_
  6
CONTINUOUS
 62
    7
 10
396.52953255946176
 20
280.90682033534745
 11
396.20648954785554
 21
280.90682033534745
  0
LINE
  8
_0-f_
  6
CONTINUOUS
 62
    7
 10
401.00651354785521
 20
280.98682033534749
 11
400.36052886924472
 21
280.98682033534749
  0
LINE
  8
_0-f_
  6
CONTINUOUS
 62
    7
 10
396.85273717337486
 20
280.98682033534749
 11
396.20648954785554
 21
280.98682033534749
  0
LINE
  8
_0-f_
  6
CONTINUOUS
 62
    7
 10
401.00651354785521
 20
281.06682033534742
 11
400.03743960315967
 21
281.06682033534742
  0
LINE
  8
_0-f_
  6
CONTINUOUS
 62
    7
 10
397.17594178728802
 20
281.06682033534742
 11
396.20648954785554
 21
281.06682033534742
  0
LINE
  8
_0-f_
  6
CONTINUOUS
 62
    7
 10
401.00651354785521
 20
281.14682033534746
 11
399.71435033707445
 21
281.14682033534746
  0
LINE
  8
_0-f_
  6
CONTINUOUS
 62
    7
 10
397.49914640120119
 20
281.14682033534746
 11
396.20648954785554
 21
281.14682033534746
  0
LINE
  8
_0-f_
  6
CONTINUOUS
 62
    7
 10
401.00651354785521
 20
281.22682033534744
 11
399.39126107098923
 21
281.2268203353475
  0
LINE
  8
_0-f_
  6
CONTINUOUS
 62
    7
 10
397.82235101511429
 20
281.22682033534744
 11
396.20648954785554
 21
281.2268203353475
  0
LINE
  8
_0-f_
  6
CONTINUOUS
 62
    7
 10
400.84585776725578
 20
281.30682033534742
 11
399.06817180490407
 21
281.30682033534742
  0
LINE
  8
_0-f_
  6
CONTINUOUS
 62
    7
 10
398.1455556290274
 20
281.30682033534742
 11
396.36708397195122
 21
281.30682033534742
  0
LINE
  8
_0-f_
  6
CONTINUOUS
 62
    7
 10
400.52390229511218
 20
281.38682033534747
 11
398.74109319231314
 21
281.38682033534747
  0
LINE
  8
_0-f_
  6
CONTINUOUS
 62
    7
 10
398.46843779626278
 20
281.38682033534747
 11
396.68904552787671
 21
281.38682033534747
  0
LINE
  8
_0-f_
  6
CONTINUOUS
 62
    7
 10
400.20194682296858
 20
281.46682033534751
 11
397.01100708380227
 21
281.46682033534751
  0
LINE
  8
_0-f_
  6
CONTINUOUS
 62
    7
 10
399.87999135082498
 20
281.54682033534749
 11
397.33296863972777
 21
281.54682033534749
  0
LINE
  8
_0-f_
  6
CONTINUOUS
 62
    7
 10
399.55803587868138
 20
281.62682033534747
 11
397.65493019565338
 21
281.62682033534747
  0
LINE
  8
_0-f_
  6
CONTINUOUS
 62
    7
 10
399.23608040653778
 20
281.70682033534752
 11
397.97689175157888
 21
281.70682033534752
  0
LINE
  8
_0-f_
  6
CONTINUOUS
 62
    7
 10
398.91412493439418
 20
281.78682033534744
 11
398.29885330750437
 21
281.78682033534744
  0
LINE
  8
_0-f_
  6
CONTINUOUS
 62
    7
 10
401.00651354785577
 20
279.70682033534746
 11
396.20648954785554
 21
279.70682033534746
  0
LINE
  8
_0-f_
  6
CONTINUOUS
 62
    7
 10
401.00651354785577
 20
279.62682033534747
 11
396.20648954785554
 21
279.62682033534747
  0
LINE
  8
_0-f_
  6
CONTINUOUS
 62
    7
 10
401.00651354785577
 20
279.54682033534743
 11
396.20648954785554
 21
279.54682033534743
  0
LINE
  8
_0-f_
  6
CONTINUOUS
 62
    7
 10
401.00651354785577
 20
279.46682033534739
 11
396.20648954785554
 21
279.46682033534739
  0
LINE
  8
_0-f_
  6
CONTINUOUS
 62
    7
 10
401.00651354785577
 20
279.38682033534747
 11
396.20648954785554
 21
279.38682033534747
  0
LINE
  8
_0-f_
  6
CONTINUOUS
 62
    7
 10
401.00651354785577
 20
279.30682033534742
 11
396.20648954785554
 21
279.30682033534742
  0
LINE
  8
_0-f_
  6
CONTINUOUS
 62
    7
 10
399.79842861332293
 20
279.2268203353475
 11
399.29049738741901
 21
279.2268203353475
  0
LINE
  8
_0-f_
  6
CONTINUOUS
 62
    7
 10
397.92257712618766
 20
279.22682033534738
 11
397.41454577634721
 21
279.22682033534738
  0
LINE
  8
_0-f_
  6
CONTINUOUS
 62
    7
 10
399.84460639965221
 20
279.14682033534746
 11
399.33665549549266
 21
279.14682033534746
  0
LINE
  8
_0-f_
  6
CONTINUOUS
 62
    7
 10
397.8764139184641
 20
279.14682033534746
 11
397.36836687936091
 21
279.14682033534746
  0
LINE
  8
_0-f_
  6
CONTINUOUS
 62
    7
 10
399.89078418598154
 20
279.06682033534742
 11
399.38281360356632
 21
279.06682033534742
  0
LINE
  8
_0-f_
  6
CONTINUOUS
 62
    7
 10
397.83025071074053
 20
279.06682033534742
 11
397.32218798237454
 21
279.06682033534742
  0
LINE
  8
_0-f_
  6
CONTINUOUS
 62
    7
 10
399.93696197231088
 20
278.98682033534743
 11
399.42897171163997
 21
278.98682033534743
  0
LINE
  8
_0-f_
  6
CONTINUOUS
 62
    7
 10
397.78408750301696
 20
278.98682033534743
 11
397.27600908538824
 21
278.98682033534743
  0
LINE
  8
_0-f_
  6
CONTINUOUS
 62
    7
 10
399.98313975864016
 20
278.90682033534745
 11
399.47512981971363
 21
278.90682033534745
  0
LINE
  8
_0-f_
  6
CONTINUOUS
 62
    7
 10
397.7379242952934
 20
278.90682033534745
 11
397.22983018840193
 21
278.90682033534745
  0
LINE
  8
_0-f_
  6
CONTINUOUS
 62
    7
 10
400.02931754496944
 20
278.82682033534741
 11
399.52128792778728
 21
278.82682033534741
  0
LINE
  8
_0-f_
  6
CONTINUOUS
 62
    7
 10
397.69176108756983
 20
278.82682033534741
 11
397.18365129141557
 21
278.82682033534741
  0
LINE
  8
_0-f_
  6
CONTINUOUS
 62
    7
 10
400.07549533129873
 20
278.74682033534748
 11
399.56744603586094
 21
278.74682033534748
  0
LINE
  8
_0-f_
  6
CONTINUOUS
 62
    7
 10
397.64559787984626
 20
278.74682033534748
 11
397.13747239442927
 21
278.74682033534748
  0
LINE
  8
_0-f_
  6
CONTINUOUS
 62
    7
 10
400.12167311762806
 20
278.66682033534744
 11
399.61360414393459
 21
278.66682033534744
  0
LINE
  8
_0-f_
  6
CONTINUOUS
 62
    7
 10
397.5994346721227
 20
278.66682033534744
 11
397.09129349744296
 21
278.66682033534744
  0
LINE
  8
_0-f_
  6
CONTINUOUS
 62
    7
 10
400.16785090395734
 20
278.58682033534745
 11
399.65976225200825
 21
278.58682033534745
  0
LINE
  8
_0-f_
  6
CONTINUOUS
 62
    7
 10
397.55327146439913
 20
278.58682033534745
 11
397.0451146004566
 21
278.58682033534745
  0
LINE
  8
_0-f_
  6
CONTINUOUS
 62
    7
 10
400.21402869028668
 20
278.50682033534747
 11
399.7059203600819
 21
278.50682033534747
  0
LINE
  8
_0-f_
  6
CONTINUOUS
 62
    7
 10
397.50710825667556
 20
278.50682033534747
 11
396.99893570347035
 21
278.50682033534747
  0
LINE
  8
_0-f_
  6
CONTINUOUS
 62
    7
 10
400.26020647661596
 20
278.42682033534743
 11
399.7520784681555
 21
278.42682033534743
  0
LINE
  8
_0-f_
  6
CONTINUOUS
 62
    7
 10
397.460945048952
 20
278.42682033534743
 11
396.95275680648399
 21
278.42682033534743
  0
LINE
  8
_0-f_
  6
CONTINUOUS
 62
    7
 10
400.30638426294524
 20
278.34682033534739
 11
399.79209754785552
 21
278.34682033534739
  0
LINE
  8
_0-f_
  6
CONTINUOUS
 62
    7
 10
397.42092154785121
 20
278.34682033534739
 11
396.90657790949774
 21
278.34682033534739
  0
LINE
  8
_0-f_
  6
CONTINUOUS
 62
    7
 10
400.35256204927452
 20
278.2668203353474
 11
396.86039901251138
 21
278.2668203353474
  0
LINE
  8
_0-f_
  6
CONTINUOUS
 62
    7
 10
400.39873983560386
 20
278.18682033534742
 11
396.81422011552502
 21
278.18682033534742
  0
LINE
  8
_0-f_
  6
CONTINUOUS
 62
    7
 10
400.4449176219332
 20
278.10682033534738
 11
396.76804121853877
 21
278.10682033534738
  0
LINE
  8
_0-f_
  6
CONTINUOUS
 62
    7
 10
400.49109540826248
 20
278.02682033534745
 11
396.72186232155241
 21
278.02682033534745
  0
LINE
  8
_0-f_
  6
CONTINUOUS
 62
    7
 10
400.52489754785404
 20
277.94682033534741
 11
396.68810554785671
 21
277.94682033534741
  0
LINE
  8
_0-f_
  6
CONTINUOUS
 62
    7
 10
400.52489754785404
 20
277.86682033534743
 11
396.68810554785671
 21
277.86682033534743
  0
LINE
  8
_0-f_
  6
CONTINUOUS
 62
    7
 10
396.20648954785554
 20
281.26691633534745
 11
398.3336895478555
 21
281.79547633534742
  0
LINE
  8
_0-f_
  6
CONTINUOUS
 62
    7
 10
396.20648954785554
 20
280.82686033534742
 11
398.47050554785551
 21
281.3872523353474
  0
LINE
  8
_0-f_
  6
CONTINUOUS
 62
    7
 10
396.90089754785538
 20
280.65889233534745
 11
400.3120975478555
 21
280.65889233534745
  0
LINE
  8
_0-f_
  6
CONTINUOUS
 62
    7
 10
396.90089754785538
 20
280.21885233534749
 11
400.3120975478555
 21
280.21885233534749
  0
LINE
  8
_0-f_
  6
CONTINUOUS
 62
    7
 10
396.20648954785554
 20
279.73877233534745
 11
401.00651354785555
 21
279.73877233534745
  0
LINE
  8
_0-f_
  6
CONTINUOUS
 62
    7
 10
396.68810554785546
 20
277.82682033534746
 11
400.52489754785552
 21
277.82682033534746
  0
LINE
  8
_0-f_
  6
CONTINUOUS
 62
    7
 10
397.42092154785553
 20
278.29890033534741
 11
399.79209754785546
 21
278.29890033534741
  0
LINE
  8
_0-f_
  6
CONTINUOUS
 62
    7
 10
397.96410554785564
 20
279.29878833534747
 11
397.42092154785553
 21
278.35746033534747
  0
LINE
  8
_0-f_
  6
CONTINUOUS
 62
    7
 10
396.20648954785554
 20
279.29893233534744
 11
397.45690554785563
 21
279.29893233534744
  0
LINE
  8
_0-f_
  6
CONTINUOUS
 62
    7
 10
396.20648954785554
 20
279.73877233534745
 11
396.20648954785554
 21
279.29893233534744
  0
LINE
  8
_0-f_
  6
CONTINUOUS
 62
    7
 10
397.45609754785545
 20
279.29880433534743
 11
396.68810554785546
 21
277.96834033534742
  0
LINE
  8
_0-f_
  6
CONTINUOUS
 62
    7
 10
396.68810554785546
 20
277.82682033534746
 11
396.68810554785546
 21
277.96826033534745
  0
LINE
  8
_0-f_
  6
CONTINUOUS
 62
    7
 10
397.42092154785553
 20
278.29890033534741
 11
397.42092154785553
 21
278.35754033534749
  0
LINE
  8
_0-f_
  6
CONTINUOUS
 62
    7
 10
396.20648954785554
 20
281.26690033534749
 11
396.20648954785554
 21
280.82686033534742
  0
LINE
  8
_0-f_
  6
CONTINUOUS
 62
    7
 10
396.90089754785538
 20
280.65889233534745
 11
396.90089754785538
 21
280.21885233534749
  0
LINE
  8
_0-f_
  6
CONTINUOUS
 62
    7
 10
399.75690554785564
 20
279.29875633534743
 11
400.52489754785552
 21
277.96826033534745
  0
LINE
  8
_0-f_
  6
CONTINUOUS
 62
    7
 10
399.75690554785564
 20
279.29893233534744
 11
401.00651354785555
 21
279.29893233534744
  0
LINE
  8
_0-f_
  6
CONTINUOUS
 62
    7
 10
397.96491354785559
 20
279.29893233534744
 11
399.24891354785558
 21
279.29893233534744
  0
LINE
  8
_0-f_
  6
CONTINUOUS
 62
    7
 10
399.24891354785558
 20
279.29889233534743
 11
399.79209754785546
 21
278.35746033534747
  0
LINE
  8
_0-f_
  6
CONTINUOUS
 62
    7
 10
399.79209754785546
 20
278.29890033534741
 11
399.79209754785546
 21
278.35754033534749
  0
LINE
  8
_0-f_
  6
CONTINUOUS
 62
    7
 10
400.52489754785552
 20
277.82682033534746
 11
400.52489754785552
 21
277.96826033534745
  0
LINE
  8
_0-f_
  6
CONTINUOUS
 62
    7
 10
401.00651354785555
 20
279.73877233534745
 11
401.00651354785555
 21
279.29893233534744
  0
LINE
  8
_0-f_
  6
CONTINUOUS
 62
    7
 10
398.74330554785558
 20
281.38726033534749
 11
401.00651354785555
 21
280.8268683353474
  0
LINE
  8
_0-f_
  6
CONTINUOUS
 62
    7
 10
398.87932154785557
 20
281.79546833534744
 11
401.00651354785555
 21
281.26690033534749
  0
ARC
  8
_0-f_
  6
CONTINUOUS
 62
    7
 10
398.60648954785563
 20
280.62686033534749
 40
1.2000000000000004
 50
76.866900000000015
 51
103.133
  0
ARC
  8
_0-f_
  6
CONTINUOUS
 62
    7
 10
398.60648954785563
 20
280.80302833534745
 40
0.6000000000000002
 50
76.866900000000015
 51
103.133
  0
LINE
  8
_0-f_
  6
CONTINUOUS
 62
    7
 10
400.3120975478555
 20
280.65889233534745
 11
400.3120975478555
 21
280.21885233534749
  0
LINE
  8
_0-f_
  6
CONTINUOUS
 62
    7
 10
401.00651354785555
 20
281.26690033534749
 11
401.00651354785555
 21
280.82686033534742
  0
LINE
  8
_0-f_
  6
CONTINUOUS
 62
    7
 10
404.16109146057454
 20
281.82686033534748
 11
401.40108346057457
 21
281.82686033534748
  0
LINE
  8
_0-f_
  6
CONTINUOUS
 62
    7
 10
401.40108346057457
 20
281.82686033534748
 11
401.40108346057457
 21
281.38682033534747
  0
LINE
  8
_0-f_
  6
CONTINUOUS
 62
    7
 10
401.40108346057457
 20
281.38682033534747
 11
404.16109146057454
 21
281.38682033534747
  0
LINE
  8
_0-f_
  6
CONTINUOUS
 62
    7
 10
404.16109146057454
 20
281.38682033534747
 11
404.16109146057454
 21
281.82686033534748
  0
LINE
  8
_0-f_
  6
CONTINUOUS
 62
    7
 10
404.16109146057454
 20
280.70694033534744
 11
401.40108346057457
 21
280.70694033534744
  0
LINE
  8
_0-f_
  6
CONTINUOUS
 62
    7
 10
401.40108346057457
 20
280.70694033534744
 11
401.40108346057457
 21
280.26690033534749
  0
LINE
  8
_0-f_
  6
CONTINUOUS
 62
    7
 10
401.40108346057457
 20
280.26690033534749
 11
402.51709946057463
 21
280.26690033534749
  0
LINE
  8
_0-f_
  6
CONTINUOUS
 62
    7
 10
402.51709946057463
 20
280.26690033534749
 11
402.51709946057463
 21
277.82682033534746
  0
LINE
  8
_0-f_
  6
CONTINUOUS
 62
    7
 10
402.51709946057463
 20
277.82682033534746
 11
403.0450914605745
 21
277.82682033534746
  0
LINE
  8
_0-f_
  6
CONTINUOUS
 62
    7
 10
403.0450914605745
 20
277.82682033534746
 11
403.0450914605745
 21
280.26690033534749
  0
LINE
  8
_0-f_
  6
CONTINUOUS
 62
    7
 10
403.0450914605745
 20
280.26690033534749
 11
404.16109146057454
 21
280.26690033534749
  0
LINE
  8
_0-f_
  6
CONTINUOUS
 62
    7
 10
404.16109146057454
 20
280.26690033534749
 11
404.16109146057454
 21
280.70694033534744
  0
LINE
  8
_0-f_
  6
CONTINUOUS
 62
    7
 10
401.61708346057458
 20
279.78682033534744
 11
401.61708346057458
 21
278.46850031535098
  0
ARC
  8
_0-f_
  6
CONTINUOUS
 62
    7
 10
401.45709146057459
 20
278.46690033534742
 40
0.1600000000000022
 50
270
 51
0.5729601837918403
  0
LINE
  8
_0-f_
  6
CONTINUOUS
 62
    7
 10
401.45709146057459
 20
278.30690033534745
 11
401.40108346057457
 21
278.30690033534745
  0
LINE
  8
_0-f_
  6
CONTINUOUS
 62
    7
 10
401.40108346057457
 20
278.30690033534745
 11
401.40108346057457
 21
277.82682033534746
  0
LINE
  8
_0-f_
  6
CONTINUOUS
 62
    7
 10
401.40108346057457
 20
277.82682033534746
 11
401.6970914605746
 21
277.82682033534746
  0
ARC
  8
_0-f_
  6
CONTINUOUS
 62
    7
 10
401.6970914605746
 20
278.22682033534744
 40
0.4
 50
270
 51
0
  0
LINE
  8
_0-f_
  6
CONTINUOUS
 62
    7
 10
402.09709146057457
 20
278.22682033534744
 11
402.09709146057457
 21
279.78682033534744
  0
LINE
  8
_0-f_
  6
CONTINUOUS
 62
    7
 10
402.09709146057457
 20
279.78682033534744
 11
401.61708346057458
 21
279.78682033534744
  0
LINE
  8
_0-f_
  6
CONTINUOUS
 62
    7
 10
403.46509946057461
 20
279.78682033534744
 11
403.46509946057461
 21
278.22324266236524
  0
ARC
  8
_0-f_
  6
CONTINUOUS
 62
    7
 10
403.86508346057462
 20
278.22682033534744
 40
0.4
 50
180.51247073885855
 51
270
  0
LINE
  8
_0-f_
  6
CONTINUOUS
 62
    7
 10
403.86508346057462
 20
277.82682033534746
 11
404.16109146057454
 21
277.82682033534746
  0
LINE
  8
_0-f_
  6
CONTINUOUS
 62
    7
 10
404.16109146057454
 20
277.82682033534746
 11
404.16109146057454
 21
278.30690033534745
  0
LINE
  8
_0-f_
  6
CONTINUOUS
 62
    7
 10
404.16109146057454
 20
278.30690033534745
 11
404.10508346057458
 21
278.30690033534745
  0
ARC
  8
_0-f_
  6
CONTINUOUS
 62
    7
 10
404.10508346057458
 20
278.46690033534742
 40
0.1600000000000022
 50
179.42703981620815
 51
270
  0
LINE
  8
_0-f_
  6
CONTINUOUS
 62
    7
 10
403.94509146057464
 20
278.46850031535098
 11
403.94509146057464
 21
279.78682033534744
  0
LINE
  8
_0-f_
  6
CONTINUOUS
 62
    7
 10
403.94509146057464
 20
279.78682033534744
 11
403.46509946057461
 21
279.78682033534744
  0
LINE
  8
_0-f_
  6
CONTINUOUS
 62
    7
 10
405.58109946057471
 20
280.46690033534742
 11
406.20109146057467
 21
280.46690033534742
  0
LINE
  8
_0-f_
  6
CONTINUOUS
 62
    7
 10
406.20109146057467
 20
280.46690033534742
 11
406.20109146057467
 21
280.90694033534743
  0
LINE
  8
_0-f_
  6
CONTINUOUS
 62
    7
 10
406.20109146057467
 20
280.90694033534743
 11
405.58109946057471
 21
280.90694033534749
  0
LINE
  8
_0-f_
  6
CONTINUOUS
 62
    7
 10
405.58109946057471
 20
280.90694033534749
 11
405.58109946057471
 21
281.82686033534748
  0
LINE
  8
_0-f_
  6
CONTINUOUS
 62
    7
 10
405.58109946057471
 20
281.82686033534748
 11
405.14109946057459
 21
281.82686033534748
  0
LINE
  8
_0-f_
  6
CONTINUOUS
 62
    7
 10
405.14109946057459
 20
281.82686033534748
 11
405.14109946057459
 21
280.90694033534749
  0
LINE
  8
_0-f_
  6
CONTINUOUS
 62
    7
 10
405.14109946057459
 20
280.90694033534749
 11
404.56109146057463
 21
280.90694033534749
  0
LINE
  8
_0-f_
  6
CONTINUOUS
 62
    7
 10
404.56109146057463
 20
280.90694033534749
 11
404.56109146057463
 21
280.46690033534742
  0
LINE
  8
_0-f_
  6
CONTINUOUS
 62
    7
 10
404.56109146057463
 20
280.46690033534742
 11
405.14109946057465
 21
280.46690033534742
  0
LINE
  8
_0-f_
  6
CONTINUOUS
 62
    7
 10
405.14109946057465
 20
280.46690033534742
 11
405.14109946057459
 21
278.30690033534745
  0
LINE
  8
_0-f_
  6
CONTINUOUS
 62
    7
 10
405.14109946057459
 20
278.30690033534745
 11
404.56109146057463
 21
278.30690033534745
  0
LINE
  8
_0-f_
  6
CONTINUOUS
 62
    7
 10
404.56109146057463
 20
278.30690033534745
 11
404.56109146057463
 21
277.82682033534746
  0
LINE
  8
_0-f_
  6
CONTINUOUS
 62
    7
 10
404.56109146057463
 20
277.82682033534746
 11
406.20109146057467
 21
277.82682033534746
  0
LINE
  8
_0-f_
  6
CONTINUOUS
 62
    7
 10
406.20109146057467
 20
277.82682033534746
 11
406.20109146057467
 21
278.30690033534745
  0
LINE
  8
_0-f_
  6
CONTINUOUS
 62
    7
 10
406.20109146057467
 20
278.30690033534745
 11
405.58109946057471
 21
278.30690033534745
  0
LINE
  8
_0-f_
  6
CONTINUOUS
 62
    7
 10
405.58109946057471
 20
278.30690033534745
 11
405.58109946057471
 21
280.46690033534742
  0
LINE
  8
_0-f_
  6
CONTINUOUS
 62
    7
 10
405.58109946057471
 20
279.78682033534744
 11
405.14109946057442
 21
279.78682033534744
  0
LINE
  8
_0-f_
  6
CONTINUOUS
 62
    7
 10
403.94509146057447
 20
279.78682033534744
 11
403.46509946057461
 21
279.78682033534744
  0
LINE
  8
_0-f_
  6
CONTINUOUS
 62
    7
 10
403.0450914605745
 20
279.78682033534744
 11
402.51709946057463
 21
279.78682033534744
  0
LINE
  8
_0-f_
  6
CONTINUOUS
 62
    7
 10
402.09709146057457
 20
279.78682033534744
 11
401.61708346057452
 21
279.78682033534744
  0
LINE
  8
_0-f_
  6
CONTINUOUS
 62
    7
 10
405.58109946057471
 20
279.86682033534748
 11
405.14109946057442
 21
279.86682033534748
  0
LINE
  8
_0-f_
  6
CONTINUOUS
 62
    7
 10
403.0450914605745
 20
279.86682033534748
 11
402.51709946057463
 21
279.86682033534748
  0
LINE
  8
_0-f_
  6
CONTINUOUS
 62
    7
 10
405.58109946057471
 20
279.94682033534741
 11
405.14109946057442
 21
279.94682033534741
  0
LINE
  8
_0-f_
  6
CONTINUOUS
 62
    7
 10
403.0450914605745
 20
279.94682033534741
 11
402.51709946057463
 21
279.94682033534741
  0
LINE
  8
_0-f_
  6
CONTINUOUS
 62
    7
 10
405.58109946057471
 20
280.02682033534745
 11
405.14109946057442
 21
280.02682033534745
  0
LINE
  8
_0-f_
  6
CONTINUOUS
 62
    7
 10
403.0450914605745
 20
280.02682033534745
 11
402.51709946057463
 21
280.02682033534745
  0
LINE
  8
_0-f_
  6
CONTINUOUS
 62
    7
 10
405.58109946057471
 20
280.10682033534744
 11
405.14109946057442
 21
280.10682033534744
  0
LINE
  8
_0-f_
  6
CONTINUOUS
 62
    7
 10
403.0450914605745
 20
280.10682033534744
 11
402.51709946057463
 21
280.10682033534744
  0
LINE
  8
_0-f_
  6
CONTINUOUS
 62
    7
 10
405.58109946057471
 20
280.18682033534742
 11
405.14109946057442
 21
280.18682033534742
  0
LINE
  8
_0-f_
  6
CONTINUOUS
 62
    7
 10
403.0450914605745
 20
280.18682033534742
 11
402.51709946057463
 21
280.18682033534742
  0
LINE
  8
_0-f_
  6
CONTINUOUS
 62
    7
 10
405.58109946057471
 20
280.26682033534746
 11
405.14109946057442
 21
280.26682033534746
  0
LINE
  8
_0-f_
  6
CONTINUOUS
 62
    7
 10
403.0450914605745
 20
280.26682033534746
 11
402.51709946057463
 21
280.26682033534746
  0
LINE
  8
_0-f_
  6
CONTINUOUS
 62
    7
 10
405.58109946057471
 20
280.3468203353475
 11
405.14109946057442
 21
280.3468203353475
  0
LINE
  8
_0-f_
  6
CONTINUOUS
 62
    7
 10
404.16109146057454
 20
280.3468203353475
 11
401.40108346057445
 21
280.3468203353475
  0
LINE
  8
_0-f_
  6
CONTINUOUS
 62
    7
 10
405.58109946057471
 20
280.42682033534749
 11
405.14109946057442
 21
280.42682033534749
  0
LINE
  8
_0-f_
  6
CONTINUOUS
 62
    7
 10
404.16109146057454
 20
280.42682033534749
 11
401.40108346057445
 21
280.42682033534749
  0
LINE
  8
_0-f_
  6
CONTINUOUS
 62
    7
 10
406.20109146057473
 20
280.50682033534747
 11
404.56109146057452
 21
280.50682033534747
  0
LINE
  8
_0-f_
  6
CONTINUOUS
 62
    7
 10
404.16109146057454
 20
280.50682033534747
 11
401.40108346057445
 21
280.50682033534747
  0
LINE
  8
_0-f_
  6
CONTINUOUS
 62
    7
 10
406.20109146057473
 20
280.58682033534751
 11
404.56109146057452
 21
280.58682033534751
  0
LINE
  8
_0-f_
  6
CONTINUOUS
 62
    7
 10
404.16109146057454
 20
280.58682033534751
 11
401.40108346057445
 21
280.58682033534751
  0
LINE
  8
_0-f_
  6
CONTINUOUS
 62
    7
 10
406.20109146057473
 20
280.66682033534744
 11
404.56109146057452
 21
280.66682033534744
  0
LINE
  8
_0-f_
  6
CONTINUOUS
 62
    7
 10
404.16109146057454
 20
280.66682033534744
 11
401.40108346057445
 21
280.66682033534744
  0
LINE
  8
_0-f_
  6
CONTINUOUS
 62
    7
 10
406.20109146057473
 20
280.74682033534748
 11
404.56109146057452
 21
280.74682033534748
  0
LINE
  8
_0-f_
  6
CONTINUOUS
 62
    7
 10
406.20109146057473
 20
280.82682033534746
 11
404.56109146057452
 21
280.82682033534746
  0
LINE
  8
_0-f_
  6
CONTINUOUS
 62
    7
 10
406.20109146057473
 20
280.90682033534745
 11
404.56109146057452
 21
280.90682033534745
  0
LINE
  8
_0-f_
  6
CONTINUOUS
 62
    7
 10
405.58109946057471
 20
280.98682033534749
 11
405.14109946057465
 21
280.98682033534749
  0
LINE
  8
_0-f_
  6
CONTINUOUS
 62
    7
 10
405.58109946057471
 20
281.06682033534742
 11
405.14109946057465
 21
281.06682033534742
  0
LINE
  8
_0-f_
  6
CONTINUOUS
 62
    7
 10
405.58109946057471
 20
281.14682033534746
 11
405.14109946057465
 21
281.14682033534746
  0
LINE
  8
_0-f_
  6
CONTINUOUS
 62
    7
 10
405.58109946057471
 20
281.2268203353475
 11
405.14109946057465
 21
281.2268203353475
  0
LINE
  8
_0-f_
  6
CONTINUOUS
 62
    7
 10
405.58109946057471
 20
281.30682033534742
 11
405.14109946057465
 21
281.30682033534742
  0
LINE
  8
_0-f_
  6
CONTINUOUS
 62
    7
 10
405.58109946057471
 20
281.38682033534747
 11
405.14109946057465
 21
281.38682033534747
  0
LINE
  8
_0-f_
  6
CONTINUOUS
 62
    7
 10
404.16109146057454
 20
281.38682033534747
 11
401.40108346057445
 21
281.38682033534747
  0
LINE
  8
_0-f_
  6
CONTINUOUS
 62
    7
 10
405.58109946057471
 20
281.46682033534751
 11
405.14109946057465
 21
281.46682033534751
  0
LINE
  8
_0-f_
  6
CONTINUOUS
 62
    7
 10
404.16109146057454
 20
281.46682033534751
 11
401.40108346057445
 21
281.46682033534751
  0
LINE
  8
_0-f_
  6
CONTINUOUS
 62
    7
 10
405.58109946057471
 20
281.54682033534749
 11
405.14109946057465
 21
281.54682033534749
  0
LINE
  8
_0-f_
  6
CONTINUOUS
 62
    7
 10
404.16109146057454
 20
281.54682033534749
 11
401.40108346057445
 21
281.54682033534749
  0
LINE
  8
_0-f_
  6
CONTINUOUS
 62
    7
 10
405.58109946057471
 20
281.62682033534747
 11
405.14109946057465
 21
281.62682033534747
  0
LINE
  8
_0-f_
  6
CONTINUOUS
 62
    7
 10
404.16109146057454
 20
281.62682033534747
 11
401.40108346057445
 21
281.62682033534747
  0
LINE
  8
_0-f_
  6
CONTINUOUS
 62
    7
 10
405.58109946057471
 20
281.70682033534752
 11
405.14109946057465
 21
281.70682033534752
  0
LINE
  8
_0-f_
  6
CONTINUOUS
 62
    7
 10
404.16109146057454
 20
281.70682033534752
 11
401.40108346057445
 21
281.70682033534752
  0
LINE
  8
_0-f_
  6
CONTINUOUS
 62
    7
 10
405.58109946057471
 20
281.78682033534744
 11
405.14109946057465
 21
281.78682033534744
  0
LINE
  8
_0-f_
  6
CONTINUOUS
 62
    7
 10
404.16109146057454
 20
281.78682033534744
 11
401.40108346057445
 21
281.78682033534744
  0
LINE
  8
_0-f_
  6
CONTINUOUS
 62
    7
 10
405.58109946057471
 20
279.70682033534746
 11
405.14109946057442
 21
279.70682033534746
  0
LINE
  8
_0-f_
  6
CONTINUOUS
 62
    7
 10
403.94509146057447
 20
279.70682033534746
 11
403.46509946057461
 21
279.70682033534746
  0
LINE
  8
_0-f_
  6
CONTINUOUS
 62
    7
 10
403.0450914605745
 20
279.70682033534746
 11
402.51709946057463
 21
279.70682033534746
  0
LINE
  8
_0-f_
  6
CONTINUOUS
 62
    7
 10
402.09709146057457
 20
279.70682033534746
 11
401.61708346057452
 21
279.70682033534746
  0
LINE
  8
_0-f_
  6
CONTINUOUS
 62
    7
 10
405.58109946057471
 20
279.62682033534747
 11
405.14109946057442
 21
279.62682033534747
  0
LINE
  8
_0-f_
  6
CONTINUOUS
 62
    7
 10
403.94509146057447
 20
279.62682033534747
 11
403.46509946057461
 21
279.62682033534747
  0
LINE
  8
_0-f_
  6
CONTINUOUS
 62
    7
 10
403.0450914605745
 20
279.62682033534747
 11
402.51709946057463
 21
279.62682033534747
  0
LINE
  8
_0-f_
  6
CONTINUOUS
 62
    7
 10
402.09709146057457
 20
279.62682033534747
 11
401.61708346057452
 21
279.62682033534747
  0
LINE
  8
_0-f_
  6
CONTINUOUS
 62
    7
 10
405.58109946057471
 20
279.54682033534743
 11
405.14109946057442
 21
279.54682033534743
  0
LINE
  8
_0-f_
  6
CONTINUOUS
 62
    7
 10
403.94509146057447
 20
279.54682033534743
 11
403.46509946057461
 21
279.54682033534743
  0
LINE
  8
_0-f_
  6
CONTINUOUS
 62
    7
 10
403.0450914605745
 20
279.54682033534743
 11
402.51709946057463
 21
279.54682033534743
  0
LINE
  8
_0-f_
  6
CONTINUOUS
 62
    7
 10
402.09709146057457
 20
279.54682033534743
 11
401.61708346057452
 21
279.54682033534743
  0
LINE
  8
_0-f_
  6
CONTINUOUS
 62
    7
 10
405.58109946057471
 20
279.46682033534739
 11
405.14109946057442
 21
279.46682033534739
  0
LINE
  8
_0-f_
  6
CONTINUOUS
 62
    7
 10
403.94509146057447
 20
279.46682033534739
 11
403.46509946057461
 21
279.46682033534739
  0
LINE
  8
_0-f_
  6
CONTINUOUS
 62
    7
 10
403.0450914605745
 20
279.46682033534739
 11
402.51709946057463
 21
279.46682033534739
  0
LINE
  8
_0-f_
  6
CONTINUOUS
 62
    7
 10
402.09709146057457
 20
279.46682033534739
 11
401.61708346057452
 21
279.46682033534739
  0
LINE
  8
_0-f_
  6
CONTINUOUS
 62
    7
 10
405.58109946057471
 20
279.38682033534747
 11
405.14109946057442
 21
279.38682033534747
  0
LINE
  8
_0-f_
  6
CONTINUOUS
 62
    7
 10
403.94509146057447
 20
279.38682033534747
 11
403.46509946057461
 21
279.38682033534747
  0
LINE
  8
_0-f_
  6
CONTINUOUS
 62
    7
 10
403.0450914605745
 20
279.38682033534747
 11
402.51709946057463
 21
279.38682033534747
  0
LINE
  8
_0-f_
  6
CONTINUOUS
 62
    7
 10
402.09709146057457
 20
279.38682033534747
 11
401.61708346057452
 21
279.38682033534747
  0
LINE
  8
_0-f_
  6
CONTINUOUS
 62
    7
 10
405.58109946057471
 20
279.30682033534742
 11
405.14109946057442
 21
279.30682033534742
  0
LINE
  8
_0-f_
  6
CONTINUOUS
 62
    7
 10
403.94509146057447
 20
279.30682033534742
 11
403.46509946057461
 21
279.30682033534742
  0
LINE
  8
_0-f_
  6
CONTINUOUS
 62
    7
 10
403.0450914605745
 20
279.30682033534742
 11
402.51709946057463
 21
279.30682033534742
  0
LINE
  8
_0-f_
  6
CONTINUOUS
 62
    7
 10
402.09709146057457
 20
279.30682033534742
 11
401.61708346057452
 21
279.30682033534742
  0
LINE
  8
_0-f_
  6
CONTINUOUS
 62
    7
 10
405.58109946057471
 20
279.22682033534738
 11
405.14109946057442
 21
279.22682033534738
  0
LINE
  8
_0-f_
  6
CONTINUOUS
 62
    7
 10
403.94509146057447
 20
279.22682033534738
 11
403.46509946057461
 21
279.22682033534738
  0
LINE
  8
_0-f_
  6
CONTINUOUS
 62
    7
 10
403.0450914605745
 20
279.22682033534738
 11
402.51709946057463
 21
279.22682033534738
  0
LINE
  8
_0-f_
  6
CONTINUOUS
 62
    7
 10
402.09709146057457
 20
279.22682033534738
 11
401.61708346057452
 21
279.22682033534738
  0
LINE
  8
_0-f_
  6
CONTINUOUS
 62
    7
 10
405.58109946057471
 20
279.14682033534746
 11
405.14109946057442
 21
279.14682033534746
  0
LINE
  8
_0-f_
  6
CONTINUOUS
 62
    7
 10
403.94509146057447
 20
279.14682033534746
 11
403.46509946057461
 21
279.14682033534746
  0
LINE
  8
_0-f_
  6
CONTINUOUS
 62
    7
 10
403.0450914605745
 20
279.14682033534746
 11
402.51709946057463
 21
279.14682033534746
  0
LINE
  8
_0-f_
  6
CONTINUOUS
 62
    7
 10
402.09709146057457
 20
279.14682033534746
 11
401.61708346057452
 21
279.14682033534746
  0
LINE
  8
_0-f_
  6
CONTINUOUS
 62
    7
 10
405.58109946057471
 20
279.06682033534742
 11
405.14109946057442
 21
279.06682033534742
  0
LINE
  8
_0-f_
  6
CONTINUOUS
 62
    7
 10
403.94509146057447
 20
279.06682033534742
 11
403.46509946057461
 21
279.06682033534742
  0
LINE
  8
_0-f_
  6
CONTINUOUS
 62
    7
 10
403.0450914605745
 20
279.06682033534742
 11
402.51709946057463
 21
279.06682033534742
  0
LINE
  8
_0-f_
  6
CONTINUOUS
 62
    7
 10
402.09709146057457
 20
279.06682033534742
 11
401.61708346057452
 21
279.06682033534742
  0
LINE
  8
_0-f_
  6
CONTINUOUS
 62
    7
 10
405.58109946057471
 20
278.98682033534743
 11
405.14109946057442
 21
278.98682033534743
  0
LINE
  8
_0-f_
  6
CONTINUOUS
 62
    7
 10
403.94509146057447
 20
278.98682033534743
 11
403.46509946057461
 21
278.98682033534743
  0
LINE
  8
_0-f_
  6
CONTINUOUS
 62
    7
 10
403.0450914605745
 20
278.98682033534743
 11
402.51709946057463
 21
278.98682033534743
  0
LINE
  8
_0-f_
  6
CONTINUOUS
 62
    7
 10
402.09709146057457
 20
278.98682033534743
 11
401.61708346057452
 21
278.98682033534743
  0
LINE
  8
_0-f_
  6
CONTINUOUS
 62
    7
 10
405.58109946057471
 20
278.90682033534745
 11
405.14109946057442
 21
278.90682033534745
  0
LINE
  8
_0-f_
  6
CONTINUOUS
 62
    7
 10
403.94509146057447
 20
278.90682033534745
 11
403.46509946057461
 21
278.90682033534745
  0
LINE
  8
_0-f_
  6
CONTINUOUS
 62
    7
 10
403.0450914605745
 20
278.90682033534745
 11
402.51709946057463
 21
278.90682033534745
  0
LINE
  8
_0-f_
  6
CONTINUOUS
 62
    7
 10
402.09709146057457
 20
278.90682033534745
 11
401.61708346057452
 21
278.90682033534745
  0
LINE
  8
_0-f_
  6
CONTINUOUS
 62
    7
 10
405.58109946057471
 20
278.82682033534741
 11
405.14109946057442
 21
278.82682033534741
  0
LINE
  8
_0-f_
  6
CONTINUOUS
 62
    7
 10
403.94509146057447
 20
278.82682033534741
 11
403.46509946057461
 21
278.82682033534741
  0
LINE
  8
_0-f_
  6
CONTINUOUS
 62
    7
 10
403.0450914605745
 20
278.82682033534741
 11
402.51709946057463
 21
278.82682033534741
  0
LINE
  8
_0-f_
  6
CONTINUOUS
 62
    7
 10
402.09709146057457
 20
278.82682033534741
 11
401.61708346057452
 21
278.82682033534741
  0
LINE
  8
_0-f_
  6
CONTINUOUS
 62
    7
 10
405.58109946057471
 20
278.74682033534748
 11
405.14109946057442
 21
278.74682033534748
  0
LINE
  8
_0-f_
  6
CONTINUOUS
 62
    7
 10
403.94509146057447
 20
278.74682033534748
 11
403.46509946057461
 21
278.74682033534748
  0
LINE
  8
_0-f_
  6
CONTINUOUS
 62
    7
 10
403.0450914605745
 20
278.74682033534748
 11
402.51709946057463
 21
278.74682033534748
  0
LINE
  8
_0-f_
  6
CONTINUOUS
 62
    7
 10
402.09709146057457
 20
278.74682033534748
 11
401.61708346057452
 21
278.74682033534748
  0
LINE
  8
_0-f_
  6
CONTINUOUS
 62
    7
 10
405.58109946057471
 20
278.66682033534744
 11
405.14109946057442
 21
278.66682033534744
  0
LINE
  8
_0-f_
  6
CONTINUOUS
 62
    7
 10
403.94509146057447
 20
278.66682033534744
 11
403.46509946057461
 21
278.66682033534744
  0
LINE
  8
_0-f_
  6
CONTINUOUS
 62
    7
 10
403.0450914605745
 20
278.66682033534744
 11
402.51709946057463
 21
278.66682033534744
  0
LINE
  8
_0-f_
  6
CONTINUOUS
 62
    7
 10
402.09709146057457
 20
278.66682033534744
 11
401.61708346057452
 21
278.66682033534744
  0
LINE
  8
_0-f_
  6
CONTINUOUS
 62
    7
 10
405.58109946057471
 20
278.58682033534745
 11
405.14109946057442
 21
278.58682033534745
  0
LINE
  8
_0-f_
  6
CONTINUOUS
 62
    7
 10
403.94509146057447
 20
278.58682033534745
 11
403.46509946057461
 21
278.58682033534745
  0
LINE
  8
_0-f_
  6
CONTINUOUS
 62
    7
 10
403.0450914605745
 20
278.58682033534745
 11
402.51709946057463
 21
278.58682033534745
  0
LINE
  8
_0-f_
  6
CONTINUOUS
 62
    7
 10
402.09709146057457
 20
278.58682033534745
 11
401.61708346057452
 21
278.58682033534745
  0
LINE
  8
_0-f_
  6
CONTINUOUS
 62
    7
 10
405.58109946057471
 20
278.50682033534747
 11
405.14109946057442
 21
278.50682033534747
  0
LINE
  8
_0-f_
  6
CONTINUOUS
 62
    7
 10
403.94509146057447
 20
278.50682033534747
 11
403.46509946057461
 21
278.50682033534747
  0
LINE
  8
_0-f_
  6
CONTINUOUS
 62
    7
 10
403.0450914605745
 20
278.50682033534747
 11
402.51709946057463
 21
278.50682033534747
  0
LINE
  8
_0-f_
  6
CONTINUOUS
 62
    7
 10
402.09709146057457
 20
278.50682033534747
 11
401.61708346057452
 21
278.50682033534747
  0
LINE
  8
_0-f_
  6
CONTINUOUS
 62
    7
 10
405.58109946057471
 20
278.42682033534743
 11
405.14109946057442
 21
278.42682033534743
  0
LINE
  8
_0-f_
  6
CONTINUOUS
 62
    7
 10
403.95062889760948
 20
278.42682033534743
 11
403.46509946057461
 21
278.42682033534743
  0
LINE
  8
_0-f_
  6
CONTINUOUS
 62
    7
 10
403.0450914605745
 20
278.42682033534743
 11
402.51709946057463
 21
278.42682033534743
  0
LINE
  8
_0-f_
  6
CONTINUOUS
 62
    7
 10
402.09709146057457
 20
278.42682033534743
 11
401.61150826244261
 21
278.42682033534743
  0
LINE
  8
_0-f_
  6
CONTINUOUS
 62
    7
 10
405.58109946057471
 20
278.34682033534739
 11
405.14109946057442
 21
278.34682033534739
  0
LINE
  8
_0-f_
  6
CONTINUOUS
 62
    7
 10
404.00009255541516
 20
278.34682033534739
 11
403.46509946057461
 21
278.34682033534739
  0
LINE
  8
_0-f_
  6
CONTINUOUS
 62
    7
 10
403.0450914605745
 20
278.34682033534739
 11
402.51709946057463
 21
278.34682033534739
  0
LINE
  8
_0-f_
  6
CONTINUOUS
 62
    7
 10
402.09709146057457
 20
278.34682033534739
 11
401.56209913470536
 21
278.34682033534739
  0
LINE
  8
_0-f_
  6
CONTINUOUS
 62
    7
 10
406.2010914605745
 20
278.2668203353474
 11
404.56109146057474
 21
278.2668203353474
  0
LINE
  8
_0-f_
  6
CONTINUOUS
 62
    7
 10
404.16109146057437
 20
278.2668203353474
 11
403.46509946057461
 21
278.2668203353474
  0
LINE
  8
_0-f_
  6
CONTINUOUS
 62
    7
 10
403.0450914605745
 20
278.2668203353474
 11
402.51709946057463
 21
278.2668203353474
  0
LINE
  8
_0-f_
  6
CONTINUOUS
 62
    7
 10
402.09709146057457
 20
278.2668203353474
 11
401.40108346057463
 21
278.2668203353474
  0
LINE
  8
_0-f_
  6
CONTINUOUS
 62
    7
 10
406.2010914605745
 20
278.18682033534742
 11
404.56109146057474
 21
278.18682033534742
  0
LINE
  8
_0-f_
  6
CONTINUOUS
 62
    7
 10
404.16109146057437
 20
278.18682033534742
 11
403.46829435249458
 21
278.18682033534742
  0
LINE
  8
_0-f_
  6
CONTINUOUS
 62
    7
 10
403.0450914605745
 20
278.18682033534742
 11
402.51709946057463
 21
278.18682033534742
  0
LINE
  8
_0-f_
  6
CONTINUOUS
 62
    7
 10
402.09394327572852
 20
278.18682033534742
 11
401.40108346057463
 21
278.18682033534742
  0
LINE
  8
_0-f_
  6
CONTINUOUS
 62
    7
 10
406.2010914605745
 20
278.10682033534738
 11
404.56109146057474
 21
278.10682033534738
  0
LINE
  8
_0-f_
  6
CONTINUOUS
 62
    7
 10
404.16109146057437
 20
278.10682033534738
 11
403.48403395431671
 21
278.10682033534738
  0
LINE
  8
_0-f_
  6
CONTINUOUS
 62
    7
 10
403.0450914605745
 20
278.10682033534738
 11
402.51709946057463
 21
278.10682033534738
  0
LINE
  8
_0-f_
  6
CONTINUOUS
 62
    7
 10
402.07838005846094
 20
278.10682033534738
 11
401.40108346057463
 21
278.10682033534738
  0
LINE
  8
_0-f_
  6
CONTINUOUS
 62
    7
 10
406.2010914605745
 20
278.02682033534745
 11
404.56109146057474
 21
278.02682033534745
  0
LINE
  8
_0-f_
  6
CONTINUOUS
 62
    7
 10
404.16109146057437
 20
278.02682033534745
 11
403.51983724211846
 21
278.02682033534745
  0
LINE
  8
_0-f_
  6
CONTINUOUS
 62
    7
 10
403.0450914605745
 20
278.02682033534745
 11
402.51709946057463
 21
278.02682033534745
  0
LINE
  8
_0-f_
  6
CONTINUOUS
 62
    7
 10
402.04221598592824
 20
278.02682033534745
 11
401.40108346057463
 21
278.02682033534745
  0
LINE
  8
_0-f_
  6
CONTINUOUS
 62
    7
 10
406.2010914605745
 20
277.94682033534741
 11
404.56109146057474
 21
277.94682033534741
  0
LINE
  8
_0-f_
  6
CONTINUOUS
 62
    7
 10
404.16109146057437
 20
277.94682033534741
 11
403.58012014614894
 21
277.94682033534741
  0
LINE
  8
_0-f_
  6
CONTINUOUS
 62
    7
 10
403.0450914605745
 20
277.94682033534741
 11
402.51709946057463
 21
277.94682033534741
  0
LINE
  8
_0-f_
  6
CONTINUOUS
 62
    7
 10
401.98236188485004
 20
277.94682033534741
 11
401.40108346057463
 21
277.94682033534741
  0
LINE
  8
_0-f_
  6
CONTINUOUS
 62
    7
 10
406.2010914605745
 20
277.86682033534743
 11
404.56109146057474
 21
277.86682033534743
  0
LINE
  8
_0-f_
  6
CONTINUOUS
 62
    7
 10
404.16109146057437
 20
277.86682033534743
 11
403.69160621830662
 21
277.86682033534743
  0
LINE
  8
_0-f_
  6
CONTINUOUS
 62
    7
 10
403.0450914605745
 20
277.86682033534743
 11
402.51709946057463
 21
277.86682033534743
  0
LINE
  8
_0-f_
  6
CONTINUOUS
 62
    7
 10
401.87000211728184
 20
277.86682033534743
 11
401.40108346057463
 21
277.86682033534743
  0
LINE
  8
_0-f_
  6
CONTINUOUS
 62
    7
 10
402.51709946057463
 20
280.26690033534749
 11
402.51709946057463
 21
277.82682033534746
  0
LINE
  8
_0-f_
  6
CONTINUOUS
 62
    7
 10
403.0450914605745
 20
280.26690033534749
 11
403.0450914605745
 21
277.82682033534746
  0
LINE
  8
_0-f_
  6
CONTINUOUS
 62
    7
 10
401.61708346057458
 20
279.78682033534744
 11
401.61708346057458
 21
278.46690033534742
  0
LINE
  8
_0-f_
  6
CONTINUOUS
 62
    7
 10
402.09709146057457
 20
279.78682033534744
 11
402.09709146057457
 21
278.22682033534744
  0
ARC
  8
_0-f_
  6
CONTINUOUS
 62
    7
 10
401.45709146057459
 20
278.46690033534742
 40
0.16
 50
270
 51
0
  0
LINE
  8
_0-f_
  6
CONTINUOUS
 62
    7
 10
401.40108346057457
 20
277.82682033534746
 11
401.6970914605746
 21
277.82682033534746
  0
LINE
  8
_0-f_
  6
CONTINUOUS
 62
    7
 10
401.40108346057457
 20
278.30690033534745
 11
401.45709146057459
 21
278.30690033534745
  0
LINE
  8
_0-f_
  6
CONTINUOUS
 62
    7
 10
401.40108346057457
 20
278.30690033534745
 11
401.40108346057457
 21
277.82682033534746
  0
ARC
  8
_0-f_
  6
CONTINUOUS
 62
    7
 10
401.6970914605746
 20
278.22682033534744
 40
0.4
 50
270
 51
0
  0
LINE
  8
_0-f_
  6
CONTINUOUS
 62
    7
 10
401.61708346057458
 20
279.78682033534744
 11
402.09709146057457
 21
279.78682033534744
  0
LINE
  8
_0-f_
  6
CONTINUOUS
 62
    7
 10
402.51709946057463
 20
277.82682033534746
 11
403.0450914605745
 21
277.82682033534746
  0
LINE
  8
_0-f_
  6
CONTINUOUS
 62
    7
 10
403.46509946057461
 20
279.78682033534744
 11
403.46509946057461
 21
278.22682033534744
  0
LINE
  8
_0-f_
  6
CONTINUOUS
 62
    7
 10
403.94509146057464
 20
279.78682033534744
 11
403.94509146057464
 21
278.46690033534742
  0
ARC
  8
_0-f_
  6
CONTINUOUS
 62
    7
 10
403.86508346057462
 20
278.22682033534744
 40
0.4
 50
180
 51
270
  0
LINE
  8
_0-f_
  6
CONTINUOUS
 62
    7
 10
403.86508346057462
 20
277.82682033534746
 11
404.16109146057454
 21
277.82682033534746
  0
LINE
  8
_0-f_
  6
CONTINUOUS
 62
    7
 10
404.16109146057454
 20
278.30690033534745
 11
404.16109146057454
 21
277.82682033534746
  0
LINE
  8
_0-f_
  6
CONTINUOUS
 62
    7
 10
404.10508346057458
 20
278.30690033534745
 11
404.16109146057454
 21
278.30690033534745
  0
ARC
  8
_0-f_
  6
CONTINUOUS
 62
    7
 10
404.10508346057458
 20
278.46690033534742
 40
0.16
 50
180
 51
270
  0
LINE
  8
_0-f_
  6
CONTINUOUS
 62
    7
 10
403.46509946057461
 20
279.78682033534744
 11
403.94509146057464
 21
279.78682033534744
  0
LINE
  8
_0-f_
  6
CONTINUOUS
 62
    7
 10
401.40108346057457
 20
281.82686033534748
 11
404.16109146057454
 21
281.82686033534748
  0
LINE
  8
_0-f_
  6
CONTINUOUS
 62
    7
 10
401.40108346057457
 20
281.38682033534747
 11
404.16109146057454
 21
281.38682033534747
  0
LINE
  8
_0-f_
  6
CONTINUOUS
 62
    7
 10
401.40108346057457
 20
280.70694033534744
 11
404.16109146057454
 21
280.70694033534744
  0
LINE
  8
_0-f_
  6
CONTINUOUS
 62
    7
 10
401.40108346057457
 20
280.26690033534749
 11
402.51709946057463
 21
280.26690033534749
  0
LINE
  8
_0-f_
  6
CONTINUOUS
 62
    7
 10
401.40108346057457
 20
280.70694033534744
 11
401.40108346057457
 21
280.26690033534749
  0
LINE
  8
_0-f_
  6
CONTINUOUS
 62
    7
 10
401.40108346057457
 20
281.82686033534748
 11
401.40108346057457
 21
281.38682033534747
  0
LINE
  8
_0-f_
  6
CONTINUOUS
 62
    7
 10
403.0450914605745
 20
280.26690033534749
 11
404.16109146057454
 21
280.26690033534749
  0
LINE
  8
_0-f_
  6
CONTINUOUS
 62
    7
 10
404.16109146057454
 20
280.70694033534744
 11
404.16109146057454
 21
280.26690033534749
  0
LINE
  8
_0-f_
  6
CONTINUOUS
 62
    7
 10
404.16109146057454
 20
281.82686033534748
 11
404.16109146057454
 21
281.38682033534747
  0
LINE
  8
_0-f_
  6
CONTINUOUS
 62
    7
 10
405.14109946057459
 20
280.46690033534742
 11
405.14109946057459
 21
278.30690033534745
  0
LINE
  8
_0-f_
  6
CONTINUOUS
 62
    7
 10
405.58109946057471
 20
280.46690033534742
 11
405.58109946057471
 21
278.30690033534745
  0
LINE
  8
_0-f_
  6
CONTINUOUS
 62
    7
 10
404.56109146057463
 20
277.82682033534746
 11
406.20109146057467
 21
277.82682033534746
  0
LINE
  8
_0-f_
  6
CONTINUOUS
 62
    7
 10
404.56109146057463
 20
278.30690033534745
 11
405.14109946057459
 21
278.30690033534745
  0
LINE
  8
_0-f_
  6
CONTINUOUS
 62
    7
 10
404.56109146057463
 20
278.30690033534745
 11
404.56109146057463
 21
277.82682033534746
  0
LINE
  8
_0-f_
  6
CONTINUOUS
 62
    7
 10
406.20109146057467
 20
278.30690033534745
 11
405.58109946057471
 21
278.30690033534745
  0
LINE
  8
_0-f_
  6
CONTINUOUS
 62
    7
 10
406.20109146057467
 20
278.30690033534745
 11
406.20109146057467
 21
277.82682033534746
  0
LINE
  8
_0-f_
  6
CONTINUOUS
 62
    7
 10
405.14109946057459
 20
281.82686033534748
 11
405.58109946057471
 21
281.82686033534748
  0
LINE
  8
_0-f_
  6
CONTINUOUS
 62
    7
 10
405.14109946057459
 20
281.82686033534748
 11
405.14109946057459
 21
280.90694033534749
  0
LINE
  8
_0-f_
  6
CONTINUOUS
 62
    7
 10
404.56109146057463
 20
280.90694033534749
 11
405.14109946057459
 21
280.90694033534749
  0
LINE
  8
_0-f_
  6
CONTINUOUS
 62
    7
 10
404.56109146057463
 20
280.46690033534742
 11
405.14109946057459
 21
280.46690033534742
  0
LINE
  8
_0-f_
  6
CONTINUOUS
 62
    7
 10
404.56109146057463
 20
280.90694033534749
 11
404.56109146057463
 21
280.46690033534742
  0
LINE
  8
_0-f_
  6
CONTINUOUS
 62
    7
 10
405.58109946057471
 20
281.82686033534748
 11
405.58109946057471
 21
280.90694033534749
  0
LINE
  8
_0-f_
  6
CONTINUOUS
 62
    7
 10
406.20109146057467
 20
280.46690033534742
 11
405.58109946057471
 21
280.46690033534742
  0
LINE
  8
_0-f_
  6
CONTINUOUS
 62
    7
 10
405.58109946057471
 20
280.90694033534749
 11
406.20109146057467
 21
280.90694033534749
  0
LINE
  8
_0-f_
  6
CONTINUOUS
 62
    7
 10
406.20109146057467
 20
280.90557233534747
 11
406.20109146057467
 21
280.46690033534742
  0
LINE
  8
_0-f_
  6
CONTINUOUS
 62
    7
 10
378.72444108600973
 20
281.82686033534748
 11
374.56443308600956
 21
281.82686033534748
  0
LINE
  8
_0-f_
  6
CONTINUOUS
 62
    7
 10
374.56443308600956
 20
281.82686033534748
 11
374.56443308600956
 21
281.34678033534743
  0
LINE
  8
_0-f_
  6
CONTINUOUS
 62
    7
 10
374.56443308600956
 20
281.34678033534743
 11
376.24441708600961
 21
281.34678033534749
  0
LINE
  8
_0-f_
  6
CONTINUOUS
 62
    7
 10
376.24441708600961
 20
281.34678033534749
 11
376.24441708600961
 21
278.30690033534745
  0
LINE
  8
_0-f_
  6
CONTINUOUS
 62
    7
 10
376.24441708600961
 20
278.30690033534745
 11
374.24444108600949
 21
278.30690033534745
  0
LINE
  8
_0-f_
  6
CONTINUOUS
 62
    7
 10
374.24444108600949
 20
278.30690033534745
 11
374.24444108600949
 21
277.82682033534746
  0
LINE
  8
_0-f_
  6
CONTINUOUS
 62
    7
 10
374.24444108600949
 20
277.82682033534746
 11
379.04441708600967
 21
277.82682033534746
  0
LINE
  8
_0-f_
  6
CONTINUOUS
 62
    7
 10
379.04441708600967
 20
277.82682033534746
 11
379.04441708600967
 21
278.30690033534745
  0
LINE
  8
_0-f_
  6
CONTINUOUS
 62
    7
 10
379.04441708600967
 20
278.30690033534745
 11
377.04441708600956
 21
278.30690033534745
  0
LINE
  8
_0-f_
  6
CONTINUOUS
 62
    7
 10
377.04441708600956
 20
278.30690033534745
 11
377.04441708600956
 21
281.34678033534743
  0
LINE
  8
_0-f_
  6
CONTINUOUS
 62
    7
 10
377.04441708600956
 20
281.34678033534743
 11
378.72444108600973
 21
281.34678033534749
  0
LINE
  8
_0-f_
  6
CONTINUOUS
 62
    7
 10
378.72444108600973
 20
281.34678033534749
 11
378.72444108600973
 21
281.82686033534748
  0
LINE
  8
_0-f_
  6
CONTINUOUS
 62
    7
 10
377.04441708600956
 20
279.78682033534744
 11
376.24441708600961
 21
279.78682033534744
  0
LINE
  8
_0-f_
  6
CONTINUOUS
 62
    7
 10
377.04441708600956
 20
279.86682033534748
 11
376.24441708600961
 21
279.86682033534748
  0
LINE
  8
_0-f_
  6
CONTINUOUS
 62
    7
 10
377.04441708600956
 20
279.94682033534741
 11
376.24441708600961
 21
279.94682033534741
  0
LINE
  8
_0-f_
  6
CONTINUOUS
 62
    7
 10
377.04441708600956
 20
280.02682033534745
 11
376.24441708600961
 21
280.02682033534745
  0
LINE
  8
_0-f_
  6
CONTINUOUS
 62
    7
 10
377.04441708600956
 20
280.10682033534744
 11
376.24441708600961
 21
280.10682033534744
  0
LINE
  8
_0-f_
  6
CONTINUOUS
 62
    7
 10
377.04441708600956
 20
280.18682033534742
 11
376.24441708600961
 21
280.18682033534742
  0
LINE
  8
_0-f_
  6
CONTINUOUS
 62
    7
 10
377.04441708600956
 20
280.26682033534746
 11
376.24441708600961
 21
280.26682033534746
  0
LINE
  8
_0-f_
  6
CONTINUOUS
 62
    7
 10
377.04441708600956
 20
280.3468203353475
 11
376.24441708600961
 21
280.3468203353475
  0
LINE
  8
_0-f_
  6
CONTINUOUS
 62
    7
 10
377.04441708600956
 20
280.42682033534749
 11
376.24441708600961
 21
280.42682033534749
  0
LINE
  8
_0-f_
  6
CONTINUOUS
 62
    7
 10
377.04441708600956
 20
280.50682033534747
 11
376.24441708600961
 21
280.50682033534747
  0
LINE
  8
_0-f_
  6
CONTINUOUS
 62
    7
 10
377.04441708600956
 20
280.58682033534751
 11
376.24441708600961
 21
280.58682033534751
  0
LINE
  8
_0-f_
  6
CONTINUOUS
 62
    7
 10
377.04441708600956
 20
280.66682033534744
 11
376.24441708600961
 21
280.66682033534744
  0
LINE
  8
_0-f_
  6
CONTINUOUS
 62
    7
 10
377.04441708600956
 20
280.74682033534748
 11
376.24441708600961
 21
280.74682033534748
  0
LINE
  8
_0-f_
  6
CONTINUOUS
 62
    7
 10
377.04441708600956
 20
280.82682033534746
 11
376.24441708600961
 21
280.82682033534746
  0
LINE
  8
_0-f_
  6
CONTINUOUS
 62
    7
 10
377.04441708600956
 20
280.90682033534745
 11
376.24441708600961
 21
280.90682033534745
  0
LINE
  8
_0-f_
  6
CONTINUOUS
 62
    7
 10
377.04441708600956
 20
280.98682033534749
 11
376.24441708600961
 21
280.98682033534749
  0
LINE
  8
_0-f_
  6
CONTINUOUS
 62
    7
 10
377.04441708600956
 20
281.06682033534742
 11
376.24441708600961
 21
281.06682033534742
  0
LINE
  8
_0-f_
  6
CONTINUOUS
 62
    7
 10
377.04441708600956
 20
281.14682033534746
 11
376.24441708600961
 21
281.14682033534746
  0
LINE
  8
_0-f_
  6
CONTINUOUS
 62
    7
 10
377.04441708600956
 20
281.2268203353475
 11
376.24441708600961
 21
281.2268203353475
  0
LINE
  8
_0-f_
  6
CONTINUOUS
 62
    7
 10
377.04441708600956
 20
281.30682033534742
 11
376.24441708600961
 21
281.30682033534742
  0
LINE
  8
_0-f_
  6
CONTINUOUS
 62
    7
 10
378.72444108600956
 20
281.38682033534747
 11
374.56443308600956
 21
281.38682033534747
  0
LINE
  8
_0-f_
  6
CONTINUOUS
 62
    7
 10
378.72444108600956
 20
281.46682033534751
 11
374.56443308600956
 21
281.46682033534751
  0
LINE
  8
_0-f_
  6
CONTINUOUS
 62
    7
 10
378.72444108600956
 20
281.54682033534749
 11
374.56443308600956
 21
281.54682033534749
  0
LINE
  8
_0-f_
  6
CONTINUOUS
 62
    7
 10
378.72444108600956
 20
281.62682033534747
 11
374.56443308600956
 21
281.62682033534747
  0
LINE
  8
_0-f_
  6
CONTINUOUS
 62
    7
 10
378.72444108600956
 20
281.70682033534752
 11
374.56443308600956
 21
281.70682033534752
  0
LINE
  8
_0-f_
  6
CONTINUOUS
 62
    7
 10
378.72444108600956
 20
281.78682033534744
 11
374.56443308600956
 21
281.78682033534744
  0
LINE
  8
_0-f_
  6
CONTINUOUS
 62
    7
 10
377.04441708600956
 20
279.70682033534746
 11
376.24441708600961
 21
279.70682033534746
  0
LINE
  8
_0-f_
  6
CONTINUOUS
 62
    7
 10
377.04441708600956
 20
279.62682033534747
 11
376.24441708600961
 21
279.62682033534747
  0
LINE
  8
_0-f_
  6
CONTINUOUS
 62
    7
 10
377.04441708600956
 20
279.54682033534743
 11
376.24441708600961
 21
279.54682033534743
  0
LINE
  8
_0-f_
  6
CONTINUOUS
 62
    7
 10
377.04441708600956
 20
279.46682033534739
 11
376.24441708600961
 21
279.46682033534739
  0
LINE
  8
_0-f_
  6
CONTINUOUS
 62
    7
 10
377.04441708600956
 20
279.38682033534747
 11
376.24441708600961
 21
279.38682033534747
  0
LINE
  8
_0-f_
  6
CONTINUOUS
 62
    7
 10
377.04441708600956
 20
279.30682033534742
 11
376.24441708600961
 21
279.30682033534742
  0
LINE
  8
_0-f_
  6
CONTINUOUS
 62
    7
 10
377.04441708600956
 20
279.22682033534738
 11
376.24441708600961
 21
279.22682033534738
  0
LINE
  8
_0-f_
  6
CONTINUOUS
 62
    7
 10
377.04441708600956
 20
279.14682033534746
 11
376.24441708600961
 21
279.14682033534746
  0
LINE
  8
_0-f_
  6
CONTINUOUS
 62
    7
 10
377.04441708600956
 20
279.06682033534742
 11
376.24441708600961
 21
279.06682033534742
  0
LINE
  8
_0-f_
  6
CONTINUOUS
 62
    7
 10
377.04441708600956
 20
278.98682033534743
 11
376.24441708600961
 21
278.98682033534743
  0
LINE
  8
_0-f_
  6
CONTINUOUS
 62
    7
 10
377.04441708600956
 20
278.90682033534745
 11
376.24441708600961
 21
278.90682033534745
  0
LINE
  8
_0-f_
  6
CONTINUOUS
 62
    7
 10
377.04441708600956
 20
278.82682033534741
 11
376.24441708600961
 21
278.82682033534741
  0
LINE
  8
_0-f_
  6
CONTINUOUS
 62
    7
 10
377.04441708600956
 20
278.74682033534748
 11
376.24441708600961
 21
278.74682033534748
  0
LINE
  8
_0-f_
  6
CONTINUOUS
 62
    7
 10
377.04441708600956
 20
278.66682033534744
 11
376.24441708600961
 21
278.66682033534744
  0
LINE
  8
_0-f_
  6
CONTINUOUS
 62
    7
 10
377.04441708600956
 20
278.58682033534745
 11
376.24441708600961
 21
278.58682033534745
  0
LINE
  8
_0-f_
  6
CONTINUOUS
 62
    7
 10
377.04441708600956
 20
278.50682033534747
 11
376.24441708600961
 21
278.50682033534747
  0
LINE
  8
_0-f_
  6
CONTINUOUS
 62
    7
 10
377.04441708600956
 20
278.42682033534743
 11
376.24441708600961
 21
278.42682033534743
  0
LINE
  8
_0-f_
  6
CONTINUOUS
 62
    7
 10
377.04441708600956
 20
278.34682033534739
 11
376.24441708600961
 21
278.34682033534739
  0
LINE
  8
_0-f_
  6
CONTINUOUS
 62
    7
 10
379.04441708600962
 20
278.2668203353474
 11
374.24444108600949
 21
278.2668203353474
  0
LINE
  8
_0-f_
  6
CONTINUOUS
 62
    7
 10
379.04441708600962
 20
278.18682033534742
 11
374.24444108600949
 21
278.18682033534742
  0
LINE
  8
_0-f_
  6
CONTINUOUS
 62
    7
 10
379.04441708600962
 20
278.10682033534738
 11
374.24444108600949
 21
278.10682033534738
  0
LINE
  8
_0-f_
  6
CONTINUOUS
 62
    7
 10
379.04441708600962
 20
278.02682033534745
 11
374.24444108600949
 21
278.02682033534745
  0
LINE
  8
_0-f_
  6
CONTINUOUS
 62
    7
 10
379.04441708600962
 20
277.94682033534741
 11
374.24444108600949
 21
277.94682033534741
  0
LINE
  8
_0-f_
  6
CONTINUOUS
 62
    7
 10
379.04441708600962
 20
277.86682033534743
 11
374.24444108600949
 21
277.86682033534743
  0
LINE
  8
_0-f_
  6
CONTINUOUS
 62
    7
 10
374.56443308600956
 20
281.82686033534748
 11
378.72444108600973
 21
281.82686033534748
  0
LINE
  8
_0-f_
  6
CONTINUOUS
 62
    7
 10
374.24444108600949
 20
277.82682033534746
 11
379.04441708600967
 21
277.82682033534746
  0
LINE
  8
_0-f_
  6
CONTINUOUS
 62
    7
 10
377.04441708600956
 20
278.30690033534745
 11
379.04441708600967
 21
278.30690033534745
  0
LINE
  8
_0-f_
  6
CONTINUOUS
 62
    7
 10
377.04441708600956
 20
281.34678033534749
 11
378.72444108600973
 21
281.34678033534749
  0
LINE
  8
_0-f_
  6
CONTINUOUS
 62
    7
 10
376.24441708600961
 20
281.34678033534749
 11
376.24441708600961
 21
278.30690033534745
  0
LINE
  8
_0-f_
  6
CONTINUOUS
 62
    7
 10
377.04441708600956
 20
281.34678033534749
 11
377.04441708600956
 21
278.30690033534745
  0
LINE
  8
_0-f_
  6
CONTINUOUS
 62
    7
 10
374.24444108600949
 20
278.30690033534745
 11
376.24441708600961
 21
278.30690033534745
  0
LINE
  8
_0-f_
  6
CONTINUOUS
 62
    7
 10
374.24444108600949
 20
278.30690033534745
 11
374.24444108600949
 21
277.82682033534746
  0
LINE
  8
_0-f_
  6
CONTINUOUS
 62
    7
 10
374.56443308600956
 20
281.34678033534743
 11
376.24441708600961
 21
281.34678033534749
  0
LINE
  8
_0-f_
  6
CONTINUOUS
 62
    7
 10
374.56443308600956
 20
281.82686033534748
 11
374.56443308600956
 21
281.34678033534743
  0
LINE
  8
_0-f_
  6
CONTINUOUS
 62
    7
 10
379.04441708600967
 20
278.30690033534745
 11
379.04441708600967
 21
277.82682033534746
  0
LINE
  8
_0-f_
  6
CONTINUOUS
 62
    7
 10
378.72444108600973
 20
281.82686033534748
 11
378.72444108600973
 21
281.34678033534743
  0
LINE
  8
_0-f_
  6
CONTINUOUS
 62
    7
 10
372.32449892800366
 20
280.38682033534747
 11
371.65493459524288
 21
278.54682033534749
  0
LINE
  8
_0-f_
  6
CONTINUOUS
 62
    7
 10
371.65493459524288
 20
278.54682033534749
 11
371.25488148375001
 21
278.54682033534749
  0
LINE
  8
_0-f_
  6
CONTINUOUS
 62
    7
 10
371.25488148375001
 20
278.54682033534749
 11
370.99250548375011
 21
277.82682033534746
  0
LINE
  8
_0-f_
  6
CONTINUOUS
 62
    7
 10
370.99250548375011
 20
277.82682033534746
 11
372.46701750259604
 21
277.82682033534746
  0
ARC
  8
_0-f_
  6
CONTINUOUS
 62
    7
 10
372.46701750259604
 20
278.22682033534744
 40
0.4000000000000004
 50
270
 51
339.99904441127069
  0
LINE
  8
_0-f_
  6
CONTINUOUS
 62
    7
 10
372.84289226915013
 20
278.09000600909508
 11
373.82378680046639
 21
280.78485173959598
  0
ARC
  8
_0-f_
  6
CONTINUOUS
 62
    7
 10
373.59826194053386
 20
280.86694033534746
 40
0.2399999999999993
 50
339.99904441126887
 51
90.000000000000014
  0
LINE
  8
_0-f_
  6
CONTINUOUS
 62
    7
 10
373.59826194053386
 20
281.10694033534742
 11
371.55893315345264
 21
281.10694033534742
  0
LINE
  8
_0-f_
  6
CONTINUOUS
 62
    7
 10
371.55893315345264
 20
281.10694033534742
 11
371.70371507677697
 21
281.50478666244021
  0
ARC
  8
_0-f_
  6
CONTINUOUS
 62
    7
 10
371.47818478565063
 20
281.58686033534741
 40
0.2399999999999989
 50
340.002835592856
 51
90.000000000000043
  0
LINE
  8
_0-f_
  6
CONTINUOUS
 62
    7
 10
371.47818478565063
 20
281.82686033534748
 11
370.46614545966156
 21
281.82686033534748
  0
LINE
  8
_0-f_
  6
CONTINUOUS
 62
    7
 10
370.46614545966156
 20
281.82686033534748
 11
370.20455343557279
 21
281.10694033534742
  0
LINE
  8
_0-f_
  6
CONTINUOUS
 62
    7
 10
370.20455343557279
 20
281.10694033534742
 11
369.56450548375011
 21
281.10694033534742
  0
LINE
  8
_0-f_
  6
CONTINUOUS
 62
    7
 10
369.56450548375011
 20
281.10694033534742
 11
369.30207416040872
 21
280.38682033534747
  0
LINE
  8
_0-f_
  6
CONTINUOUS
 62
    7
 10
369.30207416040872
 20
280.38682033534747
 11
369.94213386350077
 21
280.38682033534747
  0
LINE
  8
_0-f_
  6
CONTINUOUS
 62
    7
 10
369.94213386350077
 20
280.38682033534747
 11
369.27251348375006
 21
278.54682033534749
  0
LINE
  8
_0-f_
  6
CONTINUOUS
 62
    7
 10
369.27251348375006
 20
278.54682033534749
 11
368.63249748375
 21
278.54682033534749
  0
LINE
  8
_0-f_
  6
CONTINUOUS
 62
    7
 10
368.63249748375
 20
278.54682033534749
 11
368.37011863695517
 21
277.82682033534746
  0
LINE
  8
_0-f_
  6
CONTINUOUS
 62
    7
 10
368.37011863695517
 20
277.82682033534746
 11
370.0294706228637
 21
277.82682033534746
  0
ARC
  8
_0-f_
  6
CONTINUOUS
 62
    7
 10
370.0294706228637
 20
278.30682033534742
 40
0.4800000000000009
 50
270
 51
340.00100452272619
  0
LINE
  8
_0-f_
  6
CONTINUOUS
 62
    7
 10
370.48052595903158
 20
278.14265857453148
 11
371.29728948375003
 21
280.38682033534747
  0
LINE
  8
_0-f_
  6
CONTINUOUS
 62
    7
 10
371.29728948375003
 20
280.38682033534747
 11
372.32449892800366
 21
280.38682033534747
  0
LINE
  8
_0-f_
  6
CONTINUOUS
 62
    7
 10
373.46051422592558
 20
279.78682033534744
 11
372.10616273253817
 21
279.78682033534744
  0
LINE
  8
_0-f_
  6
CONTINUOUS
 62
    7
 10
371.07891925599387
 20
279.78682033534744
 11
369.72377939184292
 21
279.78682033534744
  0
LINE
  8
_0-f_
  6
CONTINUOUS
 62
    7
 10
373.48963335568391
 20
279.86682033534748
 11
372.13527422526693
 21
279.86682033534748
  0
LINE
  8
_0-f_
  6
CONTINUOUS
 62
    7
 10
371.10803528636131
 20
279.86682033534748
 11
369.75289332139732
 21
279.86682033534748
  0
LINE
  8
_0-f_
  6
CONTINUOUS
 62
    7
 10
373.51875248544235
 20
279.94682033534741
 11
372.16438571799563
 21
279.94682033534741
  0
LINE
  8
_0-f_
  6
CONTINUOUS
 62
    7
 10
371.13715131672882
 20
279.94682033534741
 11
369.78200725095172
 21
279.94682033534741
  0
LINE
  8
_0-f_
  6
CONTINUOUS
 62
    7
 10
373.54787161520079
 20
280.02682033534745
 11
372.19349721072439
 21
280.02682033534745
  0
LINE
  8
_0-f_
  6
CONTINUOUS
 62
    7
 10
371.16626734709632
 20
280.02682033534745
 11
369.81112118050606
 21
280.02682033534745
  0
LINE
  8
_0-f_
  6
CONTINUOUS
 62
    7
 10
373.57699074495912
 20
280.10682033534744
 11
372.22260870345309
 21
280.10682033534744
  0
LINE
  8
_0-f_
  6
CONTINUOUS
 62
    7
 10
371.19538337746383
 20
280.10682033534749
 11
369.84023511006041
 21
280.10682033534744
  0
LINE
  8
_0-f_
  6
CONTINUOUS
 62
    7
 10
373.6061098747175
 20
280.18682033534742
 11
372.25172019618179
 21
280.18682033534742
  0
LINE
  8
_0-f_
  6
CONTINUOUS
 62
    7
 10
371.22449940783127
 20
280.18682033534742
 11
369.8693490396148
 21
280.18682033534742
  0
LINE
  8
_0-f_
  6
CONTINUOUS
 62
    7
 10
373.63522900447589
 20
280.26682033534746
 11
372.28083168891061
 21
280.26682033534746
  0
LINE
  8
_0-f_
  6
CONTINUOUS
 62
    7
 10
371.25361543819878
 20
280.26682033534746
 11
369.8984629691692
 21
280.26682033534746
  0
LINE
  8
_0-f_
  6
CONTINUOUS
 62
    7
 10
373.66434813423427
 20
280.3468203353475
 11
372.30994318163931
 21
280.3468203353475
  0
LINE
  8
_0-f_
  6
CONTINUOUS
 62
    7
 10
371.28273146856628
 20
280.3468203353475
 11
369.9275768987236
 21
280.3468203353475
  0
LINE
  8
_0-f_
  6
CONTINUOUS
 62
    7
 10
373.69346726399266
 20
280.42682033534749
 11
369.31665124885745
 21
280.42682033534749
  0
LINE
  8
_0-f_
  6
CONTINUOUS
 62
    7
 10
373.7225863937511
 20
280.50682033534747
 11
369.3458054257548
 21
280.50682033534747
  0
LINE
  8
_0-f_
  6
CONTINUOUS
 62
    7
 10
373.75170552350949
 20
280.58682033534751
 11
369.37495960265215
 21
280.58682033534751
  0
LINE
  8
_0-f_
  6
CONTINUOUS
 62
    7
 10
373.78082465326787
 20
280.66682033534744
 11
369.40411377954945
 21
280.66682033534744
  0
LINE
  8
_0-f_
  6
CONTINUOUS
 62
    7
 10
373.8099437830262
 20
280.74682033534748
 11
369.43326795644685
 21
280.74682033534748
  0
LINE
  8
_0-f_
  6
CONTINUOUS
 62
    7
 10
373.83449853626763
 20
280.82682033534746
 11
369.46242213334415
 21
280.82682033534746
  0
LINE
  8
_0-f_
  6
CONTINUOUS
 62
    7
 10
373.83430998205512
 20
280.90682033534745
 11
369.49157631024144
 21
280.90682033534745
  0
LINE
  8
_0-f_
  6
CONTINUOUS
 62
    7
 10
373.80533637234561
 20
280.98682033534749
 11
369.52073048713879
 21
280.98682033534749
  0
LINE
  8
_0-f_
  6
CONTINUOUS
 62
    7
 10
373.72976809355401
 20
281.06682033534742
 11
369.54988466403614
 21
281.06682033534742
  0
LINE
  8
_0-f_
  6
CONTINUOUS
 62
    7
 10
371.57344605129526
 20
281.14682033534746
 11
370.21904433722943
 21
281.14682033534746
  0
LINE
  8
_0-f_
  6
CONTINUOUS
 62
    7
 10
371.60255918638592
 20
281.2268203353475
 11
370.24811334757379
 21
281.2268203353475
  0
LINE
  8
_0-f_
  6
CONTINUOUS
 62
    7
 10
371.63167232147646
 20
281.30682033534742
 11
370.27718235791809
 21
281.30682033534742
  0
LINE
  8
_0-f_
  6
CONTINUOUS
 62
    7
 10
371.660785456567
 20
281.38682033534747
 11
370.30625136826245
 21
281.38682033534747
  0
LINE
  8
_0-f_
  6
CONTINUOUS
 62
    7
 10
371.68989859165765
 20
281.46682033534751
 11
370.33532037860681
 21
281.46682033534751
  0
LINE
  8
_0-f_
  6
CONTINUOUS
 62
    7
 10
371.71443154485866
 20
281.54682033534749
 11
370.36438938895122
 21
281.54682033534749
  0
LINE
  8
_0-f_
  6
CONTINUOUS
 62
    7
 10
371.71421700661125
 20
281.62682033534747
 11
370.39345839929553
 21
281.62682033534747
  0
LINE
  8
_0-f_
  6
CONTINUOUS
 62
    7
 10
371.68521379002817
 20
281.70682033534752
 11
370.42252740963988
 21
281.70682033534752
  0
LINE
  8
_0-f_
  6
CONTINUOUS
 62
    7
 10
371.60956987044943
 20
281.78682033534744
 11
370.45159641998424
 21
281.78682033534744
  0
LINE
  8
_0-f_
  6
CONTINUOUS
 62
    7
 10
373.43139509616719
 20
279.70682033534746
 11
372.07705123980946
 21
279.70682033534746
  0
LINE
  8
_0-f_
  6
CONTINUOUS
 62
    7
 10
371.04980322562636
 20
279.70682033534746
 11
369.69466546228853
 21
279.70682033534746
  0
LINE
  8
_0-f_
  6
CONTINUOUS
 62
    7
 10
373.40227596640881
 20
279.62682033534747
 11
372.0479397470807
 21
279.62682033534747
  0
LINE
  8
_0-f_
  6
CONTINUOUS
 62
    7
 10
371.02068719525886
 20
279.62682033534747
 11
369.66555153273418
 21
279.62682033534747
  0
LINE
  8
_0-f_
  6
CONTINUOUS
 62
    7
 10
373.37315683665042
 20
279.54682033534743
 11
372.018828254352
 21
279.54682033534743
  0
LINE
  8
_0-f_
  6
CONTINUOUS
 62
    7
 10
370.99157116489135
 20
279.54682033534743
 11
369.63643760317979
 21
279.54682033534743
  0
LINE
  8
_0-f_
  6
CONTINUOUS
 62
    7
 10
373.34403770689204
 20
279.46682033534739
 11
371.98971676162324
 21
279.46682033534739
  0
LINE
  8
_0-f_
  6
CONTINUOUS
 62
    7
 10
370.96245513452385
 20
279.46682033534739
 11
369.60732367362539
 21
279.46682033534739
  0
LINE
  8
_0-f_
  6
CONTINUOUS
 62
    7
 10
373.3149185771336
 20
279.38682033534747
 11
371.96060526889454
 21
279.38682033534747
  0
LINE
  8
_0-f_
  6
CONTINUOUS
 62
    7
 10
370.9333391041564
 20
279.38682033534747
 11
369.57820974407099
 21
279.38682033534747
  0
LINE
  8
_0-f_
  6
CONTINUOUS
 62
    7
 10
373.28579944737527
 20
279.30682033534742
 11
371.93149377616584
 21
279.30682033534742
  0
LINE
  8
_0-f_
  6
CONTINUOUS
 62
    7
 10
370.9042230737889
 20
279.30682033534742
 11
369.54909581451665
 21
279.30682033534742
  0
LINE
  8
_0-f_
  6
CONTINUOUS
 62
    7
 10
373.25668031761683
 20
279.22682033534738
 11
371.90238228343702
 21
279.22682033534738
  0
LINE
  8
_0-f_
  6
CONTINUOUS
 62
    7
 10
370.87510704342145
 20
279.2268203353475
 11
369.51998188496231
 21
279.22682033534738
  0
LINE
  8
_0-f_
  6
CONTINUOUS
 62
    7
 10
373.2275611878585
 20
279.14682033534746
 11
371.87327079070832
 21
279.14682033534746
  0
LINE
  8
_0-f_
  6
CONTINUOUS
 62
    7
 10
370.84599101305395
 20
279.14682033534746
 11
369.49086795540791
 21
279.14682033534746
  0
LINE
  8
_0-f_
  6
CONTINUOUS
 62
    7
 10
373.19844205810006
 20
279.06682033534742
 11
371.84415929797962
 21
279.06682033534742
  0
LINE
  8
_0-f_
  6
CONTINUOUS
 62
    7
 10
370.81687498268644
 20
279.06682033534742
 11
369.46175402585351
 21
279.06682033534742
  0
LINE
  8
_0-f_
  6
CONTINUOUS
 62
    7
 10
373.16932292834167
 20
278.98682033534743
 11
371.81504780525086
 21
278.98682033534743
  0
LINE
  8
_0-f_
  6
CONTINUOUS
 62
    7
 10
370.78775895231894
 20
278.98682033534743
 11
369.43264009629911
 21
278.98682033534743
  0
LINE
  8
_0-f_
  6
CONTINUOUS
 62
    7
 10
373.14020379858329
 20
278.90682033534745
 11
371.78593631252215
 21
278.90682033534745
  0
LINE
  8
_0-f_
  6
CONTINUOUS
 62
    7
 10
370.75864292195149
 20
278.90682033534745
 11
369.40352616674477
 21
278.90682033534745
  0
LINE
  8
_0-f_
  6
CONTINUOUS
 62
    7
 10
373.1110846688249
 20
278.82682033534741
 11
371.75682481979339
 21
278.82682033534741
  0
LINE
  8
_0-f_
  6
CONTINUOUS
 62
    7
 10
370.72952689158404
 20
278.82682033534741
 11
369.37441223719037
 21
278.82682033534741
  0
LINE
  8
_0-f_
  6
CONTINUOUS
 62
    7
 10
373.08196553906652
 20
278.74682033534748
 11
371.72771332706469
 21
278.74682033534748
  0
LINE
  8
_0-f_
  6
CONTINUOUS
 62
    7
 10
370.70041086121654
 20
278.74682033534748
 11
369.34529830763597
 21
278.74682033534748
  0
LINE
  8
_0-f_
  6
CONTINUOUS
 62
    7
 10
373.05284640930819
 20
278.66682033534744
 11
371.69860183433593
 21
278.66682033534744
  0
LINE
  8
_0-f_
  6
CONTINUOUS
 62
    7
 10
370.67129483084904
 20
278.66682033534744
 11
369.31618437808157
 21
278.66682033534744
  0
LINE
  8
_0-f_
  6
CONTINUOUS
 62
    7
 10
373.02372727954975
 20
278.58682033534745
 11
371.66949034160723
 21
278.58682033534745
  0
LINE
  8
_0-f_
  6
CONTINUOUS
 62
    7
 10
370.64217880048153
 20
278.58682033534745
 11
369.28707044852723
 21
278.58682033534745
  0
LINE
  8
_0-f_
  6
CONTINUOUS
 62
    7
 10
372.9946081497913
 20
278.50682033534747
 11
371.24030503930555
 21
278.50682033534747
  0
LINE
  8
_0-f_
  6
CONTINUOUS
 62
    7
 10
370.61306277011403
 20
278.50682033534747
 11
368.61792088115021
 21
278.50682033534747
  0
LINE
  8
_0-f_
  6
CONTINUOUS
 62
    7
 10
372.96548902003298
 20
278.42682033534743
 11
371.21115215041669
 21
278.42682033534743
  0
LINE
  8
_0-f_
  6
CONTINUOUS
 62
    7
 10
370.58394673974652
 20
278.42682033534743
 11
368.58876767595075
 21
278.42682033534743
  0
LINE
  8
_0-f_
  6
CONTINUOUS
 62
    7
 10
372.93636989027459
 20
278.34682033534739
 11
371.18199926152778
 21
278.34682033534739
  0
LINE
  8
_0-f_
  6
CONTINUOUS
 62
    7
 10
370.55483070937908
 20
278.34682033534739
 11
368.55961447075134
 21
278.34682033534739
  0
LINE
  8
_0-f_
  6
CONTINUOUS
 62
    7
 10
372.90725076051621
 20
278.2668203353474
 11
371.15284637263892
 21
278.2668203353474
  0
LINE
  8
_0-f_
  6
CONTINUOUS
 62
    7
 10
370.52571467901157
 20
278.26682033534746
 11
368.53046126555188
 21
278.2668203353474
  0
LINE
  8
_0-f_
  6
CONTINUOUS
 62
    7
 10
372.87813163075782
 20
278.18682033534742
 11
371.12369348375006
 21
278.18682033534742
  0
LINE
  8
_0-f_
  6
CONTINUOUS
 62
    7
 10
370.49659864864407
 20
278.18682033534742
 11
368.50130806035253
 21
278.18682033534742
  0
LINE
  8
_0-f_
  6
CONTINUOUS
 62
    7
 10
372.84901250099944
 20
278.10682033534738
 11
371.09454059486114
 21
278.10682033534738
  0
LINE
  8
_0-f_
  6
CONTINUOUS
 62
    7
 10
370.46494327210246
 20
278.10682033534738
 11
368.47215485515312
 21
278.10682033534738
  0
LINE
  8
_0-f_
  6
CONTINUOUS
 62
    7
 10
372.81214202795235
 20
278.02682033534745
 11
371.06538770597228
 21
278.02682033534745
  0
LINE
  8
_0-f_
  6
CONTINUOUS
 62
    7
 10
370.41910782370798
 20
278.02682033534745
 11
368.44300164995371
 21
278.02682033534745
  0
LINE
  8
_0-f_
  6
CONTINUOUS
 62
    7
 10
372.75228792687204
 20
277.94682033534741
 11
371.03623481708343
 21
277.94682033534741
  0
LINE
  8
_0-f_
  6
CONTINUOUS
 62
    7
 10
370.3447748887117
 20
277.94682033534741
 11
368.41384844475425
 21
277.94682033534741
  0
LINE
  8
_0-f_
  6
CONTINUOUS
 62
    7
 10
372.63992815930277
 20
277.86682033534743
 11
371.00708192819451
 21
277.86682033534743
  0
LINE
  8
_0-f_
  6
CONTINUOUS
 62
    7
 10
370.21764973983727
 20
277.86682033534743
 11
368.38469523955484
 21
277.86682033534743
  0
LINE
  8
_0-f_
  6
CONTINUOUS
 62
    7
 10
371.29728948375003
 20
280.38682033534747
 11
372.32449892800366
 21
280.38682033534747
  0
LINE
  8
_0-f_
  6
CONTINUOUS
 62
    7
 10
371.65493459524288
 20
278.54682033534749
 11
372.32449892800366
 21
280.38682033534747
  0
LINE
  8
_0-f_
  6
CONTINUOUS
 62
    7
 10
370.99250548375011
 20
277.82682033534746
 11
372.46701750259604
 21
277.82682033534746
  0
LINE
  8
_0-f_
  6
CONTINUOUS
 62
    7
 10
371.55888948374997
 20
281.10694033534742
 11
373.59826194053386
 21
281.10694033534742
  0
ARC
  8
_0-f_
  6
CONTINUOUS
 62
    7
 10
371.47818478565063
 20
281.58686033534741
 40
0.2399999999999999
 50
340.00283559285606
 51
90.000000000000014
  0
LINE
  8
_0-f_
  6
CONTINUOUS
 62
    7
 10
369.27251348375006
 20
278.54682033534749
 11
369.94211348375006
 21
280.38676433534749
  0
LINE
  8
_0-f_
  6
CONTINUOUS
 62
    7
 10
370.48052577095768
 20
278.14265805777461
 11
371.29728948375003
 21
280.38682033534747
  0
LINE
  8
_0-f_
  6
CONTINUOUS
 62
    7
 10
368.37011863695517
 20
277.82682033534746
 11
370.0294706228637
 21
277.82682033534746
  0
LINE
  8
_0-f_
  6
CONTINUOUS
 62
    7
 10
368.63249748375
 20
278.54682033534749
 11
369.27251348375006
 21
278.54682033534749
  0
LINE
  8
_0-f_
  6
CONTINUOUS
 62
    7
 10
368.37011863695517
 20
277.82682033534746
 11
368.63249748375
 21
278.54682033534749
  0
ARC
  8
_0-f_
  6
CONTINUOUS
 62
    7
 10
370.0294706228637
 20
278.30682033534742
 40
0.4799999999999999
 50
270
 51
340.00093888113781
  0
LINE
  8
_0-f_
  6
CONTINUOUS
 62
    7
 10
370.99250548375011
 20
277.82682033534746
 11
371.25488148375001
 21
278.54682033534749
  0
LINE
  8
_0-f_
  6
CONTINUOUS
 62
    7
 10
371.25488148375001
 20
278.54682033534749
 11
371.65493459524288
 21
278.54682033534749
  0
LINE
  8
_0-f_
  6
CONTINUOUS
 62
    7
 10
369.30209748375029
 20
280.38688433534742
 11
369.56450548375011
 21
281.10694033534742
  0
LINE
  8
_0-f_
  6
CONTINUOUS
 62
    7
 10
369.30209748375029
 20
280.38682033534747
 11
369.94211348375006
 21
280.38682033534747
  0
LINE
  8
_0-f_
  6
CONTINUOUS
 62
    7
 10
370.46611348375018
 20
281.82686033534748
 11
371.47818478565063
 21
281.82686033534748
  0
LINE
  8
_0-f_
  6
CONTINUOUS
 62
    7
 10
370.20455343557279
 20
281.10694033534742
 11
370.46611348375018
 21
281.82677233534741
  0
LINE
  8
_0-f_
  6
CONTINUOUS
 62
    7
 10
369.56450548375011
 20
281.10694033534742
 11
370.20455343557279
 21
281.10694033534742
  0
LINE
  8
_0-f_
  6
CONTINUOUS
 62
    7
 10
371.55888948374997
 20
281.10682033534749
 11
371.70371507677697
 21
281.50478666244021
  0
LINE
  8
_0-f_
  6
CONTINUOUS
 62
    7
 10
372.84289226915013
 20
278.09000600909508
 11
373.82378680046639
 21
280.78485173959598
  0
ARC
  8
_0-f_
  6
CONTINUOUS
 62
    7
 10
372.46701750259604
 20
278.22682033534744
 40
0.4
 50
270
 51
339.99904441127069
  0
ARC
  8
_0-f_
  6
CONTINUOUS
 62
    7
 10
373.59826194053386
 20
280.86694033534746
 40
0.2399999999999999
 50
339.99904441127069
 51
90.000000000000043
  0
LINE
  8
_0-f_
  6
CONTINUOUS
 62
    7
 10
368.87842369172859
 20
280.38682033534747
 11
369.02327839789058
 21
280.78486666244032
  0
ARC
  8
_0-f_
  6
CONTINUOUS
 62
    7
 10
368.79774810676423
 20
280.86694033534746
 40
0.2399999999999993
 50
340.00283559286606
 51
89.999999999999915
  0
LINE
  8
_0-f_
  6
CONTINUOUS
 62
    7
 10
368.79774810676423
 20
281.10694033534742
 11
367.60329648771011
 21
281.10694033534742
  0
LINE
  8
_0-f_
  6
CONTINUOUS
 62
    7
 10
367.60329648771011
 20
281.10694033534742
 11
367.74809565504324
 21
281.5047761075848
  0
ARC
  8
_0-f_
  6
CONTINUOUS
 62
    7
 10
367.52256920525832
 20
281.58686033534741
 40
0.2399999999999979
 50
340.00015411793316
 51
89.999999999999986
  0
LINE
  8
_0-f_
  6
CONTINUOUS
 62
    7
 10
367.52256920525832
 20
281.82686033534748
 11
366.35042222384743
 21
281.82686033534748
  0
LINE
  8
_0-f_
  6
CONTINUOUS
 62
    7
 10
366.35042222384743
 20
281.82686033534748
 11
366.08799822384748
 21
281.10694033534742
  0
LINE
  8
_0-f_
  6
CONTINUOUS
 62
    7
 10
366.08799822384748
 20
281.10694033534742
 11
364.12242222384765
 21
281.10694033534742
  0
LINE
  8
_0-f_
  6
CONTINUOUS
 62
    7
 10
364.12242222384765
 20
281.10694033534742
 11
363.86004262774873
 21
280.38682033534747
  0
LINE
  8
_0-f_
  6
CONTINUOUS
 62
    7
 10
363.86004262774873
 20
280.38682033534747
 11
365.82640473615965
 21
280.38682033534747
  0
LINE
  8
_0-f_
  6
CONTINUOUS
 62
    7
 10
365.82640473615965
 20
280.38682033534747
 11
365.15604336999399
 21
278.54682033534749
  0
LINE
  8
_0-f_
  6
CONTINUOUS
 62
    7
 10
365.15604336999399
 20
278.54682033534749
 11
363.83121422384761
 21
278.54682033534749
  0
LINE
  8
_0-f_
  6
CONTINUOUS
 62
    7
 10
363.83121422384761
 20
278.54682033534749
 11
363.56961422384751
 21
277.82682033534746
  0
LINE
  8
_0-f_
  6
CONTINUOUS
 62
    7
 10
363.56961422384751
 20
277.82682033534746
 11
366.12897136014476
 21
277.82682033534746
  0
ARC
  8
_0-f_
  6
CONTINUOUS
 62
    7
 10
366.12897136014476
 20
278.22682033534744
 40
0.399999999999999
 50
270
 51
340.00026326049675
  0
LINE
  8
_0-f_
  6
CONTINUOUS
 62
    7
 10
366.50484903705569
 20
278.09001400508441
 11
367.34080622384744
 21
280.38682033534747
  0
LINE
  8
_0-f_
  6
CONTINUOUS
 62
    7
 10
367.34080622384744
 20
280.38682033534747
 11
368.87842369172859
 21
280.38682033534747
  0
LINE
  8
_0-f_
  6
CONTINUOUS
 62
    7
 10
367.12242720535284
 20
279.78682033534744
 11
365.60780863849692
 21
279.78682033534744
  0
LINE
  8
_0-f_
  6
CONTINUOUS
 62
    7
 10
367.15154440781879
 20
279.86682033534748
 11
365.63695478485198
 21
279.86682033534748
  0
LINE
  8
_0-f_
  6
CONTINUOUS
 62
    7
 10
367.18066161028474
 20
279.94682033534741
 11
365.66610093120698
 21
279.94682033534741
  0
LINE
  8
_0-f_
  6
CONTINUOUS
 62
    7
 10
367.2097788127507
 20
280.02682033534745
 11
365.69524707756204
 21
280.02682033534745
  0
LINE
  8
_0-f_
  6
CONTINUOUS
 62
    7
 10
367.23889601521665
 20
280.10682033534744
 11
365.72439322391705
 21
280.10682033534749
  0
LINE
  8
_0-f_
  6
CONTINUOUS
 62
    7
 10
367.26801321768261
 20
280.18682033534742
 11
365.75353937027205
 21
280.18682033534742
  0
LINE
  8
_0-f_
  6
CONTINUOUS
 62
    7
 10
367.29713042014856
 20
280.26682033534746
 11
365.78268551662705
 21
280.26682033534746
  0
LINE
  8
_0-f_
  6
CONTINUOUS
 62
    7
 10
367.32624762261446
 20
280.3468203353475
 11
365.81183166298212
 21
280.3468203353475
  0
LINE
  8
_0-f_
  6
CONTINUOUS
 62
    7
 10
368.89298025927383
 20
280.42682033534749
 11
363.87461684294061
 21
280.42682033534749
  0
LINE
  8
_0-f_
  6
CONTINUOUS
 62
    7
 10
368.92209339436437
 20
280.50682033534747
 11
363.90376527332427
 21
280.50682033534747
  0
LINE
  8
_0-f_
  6
CONTINUOUS
 62
    7
 10
368.95120652945496
 20
280.58682033534751
 11
363.93291370370798
 21
280.58682033534751
  0
LINE
  8
_0-f_
  6
CONTINUOUS
 62
    7
 10
368.98031966454556
 20
280.66682033534744
 11
363.9620621340917
 21
280.66682033534744
  0
LINE
  8
_0-f_
  6
CONTINUOUS
 62
    7
 10
369.0094327996361
 20
280.74682033534748
 11
363.99121056447535
 21
280.74682033534748
  0
LINE
  8
_0-f_
  6
CONTINUOUS
 62
    7
 10
369.03398575473221
 20
280.82682033534746
 11
364.02035899485907
 21
280.82682033534746
  0
LINE
  8
_0-f_
  6
CONTINUOUS
 62
    7
 10
369.03379660780553
 20
280.90682033534745
 11
364.04950742524278
 21
280.90682033534745
  0
LINE
  8
_0-f_
  6
CONTINUOUS
 62
    7
 10
369.00482237828362
 20
280.98682033534749
 11
364.07865585562655
 21
280.98682033534749
  0
LINE
  8
_0-f_
  6
CONTINUOUS
 62
    7
 10
368.92925407145168
 20
281.06682033534742
 11
364.10780428601021
 21
281.06682033534742
  0
LINE
  8
_0-f_
  6
CONTINUOUS
 62
    7
 10
367.61781149917016
 20
281.14682033534746
 11
366.10253521284625
 21
281.14682033534746
  0
LINE
  8
_0-f_
  6
CONTINUOUS
 62
    7
 10
367.6469288742154
 20
281.2268203353475
 11
366.1316966752309
 21
281.22682033534744
  0
LINE
  8
_0-f_
  6
CONTINUOUS
 62
    7
 10
367.67604624926065
 20
281.30682033534742
 11
366.16085813761566
 21
281.30682033534742
  0
LINE
  8
_0-f_
  6
CONTINUOUS
 62
    7
 10
367.7051636243059
 20
281.38682033534747
 11
366.19001960000037
 21
281.38682033534747
  0
LINE
  8
_0-f_
  6
CONTINUOUS
 62
    7
 10
367.73428099935114
 20
281.46682033534751
 11
366.21918106238508
 21
281.46682033534751
  0
LINE
  8
_0-f_
  6
CONTINUOUS
 62
    7
 10
367.75881548604428
 20
281.54682033534749
 11
366.24834252476978
 21
281.54682033534749
  0
LINE
  8
_0-f_
  6
CONTINUOUS
 62
    7
 10
367.75860095109664
 20
281.62682033534747
 11
366.27750398715449
 21
281.62682033534747
  0
LINE
  8
_0-f_
  6
CONTINUOUS
 62
    7
 10
367.72959841335711
 20
281.70682033534752
 11
366.3066654495392
 21
281.70682033534752
  0
LINE
  8
_0-f_
  6
CONTINUOUS
 62
    7
 10
367.65395439495995
 20
281.78682033534744
 11
366.3358269119239
 21
281.78682033534744
  0
LINE
  8
_0-f_
  6
CONTINUOUS
 62
    7
 10
367.09331000288688
 20
279.70682033534746
 11
365.57866249214192
 21
279.70682033534746
  0
LINE
  8
_0-f_
  6
CONTINUOUS
 62
    7
 10
367.06419280042093
 20
279.62682033534747
 11
365.54951634578686
 21
279.62682033534747
  0
LINE
  8
_0-f_
  6
CONTINUOUS
 62
    7
 10
367.03507559795497
 20
279.54682033534743
 11
365.52037019943185
 21
279.54682033534743
  0
LINE
  8
_0-f_
  6
CONTINUOUS
 62
    7
 10
367.00595839548902
 20
279.46682033534739
 11
365.49122405307679
 21
279.46682033534739
  0
LINE
  8
_0-f_
  6
CONTINUOUS
 62
    7
 10
366.97684119302306
 20
279.38682033534747
 11
365.46207790672179
 21
279.38682033534747
  0
LINE
  8
_0-f_
  6
CONTINUOUS
 62
    7
 10
366.94772399055711
 20
279.30682033534742
 11
365.43293176036673
 21
279.30682033534742
  0
LINE
  8
_0-f_
  6
CONTINUOUS
 62
    7
 10
366.91860678809115
 20
279.2268203353475
 11
365.40378561401172
 21
279.22682033534738
  0
LINE
  8
_0-f_
  6
CONTINUOUS
 62
    7
 10
366.8894895856252
 20
279.14682033534746
 11
365.37463946765666
 21
279.14682033534746
  0
LINE
  8
_0-f_
  6
CONTINUOUS
 62
    7
 10
366.8603723831593
 20
279.06682033534742
 11
365.34549332130166
 21
279.06682033534742
  0
LINE
  8
_0-f_
  6
CONTINUOUS
 62
    7
 10
366.83125518069335
 20
278.98682033534743
 11
365.3163471749466
 21
278.98682033534743
  0
LINE
  8
_0-f_
  6
CONTINUOUS
 62
    7
 10
366.80213797822739
 20
278.90682033534745
 11
365.2872010285916
 21
278.90682033534745
  0
LINE
  8
_0-f_
  6
CONTINUOUS
 62
    7
 10
366.77302077576144
 20
278.82682033534741
 11
365.25805488223659
 21
278.82682033534741
  0
LINE
  8
_0-f_
  6
CONTINUOUS
 62
    7
 10
366.74390357329548
 20
278.74682033534748
 11
365.22890873588159
 21
278.74682033534748
  0
LINE
  8
_0-f_
  6
CONTINUOUS
 62
    7
 10
366.71478637082959
 20
278.66682033534744
 11
365.19976258952653
 21
278.66682033534744
  0
LINE
  8
_0-f_
  6
CONTINUOUS
 62
    7
 10
366.68566916836363
 20
278.58682033534745
 11
365.17061644317147
 21
278.58682033534745
  0
LINE
  8
_0-f_
  6
CONTINUOUS
 62
    7
 10
366.65655196589768
 20
278.50682033534747
 11
363.81668089051419
 21
278.50682033534747
  0
LINE
  8
_0-f_
  6
CONTINUOUS
 62
    7
 10
366.62743476343172
 20
278.42682033534743
 11
363.78761422384758
 21
278.42682033534743
  0
LINE
  8
_0-f_
  6
CONTINUOUS
 62
    7
 10
366.59831756096577
 20
278.34682033534739
 11
363.75854755718086
 21
278.34682033534739
  0
LINE
  8
_0-f_
  6
CONTINUOUS
 62
    7
 10
366.56920035849981
 20
278.2668203353474
 11
363.72948089051425
 21
278.26682033534746
  0
LINE
  8
_0-f_
  6
CONTINUOUS
 62
    7
 10
366.54008315603386
 20
278.18682033534742
 11
363.70041422384753
 21
278.18682033534742
  0
LINE
  8
_0-f_
  6
CONTINUOUS
 62
    7
 10
366.5109659535679
 20
278.10682033534738
 11
363.67134755718087
 21
278.10682033534738
  0
LINE
  8
_0-f_
  6
CONTINUOUS
 62
    7
 10
366.47409588550067
 20
278.02682033534745
 11
363.64228089051414
 21
278.02682033534745
  0
LINE
  8
_0-f_
  6
CONTINUOUS
 62
    7
 10
366.41424178442196
 20
277.94682033534741
 11
363.61321422384748
 21
277.94682033534741
  0
LINE
  8
_0-f_
  6
CONTINUOUS
 62
    7
 10
366.30188201685081
 20
277.86682033534743
 11
363.58414755718081
 21
277.86682033534743
  0
LINE
  8
_0-f_
  6
CONTINUOUS
 62
    7
 10
364.12242222384765
 20
281.10694033534742
 11
366.08799822384748
 21
281.10694033534742
  0
LINE
  8
_0-f_
  6
CONTINUOUS
 62
    7
 10
366.08799822384748
 20
281.10694033534742
 11
364.12242222384765
 21
281.10694033534742
  0
LINE
  8
_0-f_
  6
CONTINUOUS
 62
    7
 10
365.82640473615965
 20
280.38682033534747
 11
363.86004262774873
 21
280.38682033534747
  0
LINE
  8
_0-f_
  6
CONTINUOUS
 62
    7
 10
365.15604336999399
 20
278.54682033534749
 11
365.82640473615965
 21
280.38682033534747
  0
LINE
  8
_0-f_
  6
CONTINUOUS
 62
    7
 10
363.56961422384751
 20
277.82682033534746
 11
366.12897136014476
 21
277.82682033534746
  0
LINE
  8
_0-f_
  6
CONTINUOUS
 62
    7
 10
363.83121422384761
 20
278.54682033534749
 11
365.15604336999399
 21
278.54682033534749
  0
LINE
  8
_0-f_
  6
CONTINUOUS
 62
    7
 10
363.56961422384751
 20
277.82682033534746
 11
363.83121422384761
 21
278.54682033534749
  0
LINE
  8
_0-f_
  6
CONTINUOUS
 62
    7
 10
363.86004262774873
 20
280.38682033534747
 11
364.12242222384765
 21
281.10694033534742
  0
LINE
  8
_0-f_
  6
CONTINUOUS
 62
    7
 10
366.50484903705569
 20
278.09001400508441
 11
367.34080622384744
 21
280.38682033534747
  0
ARC
  8
_0-f_
  6
CONTINUOUS
 62
    7
 10
366.12897136014476
 20
278.22682033534744
 40
0.4
 50
270
 51
340.00026326049698
  0
LINE
  8
_0-f_
  6
CONTINUOUS
 62
    7
 10
367.34080622384744
 20
280.38682033534747
 11
368.87842369172859
 21
280.38682033534747
  0
ARC
  8
_0-f_
  6
CONTINUOUS
 62
    7
 10
367.52256920525832
 20
281.58686033534741
 40
0.2399999999999999
 50
340.00015411793424
 51
89.999999999999957
  0
LINE
  8
_0-f_
  6
CONTINUOUS
 62
    7
 10
366.35042222384743
 20
281.82686033534748
 11
367.52256920525832
 21
281.82686033534748
  0
LINE
  8
_0-f_
  6
CONTINUOUS
 62
    7
 10
366.08799822384748
 20
281.10694033534742
 11
366.35042222384743
 21
281.82686033534748
  0
LINE
  8
_0-f_
  6
CONTINUOUS
 62
    7
 10
367.60329648771011
 20
281.10694033534742
 11
368.79774810676423
 21
281.10694033534742
  0
LINE
  8
_0-f_
  6
CONTINUOUS
 62
    7
 10
367.60329648771011
 20
281.10694033534742
 11
367.74809565504324
 21
281.5047761075848
  0
LINE
  8
_0-f_
  6
CONTINUOUS
 62
    7
 10
368.87842369172859
 20
280.38682033534747
 11
369.02327839789058
 21
280.78486666244032
  0
ARC
  8
_0-f_
  6
CONTINUOUS
 62
    7
 10
368.79774810676423
 20
280.86694033534746
 40
0.2399999999999999
 50
340.00283559286788
 51
89.999999999999986
  0
LINE
  8
_0-f_
  6
CONTINUOUS
 62
    7
 10
357.03971554622473
 20
281.05125112857439
 11
357.62849983002388
 21
281.51545444756835
  0
LINE
  8
_0-f_
  6
CONTINUOUS
 62
    7
 10
361.52426023878428
 20
278.21482033534744
 11
360.92254597912108
 21
278.07124973407997
  0
LINE
  8
_0-f_
  6
CONTINUOUS
 62
    7
 10
360.92254597912108
 20
278.07124973407997
 11
360.2817151590051
 21
278.00040263434028
  0
LINE
  8
_0-f_
  6
CONTINUOUS
 62
    7
 10
360.2817151590051
 20
278.00040263434028
 11
359.74977530863163
 21
277.9987561216675
  0
LINE
  8
_0-f_
  6
CONTINUOUS
 62
    7
 10
359.74977530863163
 20
277.9987561216675
 11
359.32385794171984
 21
278.03428700166967
  0
LINE
  8
_0-f_
  6
CONTINUOUS
 62
    7
 10
359.32385794171984
 20
278.03428700166967
 11
358.97434988178173
 21
278.10546112160205
  0
LINE
  8
_0-f_
  6
CONTINUOUS
 62
    7
 10
358.97434988178173
 20
278.10546112160205
 11
359.15706924793204
 21
278.78737988546823
  0
LINE
  8
_0-f_
  6
CONTINUOUS
 62
    7
 10
359.15706924793204
 20
278.78737988546823
 11
359.36430686768398
 21
279.56080212563603
  0
LINE
  8
_0-f_
  6
CONTINUOUS
 62
    7
 10
359.36430686768398
 20
279.56080212563603
 11
359.51679370288792
 21
279.48383031396634
  0
LINE
  8
_0-f_
  6
CONTINUOUS
 62
    7
 10
359.51679370288792
 20
279.48383031396634
 11
359.89892319022488
 21
279.10539970384201
  0
LINE
  8
_0-f_
  6
CONTINUOUS
 62
    7
 10
359.89892319022488
 20
279.10539970384201
 11
360.06363975551892
 21
278.94471211187135
  0
LINE
  8
_0-f_
  6
CONTINUOUS
 62
    7
 10
360.06363975551892
 20
278.94471211187135
 11
360.17555112444342
 21
278.87927646915205
  0
LINE
  8
_0-f_
  6
CONTINUOUS
 62
    7
 10
360.17555112444342
 20
278.87927646915205
 11
360.30256149285873
 21
278.85218434522676
  0
LINE
  8
_0-f_
  6
CONTINUOUS
 62
    7
 10
360.30256149285873
 20
278.85218434522676
 11
360.71396518193552
 21
278.8518767835464
  0
LINE
  8
_0-f_
  6
CONTINUOUS
 62
    7
 10
360.71396518193552
 20
278.8518767835464
 11
361.50273137628352
 21
278.85229801537298
  0
LINE
  8
_0-f_
  6
CONTINUOUS
 62
    7
 10
361.50273137628352
 20
278.85229801537298
 11
361.762392175174
 21
279.10353949879629
  0
LINE
  8
_0-f_
  6
CONTINUOUS
 62
    7
 10
361.762392175174
 20
279.10353949879629
 11
362.21017766794677
 21
280.77469736195974
  0
LINE
  8
_0-f_
  6
CONTINUOUS
 62
    7
 10
362.21017766794677
 20
280.77469736195974
 11
362.51141518126752
 21
281.89893083354264
  0
LINE
  8
_0-f_
  6
CONTINUOUS
 62
    7
 10
362.51141518126752
 20
281.89893083354264
 11
361.56777089872679
 21
282.29285709554995
  0
LINE
  8
_0-f_
  6
CONTINUOUS
 62
    7
 10
361.56777089872679
 20
282.29285709554995
 11
360.48796095567542
 21
282.48944486748633
  0
LINE
  8
_0-f_
  6
CONTINUOUS
 62
    7
 10
360.48796095567542
 20
282.48944486748633
 11
359.30559611464349
 21
282.46916882410108
  0
LINE
  8
_0-f_
  6
CONTINUOUS
 62
    7
 10
359.30559611464349
 20
282.46916882410108
 11
358.17953105124462
 21
282.21287398534042
  0
LINE
  8
_0-f_
  6
CONTINUOUS
 62
    7
 10
358.17953105124462
 20
282.21287398534042
 11
357.22130431771592
 21
281.73345838765522
  0
LINE
  8
_0-f_
  6
CONTINUOUS
 62
    7
 10
357.22130431771592
 20
281.73345838765522
 11
356.53235670908225
 21
281.06480303849605
  0
LINE
  8
_0-f_
  6
CONTINUOUS
 62
    7
 10
356.53235670908225
 20
281.06480303849605
 11
356.2175995818879
 21
280.28569295421687
  0
LINE
  8
_0-f_
  6
CONTINUOUS
 62
    7
 10
356.2175995818879
 20
280.28569295421687
 11
356.30465928310792
 21
279.46914313555862
  0
LINE
  8
_0-f_
  6
CONTINUOUS
 62
    7
 10
356.30465928310792
 20
279.46914313555862
 11
356.78363433440171
 21
278.73143152413445
  0
LINE
  8
_0-f_
  6
CONTINUOUS
 62
    7
 10
356.78363433440171
 20
278.73143152413445
 11
357.60860883401836
 21
278.13285130837778
  0
LINE
  8
_0-f_
  6
CONTINUOUS
 62
    7
 10
357.60860883401836
 20
278.13285130837778
 11
358.64531033625394
 21
277.74835196056654
  0
LINE
  8
_0-f_
  6
CONTINUOUS
 62
    7
 10
358.64531033625394
 20
277.74835196056654
 11
359.82283406695132
 21
277.59227710484993
  0
LINE
  8
_0-f_
  6
CONTINUOUS
 62
    7
 10
359.82283406695132
 20
277.59227710484993
 11
360.5096663570726
 21
277.61163514797795
  0
LINE
  8
_0-f_
  6
CONTINUOUS
 62
    7
 10
360.5096663570726
 20
277.61163514797795
 11
361.08615397598004
 21
277.69109121001577
  0
LINE
  8
_0-f_
  6
CONTINUOUS
 62
    7
 10
361.08615397598004
 20
277.69109121001577
 11
361.41283949110272
 21
277.79899579342685
  0
LINE
  8
_0-f_
  6
CONTINUOUS
 62
    7
 10
361.41283949110272
 20
277.79899579342685
 11
361.47944972069394
 21
278.04758655218507
  0
LINE
  8
_0-f_
  6
CONTINUOUS
 62
    7
 10
361.47944972069394
 20
278.04758655218507
 11
361.52426023878428
 21
278.21482033534744
  0
LINE
  8
_0-f_
  6
CONTINUOUS
 62
    7
 10
358.08124684637124
 20
280.52234191953983
 11
357.92581750644263
 21
279.94227171198929
  0
LINE
  8
_0-f_
  6
CONTINUOUS
 62
    7
 10
357.92581750644263
 20
279.94227171198929
 11
357.66067333832859
 21
278.95274018145847
  0
LINE
  8
_0-f_
  6
CONTINUOUS
 62
    7
 10
357.66067333832859
 20
278.95274018145847
 11
357.57040197736688
 21
278.61935163364262
  0
LINE
  8
_0-f_
  6
CONTINUOUS
 62
    7
 10
357.57040197736688
 20
278.61935163364262
 11
357.5673961603523
 21
278.6211344459432
  0
LINE
  8
_0-f_
  6
CONTINUOUS
 62
    7
 10
357.5673961603523
 20
278.6211344459432
 11
357.56438495063401
 21
278.62291233858912
  0
LINE
  8
_0-f_
  6
CONTINUOUS
 62
    7
 10
357.56438495063401
 20
278.62291233858912
 11
357.22593267149369
 21
278.87011636128125
  0
LINE
  8
_0-f_
  6
CONTINUOUS
 62
    7
 10
357.22593267149369
 20
278.87011636128125
 11
356.79102844919282
 21
279.3805796072125
  0
LINE
  8
_0-f_
  6
CONTINUOUS
 62
    7
 10
356.79102844919282
 20
279.3805796072125
 11
356.60885051353262
 21
279.94369493549698
  0
LINE
  8
_0-f_
  6
CONTINUOUS
 62
    7
 10
356.60885051353262
 20
279.94369493549698
 11
356.69456510032688
 21
280.51845359999538
  0
LINE
  8
_0-f_
  6
CONTINUOUS
 62
    7
 10
356.69456510032688
 20
280.51845359999538
 11
357.03971554622473
 21
281.05125112857439
  0
LINE
  8
_0-f_
  6
CONTINUOUS
 62
    7
 10
357.62849983002388
 20
281.51545444756835
 11
358.4341195576053
 21
281.87297351814561
  0
LINE
  8
_0-f_
  6
CONTINUOUS
 62
    7
 10
358.4341195576053
 20
281.87297351814561
 11
359.36373739707375
 21
282.06983544888794
  0
LINE
  8
_0-f_
  6
CONTINUOUS
 62
    7
 10
359.36373739707375
 20
282.06983544888794
 11
360.13599093109627
 21
282.10421443019112
  0
LINE
  8
_0-f_
  6
CONTINUOUS
 62
    7
 10
360.13599093109627
 20
282.10421443019112
 11
360.50915733105813
 21
282.0826285055067
  0
LINE
  8
_0-f_
  6
CONTINUOUS
 62
    7
 10
360.50915733105813
 20
282.0826285055067
 11
360.87239406167294
 21
282.03662995584739
  0
LINE
  8
_0-f_
  6
CONTINUOUS
 62
    7
 10
360.87239406167294
 20
282.03662995584739
 11
360.92910530652352
 21
281.74365637868647
  0
LINE
  8
_0-f_
  6
CONTINUOUS
 62
    7
 10
360.92910530652352
 20
281.74365637868647
 11
360.66123634687807
 21
280.74395600769753
  0
LINE
  8
_0-f_
  6
CONTINUOUS
 62
    7
 10
360.66123634687807
 20
280.74395600769753
 11
360.47809271312877
 21
280.06045479558406
  0
LINE
  8
_0-f_
  6
CONTINUOUS
 62
    7
 10
360.47809271312877
 20
280.06045479558406
 11
360.30689908684502
 21
280.22305953863759
  0
LINE
  8
_0-f_
  6
CONTINUOUS
 62
    7
 10
360.30689908684502
 20
280.22305953863759
 11
359.96386751168575
 21
280.56510057085518
  0
LINE
  8
_0-f_
  6
CONTINUOUS
 62
    7
 10
359.96386751168575
 20
280.56510057085518
 11
359.80699377568021
 21
280.72071777498411
  0
LINE
  8
_0-f_
  6
CONTINUOUS
 62
    7
 10
359.80699377568021
 20
280.72071777498411
 11
359.70966729166406
 21
280.78553510099636
  0
LINE
  8
_0-f_
  6
CONTINUOUS
 62
    7
 10
359.70966729166406
 20
280.78553510099636
 11
359.59838747223006
 21
280.8200606203593
  0
LINE
  8
_0-f_
  6
CONTINUOUS
 62
    7
 10
359.59838747223006
 20
280.8200606203593
 11
359.4558165917
 21
280.82513082150945
  0
LINE
  8
_0-f_
  6
CONTINUOUS
 62
    7
 10
359.4558165917
 20
280.82513082150945
 11
358.95219281276451
 21
280.82513082150945
  0
LINE
  8
_0-f_
  6
CONTINUOUS
 62
    7
 10
358.95219281276451
 20
280.82513082150945
 11
358.50548541980351
 21
280.82513082150945
  0
LINE
  8
_0-f_
  6
CONTINUOUS
 62
    7
 10
358.50548541980351
 20
280.82513082150945
 11
358.33457307911499
 21
280.79996031585245
  0
LINE
  8
_0-f_
  6
CONTINUOUS
 62
    7
 10
358.33457307911499
 20
280.79996031585245
 11
358.17538247857732
 21
280.69341613332767
  0
LINE
  8
_0-f_
  6
CONTINUOUS
 62
    7
 10
358.17538247857732
 20
280.69341613332767
 11
358.08124684637124
 21
280.52234191953983
  0
SOLID
  8
_0-f_
  6
CONTINUOUS
 62
    7
 10
360.30256149285873
 20
278.85218434522676
 11
360.71396518193552
 21
278.8518767835464
 12
361.50273137628352
 22
278.85229801537298
 13
361.50273137628352
 23
278.85229801537298
  0
LINE
  8
_0-f_
  6
CONTINUOUS
 62
    7
 10
360.65399910500503
 20
277.63152822355789
 11
359.52669973113694
 21
277.63152822355789
  0
LINE
  8
_0-f_
  6
CONTINUOUS
 62
    7
 10
361.17409862396818
 20
277.72013942355784
 11
358.85816289138455
 21
277.72013942355784
  0
LINE
  8
_0-f_
  6
CONTINUOUS
 62
    7
 10
361.43919680174344
 20
277.89736182355784
 11
358.24354437828708
 21
277.89736182355784
  0
LINE
  8
_0-f_
  6
CONTINUOUS
 62
    7
 10
361.46294029247434
 20
277.9859730235579
 11
358.00462755130712
 21
277.9859730235579
  0
LINE
  8
_0-f_
  6
CONTINUOUS
 62
    7
 10
361.41545331101258
 20
277.8087506235579
 11
358.48246120526699
 21
277.8087506235579
  0
LINE
  8
_0-f_
  6
CONTINUOUS
 62
    7
 10
359.03730626592744
 20
278.34041782355791
 11
357.32253676299035
 21
278.34041782355791
  0
LINE
  8
_0-f_
  6
CONTINUOUS
 62
    7
 10
359.01356299450606
 20
278.25180662355785
 11
357.44466238367767
 21
278.25180662355785
  0
LINE
  8
_0-f_
  6
CONTINUOUS
 62
    7
 10
359.08479280877026
 20
278.51764022355786
 11
357.07828552161573
 21
278.51764022355786
  0
LINE
  8
_0-f_
  6
CONTINUOUS
 62
    7
 10
359.10853608019164
 20
278.60625142355786
 11
356.95615990092841
 21
278.60625142355786
  0
LINE
  8
_0-f_
  6
CONTINUOUS
 62
    7
 10
359.06104953734888
 20
278.42902902355786
 11
357.2004111423031
 21
278.42902902355786
  0
LINE
  8
_0-f_
  6
CONTINUOUS
 62
    7
 10
358.98981972308462
 20
278.16319542355785
 11
357.56678800436504
 21
278.16319542355785
  0
LINE
  8
_0-f_
  6
CONTINUOUS
 62
    7
 10
359.12597416238526
 20
278.07458422355785
 11
357.76571072432722
 21
278.07458422355785
  0
LINE
  8
_0-f_
  6
CONTINUOUS
 62
    7
 10
361.51042727393605
 20
278.16319542355785
 11
361.30789668452309
 21
278.16319542355785
  0
LINE
  8
_0-f_
  6
CONTINUOUS
 62
    7
 10
361.48668378320519
 20
278.07458422355785
 11
360.93652105375224
 21
278.07458422355785
  0
LINE
  8
_0-f_
  6
CONTINUOUS
 62
    7
 10
361.84283394902269
 20
279.40375222355783
 11
359.59765449695703
 21
279.40375222355783
  0
LINE
  8
_0-f_
  6
CONTINUOUS
 62
    7
 10
361.81909064461564
 20
279.31514102355783
 11
359.68713180540516
 21
279.31514102355783
  0
LINE
  8
_0-f_
  6
CONTINUOUS
 62
    7
 10
361.79534734020871
 20
279.22652982355783
 11
359.77660911385334
 21
279.22652982355783
  0
LINE
  8
_0-f_
  6
CONTINUOUS
 62
    7
 10
361.77160403580177
 20
279.13791862355788
 11
359.86608642230146
 21
279.13791862355788
  0
LINE
  8
_0-f_
  6
CONTINUOUS
 62
    7
 10
361.70634273703973
 20
279.04930742355782
 11
359.95556373074959
 21
279.04930742355782
  0
LINE
  8
_0-f_
  6
CONTINUOUS
 62
    7
 10
361.61476210047789
 20
278.96069622355787
 11
360.04504103919777
 21
278.96069622355787
  0
LINE
  8
_0-f_
  6
CONTINUOUS
 62
    7
 10
361.5231814639161
 20
278.87208502355787
 11
360.20926528273071
 21
278.87208502355787
  0
LINE
  8
_0-f_
  6
CONTINUOUS
 62
    7
 10
361.86657725342963
 20
279.49236342355789
 11
359.4998889835129
 21
279.49236342355789
  0
LINE
  8
_0-f_
  6
CONTINUOUS
 62
    7
 10
361.90830740855739
 20
282.15069942355791
 11
358.0552603192678
 21
282.15069942355791
  0
LINE
  8
_0-f_
  6
CONTINUOUS
 62
    7
 10
361.69604064618665
 20
282.23931062355791
 11
358.29568389628196
 21
282.23931062355791
  0
LINE
  8
_0-f_
  6
CONTINUOUS
 62
    7
 10
361.37516867540177
 20
282.32792182355797
 11
358.68500885119829
 21
282.32792182355786
  0
LINE
  8
_0-f_
  6
CONTINUOUS
 62
    7
 10
360.88844839833069
 20
282.41653302355792
 11
359.07433380611531
 21
282.41653302355792
  0
LINE
  8
_0-f_
  6
CONTINUOUS
 62
    7
 10
362.12057417092814
 20
282.06208822355791
 11
360.67135776816423
 21
282.06208822355791
  0
LINE
  8
_0-f_
  6
CONTINUOUS
 62
    7
 10
362.33284093329888
 20
281.97347702355785
 11
360.88461865011811
 21
281.97347702355785
  0
LINE
  8
_0-f_
  6
CONTINUOUS
 62
    7
 10
362.50764647241857
 20
281.8848658235579
 11
360.90177122581593
 21
281.8848658235579
  0
LINE
  8
_0-f_
  6
CONTINUOUS
 62
    7
 10
362.48390316801152
 20
281.79625462355796
 11
360.9189238015137
 21
281.79625462355796
  0
LINE
  8
_0-f_
  6
CONTINUOUS
 62
    7
 10
362.46015986360447
 20
281.7076434235579
 11
360.91945566238616
 21
281.7076434235579
  0
LINE
  8
_0-f_
  6
CONTINUOUS
 62
    7
 10
362.43641655919748
 20
281.61903222355795
 11
360.8957123582465
 21
281.61903222355795
  0
LINE
  8
_0-f_
  6
CONTINUOUS
 62
    7
 10
362.41267325479043
 20
281.53042102355789
 11
360.87196905410684
 21
281.53042102355789
  0
LINE
  8
_0-f_
  6
CONTINUOUS
 62
    7
 10
362.38892995038339
 20
281.44180982355789
 11
360.84822574996713
 21
281.44180982355789
  0
LINE
  8
_0-f_
  6
CONTINUOUS
 62
    7
 10
362.36518664597639
 20
281.35319862355789
 11
360.82448244582741
 21
281.35319862355789
  0
LINE
  8
_0-f_
  6
CONTINUOUS
 62
    7
 10
362.34144334156935
 20
281.26458742355783
 11
360.80073914168776
 21
281.26458742355783
  0
LINE
  8
_0-f_
  6
CONTINUOUS
 62
    7
 10
362.3177000371623
 20
281.17597622355788
 11
360.7769958375481
 21
281.17597622355788
  0
LINE
  8
_0-f_
  6
CONTINUOUS
 62
    7
 10
362.29395673275525
 20
281.08736502355788
 11
360.75325253340844
 21
281.08736502355788
  0
LINE
  8
_0-f_
  6
CONTINUOUS
 62
    7
 10
362.27021342834826
 20
280.99875382355788
 11
360.72950922926879
 21
280.99875382355788
  0
LINE
  8
_0-f_
  6
CONTINUOUS
 62
    7
 10
362.24647012394115
 20
280.91014262355793
 11
360.70576592512913
 21
280.91014262355793
  0
LINE
  8
_0-f_
  6
CONTINUOUS
 62
    7
 10
362.22272681953416
 20
280.82153142355787
 11
360.68202262098941
 21
280.82153142355787
  0
LINE
  8
_0-f_
  6
CONTINUOUS
 62
    7
 10
362.19898351512717
 20
280.73292022355787
 11
360.6582793168497
 21
280.73292022355787
  0
LINE
  8
_0-f_
  6
CONTINUOUS
 62
    7
 10
362.17524021072023
 20
280.64430902355787
 11
360.63453601271004
 21
280.64430902355787
  0
LINE
  8
_0-f_
  6
CONTINUOUS
 62
    7
 10
362.1514969063133
 20
280.55569782355792
 11
360.61079270857039
 21
280.55569782355792
  0
LINE
  8
_0-f_
  6
CONTINUOUS
 62
    7
 10
362.12775360190625
 20
280.46708662355786
 11
360.58704940443073
 21
280.46708662355786
  0
LINE
  8
_0-f_
  6
CONTINUOUS
 62
    7
 10
362.10401029749931
 20
280.37847542355786
 11
360.56330610029107
 21
280.37847542355792
  0
LINE
  8
_0-f_
  6
CONTINUOUS
 62
    7
 10
362.08026699309238
 20
280.28986422355791
 11
360.53956279615142
 21
280.28986422355791
  0
LINE
  8
_0-f_
  6
CONTINUOUS
 62
    7
 10
362.05652368868539
 20
280.20125302355791
 11
360.5158194920117
 21
280.20125302355791
  0
LINE
  8
_0-f_
  6
CONTINUOUS
 62
    7
 10
362.0327803842784
 20
280.11264182355785
 11
360.49207618787199
 21
280.11264182355785
  0
LINE
  8
_0-f_
  6
CONTINUOUS
 62
    7
 10
359.32715359010814
 20
282.06208822355791
 11
357.87814964297763
 21
282.06208822355791
  0
LINE
  8
_0-f_
  6
CONTINUOUS
 62
    7
 10
358.90871538833846
 20
281.97347702355785
 11
357.70103896668746
 21
281.97347702355785
  0
LINE
  8
_0-f_
  6
CONTINUOUS
 62
    7
 10
358.49027718656879
 20
281.8848658235579
 11
357.52392829039729
 21
281.88486582355785
  0
LINE
  8
_0-f_
  6
CONTINUOUS
 62
    7
 10
358.26124415026476
 20
281.79625462355796
 11
357.34681761410735
 21
281.79625462355796
  0
LINE
  8
_0-f_
  6
CONTINUOUS
 62
    7
 10
358.06157107914868
 20
281.7076434235579
 11
357.19470592468099
 21
281.7076434235579
  0
LINE
  8
_0-f_
  6
CONTINUOUS
 62
    7
 10
357.86189800803288
 20
281.61903222355795
 11
357.10340556431612
 21
281.61903222355795
  0
LINE
  8
_0-f_
  6
CONTINUOUS
 62
    7
 10
357.66222493691691
 20
281.53042102355789
 11
357.0159579350298
 21
281.53042102355789
  0
LINE
  8
_0-f_
  6
CONTINUOUS
 62
    7
 10
357.53509076673316
 20
281.44180982355789
 11
356.92080484358627
 21
281.44180982355789
  0
LINE
  8
_0-f_
  6
CONTINUOUS
 62
    7
 10
357.42269845975517
 20
281.35319862355789
 11
356.82950448322134
 21
281.35319862355789
  0
LINE
  8
_0-f_
  6
CONTINUOUS
 62
    7
 10
357.31030615277712
 20
281.26458742355783
 11
356.73820412285642
 21
281.26458742355783
  0
LINE
  8
_0-f_
  6
CONTINUOUS
 62
    7
 10
357.19791384579918
 20
281.17597622355788
 11
356.6469037624916
 21
281.17597622355788
  0
LINE
  8
_0-f_
  6
CONTINUOUS
 62
    7
 10
357.08552153882113
 20
281.08736502355788
 11
356.55560340212662
 21
281.08736502355788
  0
LINE
  8
_0-f_
  6
CONTINUOUS
 62
    7
 10
357.00570737752474
 20
280.99875382355788
 11
356.50567310997752
 21
280.99875382355788
  0
LINE
  8
_0-f_
  6
CONTINUOUS
 62
    7
 10
356.9483043425048
 20
280.91014262355793
 11
356.46987456582821
 21
280.91014262355793
  0
LINE
  8
_0-f_
  6
CONTINUOUS
 62
    7
 10
359.29848225156064
 20
279.31514102355783
 11
357.75777834897008
 21
279.31514102355783
  0
LINE
  8
_0-f_
  6
CONTINUOUS
 62
    7
 10
359.2747389801396
 20
279.22652982355783
 11
357.73403505006075
 21
279.22652982355783
  0
LINE
  8
_0-f_
  6
CONTINUOUS
 62
    7
 10
359.25099570871856
 20
279.13791862355788
 11
357.71029175115143
 21
279.13791862355788
  0
LINE
  8
_0-f_
  6
CONTINUOUS
 62
    7
 10
359.22725243729752
 20
279.04930742355782
 11
357.68654845224211
 21
279.04930742355782
  0
LINE
  8
_0-f_
  6
CONTINUOUS
 62
    7
 10
359.2035091658766
 20
278.96069622355787
 11
357.66280515333278
 21
278.96069622355787
  0
LINE
  8
_0-f_
  6
CONTINUOUS
 62
    7
 10
359.17976589445556
 20
278.87208502355787
 11
357.63906185442346
 21
278.87208502355787
  0
LINE
  8
_0-f_
  6
CONTINUOUS
 62
    7
 10
359.15602262303452
 20
278.78347382355787
 11
357.61531855551414
 21
278.78347382355787
  0
LINE
  8
_0-f_
  6
CONTINUOUS
 62
    7
 10
359.13227935161308
 20
278.69486262355781
 11
357.59157525660481
 21
278.69486262355781
  0
LINE
  8
_0-f_
  6
CONTINUOUS
 62
    7
 10
360.06216530511421
 20
280.46708662355786
 11
358.06644123479123
 21
280.46708662355786
  0
LINE
  8
_0-f_
  6
CONTINUOUS
 62
    7
 10
360.15103312110597
 20
280.37847542355792
 11
358.0426979358819
 21
280.37847542355792
  0
LINE
  8
_0-f_
  6
CONTINUOUS
 62
    7
 10
360.23990093709779
 20
280.28986422355791
 11
358.01895463697258
 21
280.28986422355791
  0
LINE
  8
_0-f_
  6
CONTINUOUS
 62
    7
 10
360.32876875308961
 20
280.20125302355791
 11
357.99521133806326
 21
280.20125302355791
  0
LINE
  8
_0-f_
  6
CONTINUOUS
 62
    7
 10
360.41763656908137
 20
280.11264182355785
 11
357.97146803915393
 21
280.11264182355785
  0
LINE
  8
_0-f_
  6
CONTINUOUS
 62
    7
 10
362.00903707987146
 20
280.02403062355785
 11
357.94772474024461
 21
280.02403062355785
  0
LINE
  8
_0-f_
  6
CONTINUOUS
 62
    7
 10
361.98529377546447
 20
279.93541942355785
 11
357.92398144133529
 21
279.93541942355785
  0
LINE
  8
_0-f_
  6
CONTINUOUS
 62
    7
 10
361.96155047105754
 20
279.8468082235579
 11
357.90023814242596
 21
279.8468082235579
  0
LINE
  8
_0-f_
  6
CONTINUOUS
 62
    7
 10
361.93780716665054
 20
279.75819702355784
 11
357.8764948435167
 21
279.75819702355784
  0
LINE
  8
_0-f_
  6
CONTINUOUS
 62
    7
 10
361.91406386224361
 20
279.66958582355795
 11
357.85275154460732
 21
279.66958582355778
  0
LINE
  8
_0-f_
  6
CONTINUOUS
 62
    7
 10
361.89032055783662
 20
279.58097462355789
 11
357.82900824569805
 21
279.58097462355789
  0
LINE
  8
_0-f_
  6
CONTINUOUS
 62
    7
 10
359.34596879440272
 20
279.49236342355789
 11
357.80526494678867
 21
279.49236342355789
  0
LINE
  8
_0-f_
  6
CONTINUOUS
 62
    7
 10
359.32222552298168
 20
279.40375222355783
 11
357.7815216478794
 21
279.40375222355783
  0
LINE
  8
_0-f_
  6
CONTINUOUS
 62
    7
 10
359.88442967313063
 20
280.64430902355787
 11
358.14836070409922
 21
280.64430902355792
  0
LINE
  8
_0-f_
  6
CONTINUOUS
 62
    7
 10
359.97329748912233
 20
280.55569782355792
 11
358.09960133149804
 21
280.55569782355792
  0
LINE
  8
_0-f_
  6
CONTINUOUS
 62
    7
 10
359.78867118372619
 20
280.73292022355787
 11
358.2344066289196
 21
280.73292022355787
  0
LINE
  8
_0-f_
  6
CONTINUOUS
 62
    7
 10
359.55702940755071
 20
280.82153142355787
 11
358.48104484886886
 21
280.82153142355787
  0
LINE
  8
_0-f_
  6
CONTINUOUS
 62
    7
 10
356.89090130748485
 20
280.82153142355787
 11
356.43407602167889
 21
280.82153142355787
  0
LINE
  8
_0-f_
  6
CONTINUOUS
 62
    7
 10
356.83349827246496
 20
280.73292022355787
 11
356.39827747752958
 21
280.73292022355787
  0
LINE
  8
_0-f_
  6
CONTINUOUS
 62
    7
 10
356.77609523744508
 20
280.64430902355798
 11
356.36247893338026
 21
280.64430902355798
  0
LINE
  8
_0-f_
  6
CONTINUOUS
 62
    7
 10
356.71869220242513
 20
280.55569782355792
 11
356.32668038923094
 21
280.55569782355792
  0
LINE
  8
_0-f_
  6
CONTINUOUS
 62
    7
 10
356.68690466920651
 20
280.46708662355786
 11
356.29088184508163
 21
280.46708662355786
  0
LINE
  8
_0-f_
  6
CONTINUOUS
 62
    7
 10
356.67368995342673
 20
280.37847542355797
 11
356.25508330093231
 21
280.37847542355797
  0
LINE
  8
_0-f_
  6
CONTINUOUS
 62
    7
 10
356.66047523764684
 20
280.28986422355791
 11
356.219284756783
 21
280.28986422355791
  0
LINE
  8
_0-f_
  6
CONTINUOUS
 62
    7
 10
356.64726052186705
 20
280.20125302355791
 11
356.2266024803838
 21
280.20125302355791
  0
LINE
  8
_0-f_
  6
CONTINUOUS
 62
    7
 10
356.63404580608722
 20
280.11264182355785
 11
356.23605011532351
 21
280.11264182355785
  0
LINE
  8
_0-f_
  6
CONTINUOUS
 62
    7
 10
356.62083109030738
 20
280.02403062355785
 11
356.24549775026316
 21
280.02403062355785
  0
LINE
  8
_0-f_
  6
CONTINUOUS
 62
    7
 10
356.61152779047018
 20
279.93541942355785
 11
356.25494538520286
 21
279.93541942355785
  0
LINE
  8
_0-f_
  6
CONTINUOUS
 62
    7
 10
356.64019510723733
 20
279.8468082235579
 11
356.26439302014256
 21
279.8468082235579
  0
LINE
  8
_0-f_
  6
CONTINUOUS
 62
    7
 10
356.66886242400449
 20
279.75819702355784
 11
356.27384065508221
 21
279.75819702355784
  0
LINE
  8
_0-f_
  6
CONTINUOUS
 62
    7
 10
356.6975297407717
 20
279.66958582355778
 11
356.28328829002191
 21
279.66958582355778
  0
LINE
  8
_0-f_
  6
CONTINUOUS
 62
    7
 10
356.7261970575388
 20
279.58097462355789
 11
356.29273592496156
 21
279.58097462355789
  0
LINE
  8
_0-f_
  6
CONTINUOUS
 62
    7
 10
356.75486437430595
 20
279.49236342355789
 11
356.30218355990127
 21
279.49236342355789
  0
LINE
  8
_0-f_
  6
CONTINUOUS
 62
    7
 10
356.78353169107311
 20
279.40375222355783
 11
356.34711573213855
 21
279.40375222355783
  0
LINE
  8
_0-f_
  6
CONTINUOUS
 62
    7
 10
356.84678078113762
 20
279.31514102355783
 11
356.4046484500841
 21
279.31514102355783
  0
LINE
  8
_0-f_
  6
CONTINUOUS
 62
    7
 10
356.92227570722747
 20
279.22652982355783
 11
356.46218116802959
 21
279.22652982355783
  0
LINE
  8
_0-f_
  6
CONTINUOUS
 62
    7
 10
356.99777063331726
 20
279.13791862355788
 11
356.51971388597508
 21
279.13791862355788
  0
LINE
  8
_0-f_
  6
CONTINUOUS
 62
    7
 10
357.0732655594071
 20
279.04930742355782
 11
356.57724660392063
 21
279.04930742355782
  0
LINE
  8
_0-f_
  6
CONTINUOUS
 62
    7
 10
357.14876048549689
 20
278.96069622355787
 11
356.63477932186612
 21
278.96069622355787
  0
LINE
  8
_0-f_
  6
CONTINUOUS
 62
    7
 10
357.22425541158668
 20
278.87208502355787
 11
356.69231203981161
 21
278.87208502355787
  0
LINE
  8
_0-f_
  6
CONTINUOUS
 62
    7
 10
357.34455681054948
 20
278.78347382355787
 11
356.74984475775716
 21
278.78347382355787
  0
LINE
  8
_0-f_
  6
CONTINUOUS
 62
    7
 10
357.46587628695102
 20
278.69486262355781
 11
356.83403428024116
 21
278.69486262355781
  0
TEXT
  8
_0-f_
 62
    7
 10
347.79188337580177
 20
231.31003121152827
 40
3
 41
1
 50
0
  1
②扉　　ｽﾁｰﾙ　t1.0　ﾎﾟﾘｯｼｭﾎﾜｲﾄ　焼付塗装
  0
TEXT
  8
_0-f_
 62
    7
 10
347.69245785156505
 20
227.50785867488065
 40
3
 41
1
 50
0
  1
③ｱｸﾘﾙﾌﾟﾚｰﾄ　　t5.0　ｸﾘｱ
  0
TEXT
  8
_0-f_
 62
    7
 10
393.79188337580177
 20
28.560031211528354
 40
2.5
 41
1
 50
0
  1
2020.02.15
  0
ENDSEC
  0
EOF
